  0
SECTION
  2
HEADER
  9
$ACADVER
  1
AC1009
  9
$INSBASE
 10
0.0
 20
0.0
 30
0.0
  9
$EXTMIN
 10
-113.021574281646707
 20
-0.0140971286618879
 30
-0.0015258207003583
  9
$EXTMAX
 10
21.0188761011452208
 20
180.0501034458285972
 30
0.0000000349246037
  9
$LIMMIN
 10
0.0
 20
0.0
  9
$LIMMAX
 10
594.0000000000002274
 20
840.0
  9
$ORTHOMODE
 70
     1
  9
$REGENMODE
 70
     1
  9
$FILLMODE
 70
     1
  9
$QTEXTMODE
 70
     0
  9
$MIRRTEXT
 70
     1
  9
$DRAGMODE
 70
     2
  9
$LTSCALE
 40
20.0
  9
$OSMODE
 70
  2559
  9
$ATTMODE
 70
     1
  9
$TEXTSIZE
 40
3.5
  9
$TRACEWID
 40
1.0
  9
$TEXTSTYLE
  7
STANDARD
  9
$CLAYER
  8
STEMPEL
  9
$CELTYPE
  6
BYLAYER
  9
$CECOLOR
 62
   256
  9
$DIMSCALE
 40
1.0
  9
$DIMASZ
 40
3.5
  9
$DIMEXO
 40
1.0
  9
$DIMDLI
 40
7.0
  9
$DIMRND
 40
0.0
  9
$DIMDLE
 40
0.0
  9
$DIMEXE
 40
1.0
  9
$DIMTP
 40
0.0
  9
$DIMTM
 40
0.0
  9
$DIMTXT
 40
3.5
  9
$DIMCEN
 40
1.5
  9
$DIMTSZ
 40
0.0
  9
$DIMTOL
 70
     0
  9
$DIMLIM
 70
     0
  9
$DIMTIH
 70
     0
  9
$DIMTOH
 70
     0
  9
$DIMSE1
 70
     0
  9
$DIMSE2
 70
     0
  9
$DIMTAD
 70
     1
  9
$DIMZIN
 70
     8
  9
$DIMBLK
  1

  9
$DIMASO
 70
     1
  9
$DIMSHO
 70
     0
  9
$DIMPOST
  1

  9
$DIMAPOST
  1

  9
$DIMALT
 70
     0
  9
$DIMALTD
 70
     2
  9
$DIMALTF
 40
25.3999999999999986
  9
$DIMLFAC
 40
1.0
  9
$DIMTOFL
 70
     1
  9
$DIMTVP
 40
0.0
  9
$DIMTIX
 70
     0
  9
$DIMSOXD
 70
     0
  9
$DIMSAH
 70
     0
  9
$DIMBLK1
  1

  9
$DIMBLK2
  1

  9
$DIMSTYLE
  2
STANDARD
  9
$DIMCLRD
 70
     0
  9
$DIMCLRE
 70
     0
  9
$DIMCLRT
 70
     1
  9
$DIMTFAC
 40
0.5
  9
$DIMGAP
 40
1.5
  9
$LUNITS
 70
     2
  9
$LUPREC
 70
     2
  9
$SKETCHINC
 40
1.0
  9
$FILLETRAD
 40
6.0
  9
$AUNITS
 70
     0
  9
$AUPREC
 70
     0
  9
$MENU
  1
ACAD
  9
$ELEVATION
 40
0.0
  9
$PELEVATION
 40
0.0
  9
$THICKNESS
 40
0.0
  9
$LIMCHECK
 70
     0
  9
$BLIPMODE
 70
     0
  9
$CHAMFERA
 40
0.0
  9
$CHAMFERB
 40
0.0
  9
$SKPOLY
 70
     0
  9
$TDCREATE
 40
2455397.867048610933125
  9
$TDUPDATE
 40
2458885.4207291668280959
  9
$TDINDWG
 40
2.6537985763999998
  9
$TDUSRTIMER
 40
2.6537985763999998
  9
$USRTIMER
 70
     1
  9
$ANGBASE
 50
0.0
  9
$ANGDIR
 70
     0
  9
$PDMODE
 70
     0
  9
$PDSIZE
 40
0.0
  9
$PLINEWID
 40
0.0
  9
$COORDS
 70
     1
  9
$SPLFRAME
 70
     0
  9
$SPLINETYPE
 70
     6
  9
$SPLINESEGS
 70
     8
  9
$ATTDIA
 70
     1
  9
$ATTREQ
 70
     1
  9
$HANDLING
 70
     1
  9
$HANDSEED
  5
E4E9
  9
$SURFTAB1
 70
     6
  9
$SURFTAB2
 70
     6
  9
$SURFTYPE
 70
     6
  9
$SURFU
 70
     6
  9
$SURFV
 70
     6
  9
$UCSNAME
  2

  9
$UCSORG
 10
0.0
 20
0.0
 30
0.0
  9
$UCSXDIR
 10
1.0
 20
0.0
 30
0.0
  9
$UCSYDIR
 10
0.0
 20
1.0
 30
0.0
  9
$PUCSNAME
  2

  9
$PUCSORG
 10
0.0
 20
0.0
 30
0.0
  9
$PUCSXDIR
 10
1.0
 20
0.0
 30
0.0
  9
$PUCSYDIR
 10
0.0
 20
1.0
 30
0.0
  9
$USERI1
 70
     0
  9
$USERI2
 70
     0
  9
$USERI3
 70
     0
  9
$USERI4
 70
     0
  9
$USERI5
 70
     0
  9
$USERR1
 40
0.0
  9
$USERR2
 40
0.0
  9
$USERR3
 40
0.0
  9
$USERR4
 40
0.0
  9
$USERR5
 40
0.0
  9
$WORLDVIEW
 70
     1
  9
$SHADEDGE
 70
     3
  9
$SHADEDIF
 70
    70
  9
$TILEMODE
 70
     1
  9
$MAXACTVP
 70
    16
  9
$PLIMCHECK
 70
     0
  9
$PEXTMIN
 10
1.0000000000000000E+20
 20
1.0000000000000000E+20
 30
1.0000000000000000E+20
  9
$PEXTMAX
 10
-1.0000000000000000E+20
 20
-1.0000000000000000E+20
 30
-1.0000000000000000E+20
  9
$PLIMMIN
 10
-5.7460342198568748
 20
-3.1840569587436711
  9
$PLIMMAX
 10
204.4780277265336963
 20
294.1388829660107831
  9
$UNITMODE
 70
     0
  9
$VISRETAIN
 70
     0
  9
$PLINEGEN
 70
     0
  9
$PSLTSCALE
 70
     0
  0
ENDSEC
  0
SECTION
  2
TABLES
  0
TABLE
  2
VPORT
 70
     1
  0
VPORT
  2
*ACTIVE
 70
     0
 10
0.0
 20
0.0
 11
1.0
 21
1.0
 12
-46.0
 22
0.0000000000000568
 13
0.0
 23
0.0
 14
1.0
 24
1.0
 15
10.0
 25
10.0
 16
0.0000000000001055
 26
0.0
 36
475.3391087173176857
 17
0.0
 27
90.0
 37
-0.00000000000002
 40
180.9175870858115047
 41
1.868197278911564
 42
49.9999999999999929
 43
0.0
 44
0.0
 50
0.0
 51
0.0
 71
     0
 72
  1500
 73
     1
 74
     1
 75
     0
 76
     0
 77
     0
 78
     0
  0
ENDTAB
  0
TABLE
  2
LTYPE
 70
     5
  0
LTYPE
  2
CONTINUOUS
 70
     0
  3
Solid line
 72
    65
 73
     0
 40
0.0
  0
LTYPE
  2
STRICHPUNKT
 70
     0
  3
__ . __ . __ . __ . __ . __ . __ . __ . __ . __
 72
    65
 73
     4
 40
1.0
 49
0.5
 49
-0.25
 49
0.0
 49
-0.25
  0
LTYPE
  2
AUSGEZOGEN
 70
     0
  3
Ausgezogene Linie
 72
    65
 73
     0
 40
0.0
  0
ENDTAB
  0
TABLE
  2
LAYER
 70
    14
  0
LAYER
  2
0
 70
     0
 62
     7
  6
CONTINUOUS
  0
LAYER
  2
STEMPEL
 70
     0
 62
     3
  6
CONTINUOUS
  0
LAYER
  2
TEXT
 70
     0
 62
     7
  6
CONTINUOUS
  0
LAYER
  2
DEFPOINTS
 70
     0
 62
     7
  6
CONTINUOUS
  0
LAYER
  2
ADSK_ASSOC_ENTITY_BACKUPS
 70
     1
 62
    -7
  6
CONTINUOUS
  0
ENDTAB
  0
TABLE
  2
STYLE
 70
     4
  0
STYLE
  2
STANDARD
 70
     0
 40
0.0
 41
0.8
 50
0.0
 71
     0
 42
3.5
  3
simplex.shx
  4

  0
STYLE
  2
GREEKS
 70
     0
 40
0.0
 41
0.8
 50
0.0
 71
     0
 42
2.5
  3
SIMPLEX.shx
  4

  0
ENDTAB
  0
TABLE
  2
VIEW
 70
     2
  0
ENDTAB
  0
TABLE
  2
UCS
 70
     0
  0
ENDTAB
  0
TABLE
  2
APPID
 70
    47
  0
APPID
  2
ACAD
 70
     0
  0
APPID
  2
ACAD_EXEMPT_FROM_CAD_STANDARDS
 70
     0
  0
APPID
  2
ACAD_NAV_VCDISPLAY
 70
     0
  0
APPID
  2
ACAD_PSEXT
 70
     0
  0
APPID
  2
ACAECLAYERSTANDARD
 70
     0
  0
APPID
  2
ACCMTRANSPARENCY
 70
     0
  0
APPID
  2
ACAD_STEPID
 70
     0
  0
APPID
  2
ACADANNOMONITORALERTICONDI
 70
     0
  0
APPID
  2
ACAD_MLEADERVER
 70
     0
  0
APPID
  2
ACAD_OBJECT_CHANGE_GUID
 70
     0
  0
APPID
  2
ACADANNOPO
 70
     0
  0
APPID
  2
GRADIENTCOLOR1ACI
 70
     0
  0
APPID
  2
GRADIENTCOLOR2ACI
 70
     0
  0
APPID
  2
ACAD_DSTYLE_DIMRADIAL_EXTENSION
 70
     0
  0
APPID
  2
MCAD_NO_VIS
 70
     0
  0
APPID
  2
ACAD_TEMP_GRAPHIC
 70
     0
  0
APPID
  2
ACATTRIBSERVICES
 70
     0
  0
APPID
  2
DESIGNERASSEMBLIES
 70
     0
  0
APPID
  2
ACAD_DSTYLE_DIMJAG
 70
     0
  0
APPID
  2
ACAD_DSTYLE_DIMBREAK
 70
     0
  0
APPID
  2
GENIUS_GENSCREG_15
 70
     0
  0
APPID
  2
GENIUS_GENOBJ-N-SDF_13
 70
     0
  0
APPID
  2
GENIUS_GENODEF_13
 70
     0
  0
APPID
  2
ACAD_DSTYLE_DIMARC_LENGTH_
 70
     0
  0
APPID
  2
ACAD_DSTYLE_DIM_LINETYPE
 70
     0
  0
APPID
  2
ACAD_DSTYLE_DIM_EXT1_LINETYPE
 70
     0
  0
APPID
  2
ACAD_DSTYLE_DIM_EXT2_LINETYPE
 70
     0
  0
APPID
  2
RAK
 70
     0
  0
APPID
  2
ACSYNERGY
 70
     0
  0
APPID
  2
SYNERGY_BODY_TBR_ID
 70
     0
  0
APPID
  2
ACAD_VIEW_EDGE_ID
 70
     0
  0
APPID
  2
ACSYNERGYSKETCH
 70
     0
  0
APPID
  2
ACAD_MODELDOC_XFORM
 70
     0
  0
APPID
  2
GENIUS_GENDTOL_13
 70
     0
  0
APPID
  2
ACAD_DSTYLE_DIMINSPECT
 70
     0
  0
APPID
  2
ACAD_DSTYLE_DIMANGULAR_EXT
 70
     0
  0
APPID
  2
PLOTTRANSPARENCY
 70
     0
  0
APPID
  2
ACAUTHENVIRON
 70
     0
  0
APPID
  2
ACDBDYNAMICBLOCKTRUENAME
 70
     0
  0
APPID
  2
ACDBDYNAMICBLOCKGUID
 70
     0
  0
APPID
  2
PE_URL
 70
     0
  0
APPID
  2
SYNERGY_EXCLUDED_FROM_SNAPSHOT
 70
     0
  0
APPID
  2
ACAD_DSTYLE_DIMTALN
 70
     0
  0
APPID
  2
ACAD_DIMASSOC_CALC_DIMLFAC
 70
     0
  0
APPID
  2
ACAD_DIMASSOC_DIMLFAC
 70
     0
  0
APPID
  2
ACAD_DIMASSOC_OVERRIDDEN_D
 70
     0
  0
APPID
  2
AcDbAttr
 70
     0
  0
ENDTAB
  0
TABLE
  2
DIMSTYLE
 70
     4
  0
DIMSTYLE
  2
STANDARD
 70
     0
  3

  4

  5

  6

  7

 40
1.0
 41
0.18
 42
0.0625
 43
0.38
 44
0.18
 45
0.0
 46
0.0
 47
0.0
 48
0.0
140
0.18
141
0.09
142
0.0
143
25.3999999999999986
144
1.0
145
0.0
146
1.0
147
0.09
 71
     0
 72
     0
 73
     1
 74
     1
 75
     0
 76
     0
 77
     0
 78
     0
170
     0
171
     2
172
     0
173
     0
174
     0
175
     0
176
     0
177
     0
178
     0
  0
ENDTAB
  0
ENDSEC
  0
SECTION
  2
BLOCKS
  0
BLOCK
  8
0
  2
$MODEL_SPACE
 70
     0
 10
0.0
 20
0.0
 30
0.0
  3
$MODEL_SPACE
  1

  0
ENDBLK
  5
38
  8
0
  0
BLOCK
 67
     1
  8
0
  2
$PAPER_SPACE
 70
     0
 10
0.0
 20
0.0
 30
0.0
  3
$PAPER_SPACE
  1

  0
ENDBLK
  5
36
 67
     1
  8
0
  0
BLOCK
  8
0
  2
*S0
 70
     1
 10
0.0
 20
0.0
 30
0.0
  3
*S0
  1

  0
ENDBLK
  5
30A9
  8
0
  0
BLOCK
  8
0
  2
A$C5170D210
 70
     0
 10
0.0
 20
0.0
 30
0.0
  3
A$C5170D210
  1

  0
LINE
  5
E468
  8
0
  6
CONTINUOUS
 10
-21.0
 20
138.0
 30
-0.0000000000000306
 11
21.0
 21
180.0000000000001137
 31
-0.00000000000004
210
0.0
220
1.0
230
-0.0000000000000002
  0
LINE
  5
E469
  8
0
  6
CONTINUOUS
 10
20.5625566823705412
 20
0.0
 30
0.0
 11
-20.5625566823705412
 21
0.0
 31
0.0
210
0.0
220
1.0
230
-0.0000000000000002
  0
LINE
  5
E46A
  8
0
  6
CONTINUOUS
 10
-21.0
 20
5.0000000000000293
 30
-0.0000000000000011
 11
-21.0
 21
138.0
 31
-0.0000000000000306
210
0.0
220
1.0
230
-0.0000000000000002
  0
LINE
  5
E46B
  8
0
  6
CONTINUOUS
 10
21.0
 20
5.0000000000000293
 30
-0.0000000000000011
 11
21.0
 21
180.0000000000001137
 31
-0.00000000000004
210
0.0
220
1.0
230
-0.0000000000000002
  0
LINE
  5
E46C
  8
0
  6
CONTINUOUS
 10
-20.5625566823705412
 20
0.0
 30
0.0
 11
-21.0
 21
5.0000000000000293
 31
-0.0000000000000011
210
0.0
220
1.0
230
-0.0000000000000002
  0
LINE
  5
E46D
  8
0
  6
CONTINUOUS
 10
20.5625566823705412
 20
0.0
 30
0.0
 11
21.0
 21
5.0000000000000293
 31
-0.0000000000000011
210
0.0
220
1.0
230
-0.0000000000000002
  0
LINE
  5
E46E
  8
0
  6
STRICHPUNKT
 62
     1
 10
19.5663619842787817
 20
0.0871557427476546
 30
0.0
 11
-19.5663619842787817
 21
0.0871557427476546
 31
0.0
210
0.0
220
1.0
230
-0.0000000000000002
  0
LINE
  5
E46F
  8
0
  6
STRICHPUNKT
 62
     1
 10
-20.0
 20
5.0436609429069961
 30
-0.0000000000000011
 11
-20.0
 21
139.0000000000001137
 31
-0.0000000000000309
210
0.0
220
1.0
230
-0.0000000000000002
  0
LINE
  5
E470
  8
0
  6
STRICHPUNKT
 62
     1
 10
20.0
 20
5.0436609429069961
 30
-0.0000000000000011
 11
20.0
 21
179.0000000000001137
 31
-0.0000000000000397
210
0.0
220
1.0
230
-0.0000000000000002
  0
LINE
  5
E471
  8
0
  6
STRICHPUNKT
 62
     1
 10
-19.5663619842787817
 20
0.0871557427476546
 30
0.0
 11
-20.0
 21
5.0436609429069961
 31
-0.0000000000000011
210
0.0
220
1.0
230
-0.0000000000000002
  0
LINE
  5
E472
  8
0
  6
STRICHPUNKT
 62
     1
 10
19.5663619842787817
 20
0.0871557427476546
 30
0.0
 11
20.0
 21
5.0436609429069961
 31
-0.0000000000000011
210
0.0
220
1.0
230
-0.0000000000000002
  0
LINE
  5
E473
  8
0
  6
STRICHPUNKT
 62
     1
 10
19.5663619842787817
 20
0.0871557427476546
 30
0.0
 11
20.5625566823705412
 21
0.0
 31
0.0
210
0.0
220
1.0
230
-0.0000000000000002
  0
LINE
  5
E474
  8
0
  6
STRICHPUNKT
 62
     1
 10
-19.5663619842787817
 20
0.0871557427476546
 30
0.0
 11
-20.5625566823705412
 21
0.0
 31
0.0
210
0.0
220
1.0
230
-0.0000000000000002
  0
ENDBLK
  5
E476
  8
0
  0
BLOCK
  8
0
  2
A$C6C98992A
 70
     0
 10
0.0
 20
0.0
 30
0.0
  3
A$C6C98992A
  1

  0
CIRCLE
  5
E47A
  8
0
  6
CONTINUOUS
 10
-0.0000000000000444
 20
159.0000000000001137
 30
-0.0000000000000353
 40
20.0000000000000107
  0
CIRCLE
  5
E47B
  8
0
  6
CONTINUOUS
 10
0.0000000000000562
 20
159.0000000000001137
 30
0.0
 40
21.0
210
0.0
220
-0.0000000000000002
230
-1.0
  0
LINE
  5
E47C
  8
0
  6
CONTINUOUS
 10
20.5625566823705306
 20
0.0000000000000058
 30
0.0
 11
-20.562556682370559
 21
-0.0000000000000058
 31
0.0
210
-0.0000000000000002
220
1.0
230
-0.0000000000000002
  0
LINE
  5
E47D
  8
0
  6
CONTINUOUS
 10
-21.0000000000000107
 20
5.0000000000000249
 30
-0.0000000000000011
 11
-21.0000000000000604
 21
159.0000000000001137
 31
-0.0000000000000353
210
-0.0000000000000002
220
1.0
230
-0.0000000000000002
  0
LINE
  5
E47E
  8
0
  6
CONTINUOUS
 10
20.9999999999999893
 20
5.0000000000000364
 30
-0.0000000000000011
 11
20.9999999999999503
 21
159.0000000000001137
 31
-0.0000000000000353
210
-0.0000000000000002
220
1.0
230
-0.0000000000000002
  0
LINE
  5
E47F
  8
0
  6
CONTINUOUS
 10
-20.562556682370559
 20
-0.0000000000000059
 30
0.0
 11
-21.0000000000000107
 21
5.000000000000024
 31
-0.0000000000000011
210
-0.0000000000000002
220
1.0
230
-0.0000000000000002
  0
LINE
  5
E480
  8
0
  6
CONTINUOUS
 10
20.5625566823705306
 20
0.0000000000000059
 30
0.0
 11
20.9999999999999893
 21
5.0000000000000373
 31
-0.0000000000000011
210
-0.0000000000000002
220
1.0
230
-0.0000000000000002
  0
LINE
  5
E481
  8
0
  6
STRICHPUNKT
 62
     1
 10
19.5663619842787817
 20
0.0871557427476602
 30
0.0
 11
-19.5663619842787995
 21
0.0871557427476491
 31
0.0
210
-0.0000000000000002
220
1.0
230
-0.0000000000000002
  0
LINE
  5
E482
  8
0
  6
STRICHPUNKT
 62
     1
 10
-20.0000000000000213
 20
5.0436609429069934
 30
-0.0000000000000011
 11
-20.0000000000000497
 21
159.0000000000001137
 31
-0.0000000000000353
210
-0.0000000000000002
220
1.0
230
-0.0000000000000002
  0
LINE
  5
E483
  8
0
  6
STRICHPUNKT
 62
     1
 10
20.0
 20
5.0436609429070041
 30
-0.0000000000000011
 11
19.9999999999999609
 21
159.0000000000001137
 31
-0.0000000000000353
210
-0.0000000000000002
220
1.0
230
-0.0000000000000002
  0
LINE
  5
E484
  8
0
  6
STRICHPUNKT
 62
     1
 10
-19.5663619842787995
 20
0.087155742747649
 30
0.0
 11
-20.0000000000000107
 21
5.0436609429069916
 31
-0.0000000000000011
210
-0.0000000000000002
220
1.0
230
-0.0000000000000002
  0
LINE
  5
E485
  8
0
  6
STRICHPUNKT
 62
     1
 10
19.5663619842787817
 20
0.0871557427476603
 30
0.0
 11
19.9999999999999893
 21
5.0436609429070041
 31
-0.0000000000000011
210
-0.0000000000000002
220
1.0
230
-0.0000000000000002
  0
LINE
  5
E486
  8
0
  6
STRICHPUNKT
 62
     1
 10
19.5663619842787817
 20
0.0871557427476602
 30
0.0
 11
20.5625566823705306
 21
0.0000000000000058
 31
0.0
210
-0.0000000000000002
220
1.0
230
-0.0000000000000002
  0
LINE
  5
E487
  8
0
  6
STRICHPUNKT
 62
     1
 10
-19.5663619842787995
 20
0.0871557427476491
 30
0.0
 11
-20.562556682370559
 21
-0.0000000000000058
 31
0.0
210
-0.0000000000000002
220
1.0
230
-0.0000000000000002
  0
ENDBLK
  5
E489
  8
0
  0
ENDSEC
  0
SECTION
  2
ENTITIES
  0
TEXT
  5
A55
  8
TEXT
 62
     1
 10
790.1294755517468502
 20
62.9470459695668723
 30
0.0
 40
7.0
  1

 41
0.8
  7
GREEKS
 72
     1
 11
790.1294755517468502
 21
62.9470459695668723
 31
0.0
  0
INSERT
  5
30AA
  8
ADSK_ASSOC_ENTITY_BACKUPS
  2
*S0
 10
0.0
 20
0.0
 30
0.0
  0
INSERT
  5
E477
  8
STEMPEL
  2
A$C5170D210
 10
-92.0
 20
0.0
 30
0.0
  0
INSERT
  5
E48A
  8
STEMPEL
  2
A$C6C98992A
 10
0.0
 20
0.0
 30
0.0
  0
VIEWPORT
  5
2672
 67
     1
  8
0
 10
99.3659967533384503
 20
145.4774130036335009
 30
0.0
 40
558.289468450266213
 41
298.8386048691456836
 68
     1
 69
     1
1001
ACAD
1000
MVIEW
1002
{
1070
    16
1010
0.0
1020
0.0
1030
0.0
1010
0.0
1020
0.0
1030
1.0
1040
0.0
1040
298.8386048691456836
1040
99.3659967533384503
1040
145.4774130036335009
1040
50.0
1040
0.0
1040
0.0
1070
     0
1070
  1500
1070
     1
1070
     1
1070
     0
1070
     0
1070
     0
1070
     0
1040
0.0
1040
0.0
1040
0.0
1040
10.0
1040
10.0
1040
10.0
1040
10.0
1070
     0
1002
{
1002
}
1002
}
  0
ENDSEC
  0
EOF
