  0
SECTION
  2
HEADER
  9
$ACADVER
  1
AC1009
  9
$INSBASE
 10
0.0
 20
0.0
 30
0.0
  9
$EXTMIN
 10
-0.0000000000001303
 20
-210.0000000000009095
 30
-0.0000000000000133
  9
$EXTMAX
 10
510.0000000000010232
 20
60.0000000000000711
 30
0.000000000000081
  9
$LIMMIN
 10
0.0
 20
0.0
  9
$LIMMAX
 10
839.9999999999997726
 20
594.0000000000001137
  9
$ORTHOMODE
 70
     1
  9
$REGENMODE
 70
     1
  9
$FILLMODE
 70
     1
  9
$QTEXTMODE
 70
     0
  9
$MIRRTEXT
 70
     1
  9
$DRAGMODE
 70
     2
  9
$LTSCALE
 40
10.0
  9
$OSMODE
 70
   511
  9
$ATTMODE
 70
     1
  9
$TEXTSIZE
 40
2.5
  9
$TRACEWID
 40
0.5
  9
$TEXTSTYLE
  7
GREEKS
  9
$CLAYER
  8
STEMPEL
  9
$CELTYPE
  6
BYLAYER
  9
$CECOLOR
 62
   256
  9
$DIMSCALE
 40
1.0
  9
$DIMASZ
 40
3.5
  9
$DIMEXO
 40
1.0
  9
$DIMDLI
 40
1.0
  9
$DIMRND
 40
0.0
  9
$DIMDLE
 40
0.0
  9
$DIMEXE
 40
1.0
  9
$DIMTP
 40
0.0
  9
$DIMTM
 40
2.0
  9
$DIMTXT
 40
3.5
  9
$DIMCEN
 40
0.09
  9
$DIMTSZ
 40
0.0
  9
$DIMTOL
 70
     0
  9
$DIMLIM
 70
     0
  9
$DIMTIH
 70
     0
  9
$DIMTOH
 70
     0
  9
$DIMSE1
 70
     0
  9
$DIMSE2
 70
     0
  9
$DIMTAD
 70
     1
  9
$DIMZIN
 70
     8
  9
$DIMBLK
  1

  9
$DIMASO
 70
     1
  9
$DIMSHO
 70
     0
  9
$DIMPOST
  1

  9
$DIMAPOST
  1

  9
$DIMALT
 70
     0
  9
$DIMALTD
 70
     2
  9
$DIMALTF
 40
25.3999999999999986
  9
$DIMLFAC
 40
2.0
  9
$DIMTOFL
 70
     1
  9
$DIMTVP
 40
0.0
  9
$DIMTIX
 70
     0
  9
$DIMSOXD
 70
     0
  9
$DIMSAH
 70
     0
  9
$DIMBLK1
  1

  9
$DIMBLK2
  1

  9
$DIMSTYLE
  2
STANDARD
  9
$DIMCLRD
 70
   256
  9
$DIMCLRE
 70
     0
  9
$DIMCLRT
 70
     1
  9
$DIMTFAC
 40
0.5
  9
$DIMGAP
 40
1.1999999999999991
  9
$LUNITS
 70
     2
  9
$LUPREC
 70
     2
  9
$SKETCHINC
 40
1.0
  9
$FILLETRAD
 40
1.0
  9
$AUNITS
 70
     0
  9
$AUPREC
 70
     0
  9
$MENU
  1
ACAD
  9
$ELEVATION
 40
0.0
  9
$PELEVATION
 40
0.0
  9
$THICKNESS
 40
0.0
  9
$LIMCHECK
 70
     0
  9
$BLIPMODE
 70
     0
  9
$CHAMFERA
 40
1.0
  9
$CHAMFERB
 40
1.0
  9
$SKPOLY
 70
     0
  9
$TDCREATE
 40
2452806.2369097219780087
  9
$TDUPDATE
 40
2460507.4038657411001623
  9
$TDINDWG
 40
2.1232666087999998
  9
$TDUSRTIMER
 40
2.1232666087999998
  9
$USRTIMER
 70
     1
  9
$ANGBASE
 50
0.0
  9
$ANGDIR
 70
     0
  9
$PDMODE
 70
     0
  9
$PDSIZE
 40
0.0
  9
$PLINEWID
 40
0.0
  9
$COORDS
 70
     1
  9
$SPLFRAME
 70
     0
  9
$SPLINETYPE
 70
     6
  9
$SPLINESEGS
 70
     8
  9
$ATTDIA
 70
     1
  9
$ATTREQ
 70
     1
  9
$HANDLING
 70
     1
  9
$HANDSEED
  5
14058
  9
$SURFTAB1
 70
     6
  9
$SURFTAB2
 70
     6
  9
$SURFTYPE
 70
     6
  9
$SURFU
 70
     6
  9
$SURFV
 70
     6
  9
$UCSNAME
  2

  9
$UCSORG
 10
0.0
 20
0.0
 30
0.0
  9
$UCSXDIR
 10
1.0
 20
0.0
 30
0.0
  9
$UCSYDIR
 10
0.0
 20
1.0
 30
0.0
  9
$PUCSNAME
  2

  9
$PUCSORG
 10
0.0
 20
0.0
 30
0.0
  9
$PUCSXDIR
 10
1.0
 20
0.0
 30
0.0
  9
$PUCSYDIR
 10
0.0
 20
1.0
 30
0.0
  9
$USERI1
 70
     0
  9
$USERI2
 70
     0
  9
$USERI3
 70
     0
  9
$USERI4
 70
     0
  9
$USERI5
 70
     0
  9
$USERR1
 40
0.0
  9
$USERR2
 40
0.0
  9
$USERR3
 40
0.0
  9
$USERR4
 40
0.0
  9
$USERR5
 40
0.0
  9
$WORLDVIEW
 70
     1
  9
$SHADEDGE
 70
     3
  9
$SHADEDIF
 70
    70
  9
$TILEMODE
 70
     1
  9
$MAXACTVP
 70
    16
  9
$PLIMCHECK
 70
     0
  9
$PEXTMIN
 10
148.2056475146951016
 20
74.0200526128726324
 30
-0.0000000000008811
  9
$PEXTMAX
 10
153.205647363107488
 20
79.0200525332047619
 30
-0.0000000000008811
  9
$PLIMMIN
 10
-0.2412826809539865
 20
-0.2492647697052348
  9
$PLIMMAX
 10
419.7587173190460135
 20
296.750735230294822
  9
$UNITMODE
 70
     0
  9
$VISRETAIN
 70
     0
  9
$PLINEGEN
 70
     0
  9
$PSLTSCALE
 70
     0
  0
ENDSEC
  0
SECTION
  2
TABLES
  0
TABLE
  2
VPORT
 70
     1
  0
VPORT
  2
*ACTIVE
 70
     0
 10
0.0
 20
0.0
 11
1.0
 21
1.0
 12
49.4865535583056513
 22
99.5347371640459073
 13
0.0
 23
0.0
 14
1.0
 24
1.0
 15
10.0
 25
10.0
 16
0.0000000000003695
 26
0.0
 36
1764.7464296930938872
 17
205.5134464416948106
 27
-174.5347371640463052
 37
0.0000000000000187
 40
271.3947861012878207
 41
1.8847807394668961
 42
50.0000000000000071
 43
0.0
 44
0.0
 50
0.0
 51
0.0
 71
     0
 72
  1500
 73
     1
 74
     0
 75
     0
 76
     0
 77
     0
 78
     0
  0
ENDTAB
  0
TABLE
  2
LTYPE
 70
     4
  0
LTYPE
  2
CONTINUOUS
 70
     0
  3
Solid line
 72
    65
 73
     0
 40
0.0
  0
LTYPE
  2
STRICHPUNKT
 70
     0
  3
__ . __ . __ . __ . __ . __ . __ . __ . __ . __
 72
    65
 73
     4
 40
1.0
 49
0.5
 49
-0.25
 49
0.0
 49
-0.25
  0
LTYPE
  2
AUSGEZOGEN
 70
     0
  3
Ausgezogene Linie
 72
    65
 73
     0
 40
0.0
  0
LTYPE
  2
VERDECKT
 70
     0
  3
Verdeckt __ __ __ __ __ __ __ __ __ __ __ __ __
 72
    65
 73
     2
 40
0.375
 49
0.25
 49
-0.125
  0
ENDTAB
  0
TABLE
  2
LAYER
 70
     6
  0
LAYER
  2
0
 70
     0
 62
     7
  6
AUSGEZOGEN
  0
LAYER
  2
STEMPEL
 70
     0
 62
     3
  6
AUSGEZOGEN
  0
LAYER
  2
ADSK_ASSOC_ENTITY_BACKUPS
 70
     0
 62
     7
  6
CONTINUOUS
  0
LAYER
  2
INDEX
 70
     0
 62
  -255
  6
CONTINUOUS
  0
ENDTAB
  0
TABLE
  2
STYLE
 70
     3
  0
STYLE
  2
STANDARD
 70
     0
 40
0.0
 41
0.8
 50
0.0
 71
     0
 42
3.5
  3
simplex.shx
  4

  0
STYLE
  2
GREEKS
 70
     0
 40
0.0
 41
0.8
 50
0.0
 71
     0
 42
2.5
  3
SIMPLEX.shx
  4

  0
ENDTAB
  0
TABLE
  2
VIEW
 70
     0
  0
ENDTAB
  0
TABLE
  2
UCS
 70
     0
  0
ENDTAB
  0
TABLE
  2
APPID
 70
    30
  0
APPID
  2
ACAD
 70
     0
  0
APPID
  2
ACAD_PSEXT
 70
     0
  0
APPID
  2
ACAD_NAV_VCDISPLAY
 70
     0
  0
APPID
  2
GRADIENTCOLOR1ACI
 70
     0
  0
APPID
  2
GRADIENTCOLOR2ACI
 70
     0
  0
APPID
  2
ACAD_EXEMPT_FROM_CAD_STANDARDS
 70
     0
  0
APPID
  2
ACAD_MLEADERVER
 70
     0
  0
APPID
  2
ACAD_OBJECT_CHANGE_GUID
 70
     0
  0
APPID
  2
ACAECLAYERSTANDARD
 70
     0
  0
APPID
  2
ACCMTRANSPARENCY
 70
     0
  0
APPID
  2
ACAD_STEPID
 70
     0
  0
APPID
  2
ACSYNERGY
 70
     0
  0
APPID
  2
SYNERGY_BODY_TBR_ID
 70
     0
  0
APPID
  2
ACAD_VIEW_EDGE_ID
 70
     0
  0
APPID
  2
ACSYNERGYSKETCH
 70
     0
  0
APPID
  2
SYNERGY_EXCLUDED_FROM_SNAPSHOT
 70
     0
  0
APPID
  2
ACAD_MODELDOC_XFORM
 70
     0
  0
APPID
  2
ACADANNOMONITORALERTICONDI
 70
     0
  0
APPID
  2
ACADANNOTATIVE
 70
     0
  0
APPID
  2
ACAD_DSTYLE_DIMJAG
 70
     0
  0
APPID
  2
ACAD_DSTYLE_DIMTALN
 70
     0
  0
APPID
  2
ACDBDYNAMICBLOCKGUID
 70
     0
  0
APPID
  2
ACAD_DIMASSOC_CALC_DIMLFAC
 70
     0
  0
APPID
  2
ACAD_DIMASSOC_DIMLFAC
 70
     0
  0
APPID
  2
ACAD_DIMASSOC_OVERRIDDEN_D
 70
     0
  0
APPID
  2
ACAD_DSTYLE_DIMRADIAL_EXTENSION
 70
     0
  0
APPID
  2
ACADANNOPO
 70
     0
  0
APPID
  2
ACAD_TC
 70
     0
  0
APPID
  2
ACAD_DSTYLE_DIMBREAK
 70
     0
  0
APPID
  2
ACAD_ASSOCPERSSUBENTMANAGER
 70
     0
  0
ENDTAB
  0
TABLE
  2
DIMSTYLE
 70
     1
  0
DIMSTYLE
  2
STANDARD
 70
     0
  3

  4

  5

  6

  7

 40
1.0
 41
3.5
 42
1.0
 43
1.0
 44
1.0
 45
0.0
 46
0.0
 47
0.0
 48
2.0
140
3.5
141
0.09
142
0.0
143
25.3999999999999986
144
2.0
145
0.0
146
0.5
147
1.1999999999999991
 71
     0
 72
     0
 73
     0
 74
     0
 75
     0
 76
     0
 77
     1
 78
     8
170
     0
171
     2
172
     1
173
     0
174
     0
175
     0
176
   256
177
     0
178
     1
  0
ENDTAB
  0
ENDSEC
  0
SECTION
  2
BLOCKS
  0
BLOCK
  8
0
  2
$MODEL_SPACE
 70
     0
 10
0.0
 20
0.0
 30
0.0
  3
$MODEL_SPACE
  1

  0
ENDBLK
  5
1098
  8
0
  0
BLOCK
 67
     1
  8
0
  2
$PAPER_SPACE
 70
     0
 10
0.0
 20
0.0
 30
0.0
  3
$PAPER_SPACE
  1

  0
ENDBLK
  5
1096
 67
     1
  8
0
  0
BLOCK
  8
0
  2
*S0
 70
     1
 10
0.0
 20
0.0
 30
0.0
  3
*S0
  1

  0
ENDBLK
  5
48E3
  8
0
  0
BLOCK
  8
0
  2
A$C0D9BCDA3
 70
     0
 10
0.0
 20
0.0
 30
0.0
  3
A$C0D9BCDA3
  1

  0
LINE
  5
13C52
  8
0
  6
CONTINUOUS
 62
     3
 10
91.7499999999994174
 20
33.7499999999991971
 30
0.0000000000000213
 11
90.7500000000000142
 21
33.7499999999991971
 31
0.0000000000000211
  0
LINE
  5
13C53
  8
0
  6
CONTINUOUS
 62
     3
 10
91.7499999999994174
 20
36.7499999999992113
 30
0.0000000000000213
 11
91.7499999999994174
 21
33.7499999999991971
 31
0.0000000000000213
  0
LINE
  5
13C54
  8
0
  6
CONTINUOUS
 62
     3
 10
90.7500000000000142
 20
36.7499999999992113
 30
0.0000000000000213
 11
91.7499999999994174
 21
36.7499999999992113
 31
0.0000000000000215
  0
LINE
  5
13C55
  8
0
  6
CONTINUOUS
 62
     3
 10
91.7499999999994174
 20
-36.7500000000008029
 30
0.0000000000000213
 11
90.7500000000000142
 21
-36.7500000000008029
 31
0.0000000000000211
  0
LINE
  5
13C56
  8
0
  6
CONTINUOUS
 62
     3
 10
91.7499999999994174
 20
-33.7500000000008029
 30
0.0000000000000213
 11
91.7499999999994174
 21
-36.7500000000008029
 31
0.0000000000000213
  0
LINE
  5
13C57
  8
0
  6
CONTINUOUS
 62
     3
 10
90.7499999999999858
 20
-33.7500000000008029
 30
0.0000000000000213
 11
91.7499999999994031
 21
-33.7500000000008029
 31
0.0000000000000215
  0
LINE
  5
13C58
  8
0
  6
CONTINUOUS
 62
     3
 10
90.7499999999999858
 20
-33.7500000000008029
 30
0.0000000000000213
 11
90.7500000000000142
 21
33.7499999999991971
 31
0.0000000000000213
  0
LINE
  5
13C59
  8
0
  6
CONTINUOUS
 62
     3
 10
90.7499999999999858
 20
-59.2499999999994671
 30
0.0000000000000213
 11
90.7499999999999858
 21
-36.7500000000008029
 31
0.0000000000000213
  0
LINE
  5
13C5A
  8
0
  6
CONTINUOUS
 62
     3
 10
99.2499999999999858
 20
-59.2499999999994884
 30
0.0000000000000213
 11
90.7499999999999858
 21
-59.2499999999994671
 31
0.0000000000000194
  0
LINE
  5
13C5B
  8
0
  6
CONTINUOUS
 62
     3
 10
99.2499999999999858
 20
-59.249999999997641
 30
0.0000000000000213
 11
99.2499999999999858
 21
-58.249999999997641
 31
0.0000000000000213
  0
LINE
  5
13C5C
  8
0
  6
CONTINUOUS
 62
     3
 10
99.2499999999999858
 20
-58.249999999997641
 30
0.0000000000000213
 11
102.25
 21
-58.249999999997641
 31
0.000000000000022
  0
LINE
  5
13C5D
  8
0
  6
CONTINUOUS
 62
     3
 10
102.25
 20
-58.249999999997641
 30
0.0000000000000213
 11
102.25
 21
-59.2499999999994884
 31
0.0000000000000213
  0
LINE
  5
13C5E
  8
0
  6
CONTINUOUS
 62
     3
 10
109.5854660940673
 20
-59.2499999999994884
 30
0.0000000000000284
 11
102.25
 21
-59.2499999999994884
 31
0.0000000000000267
  0
LINE
  5
13C5F
  8
0
  6
CONTINUOUS
 62
     3
 10
102.25
 20
59.25000000000054
 30
0.0000000000000213
 11
109.5854660940673
 21
59.25000000000054
 31
0.000000000000023
  0
LINE
  5
13C60
  8
0
  6
CONTINUOUS
 62
     3
 10
102.25
 20
59.25000000000054
 30
0.0000000000000213
 11
102.25
 21
58.2500000000005329
 31
0.0000000000000213
  0
LINE
  5
13C61
  8
0
  6
CONTINUOUS
 62
     3
 10
102.25
 20
58.2500000000005329
 30
0.0000000000000213
 11
99.25
 21
58.2500000000005329
 31
0.0000000000000206
  0
LINE
  5
13C62
  8
0
  6
CONTINUOUS
 62
     3
 10
99.2499999999999858
 20
58.2500000000005329
 30
0.0000000000000213
 11
99.2499999999999858
 21
59.25000000000054
 31
0.0000000000000213
  0
LINE
  5
13C63
  8
0
  6
CONTINUOUS
 62
     3
 10
90.7500000000000142
 20
59.25000000000054
 30
0.0000000000000213
 11
99.25
 21
59.25000000000054
 31
0.0000000000000233
  0
LINE
  5
13C64
  8
0
  6
CONTINUOUS
 62
     3
 10
90.7500000000000142
 20
36.7499999999992113
 30
0.0000000000000213
 11
90.7500000000000142
 21
59.25000000000054
 31
0.0000000000000213
  0
LINE
  5
13C65
  8
0
  6
CONTINUOUS
 62
     3
 10
188.7426406871196036
 20
58.2499999999975913
 30
0.0000000000000436
 11
183.7426406871196036
 21
58.2499999999975913
 31
0.0000000000000425
  0
LINE
  5
13C66
  8
0
  6
CONTINUOUS
 62
     3
 10
183.7426406871196036
 20
58.2499999999975984
 30
0.0000000000000425
 11
183.7426406871196036
 21
59.2499999999999787
 31
0.0000000000000425
  0
LINE
  5
13C67
  8
0
  6
CONTINUOUS
 62
     3
 10
183.7426406871196036
 20
59.2499999999999716
 30
0.0000000000000424
 11
185.2426406871194899
 21
59.2499999999999716
 31
0.0000000000000428
  0
LINE
  5
13C68
  8
0
  6
CONTINUOUS
 62
     3
 10
187.2426406871194899
 20
59.2499999999999716
 30
0.0000000000000433
 11
188.7426406871196036
 21
59.2499999999999716
 31
0.0000000000000436
  0
LINE
  5
13C69
  8
0
  6
CONTINUOUS
 62
     3
 10
188.7426406871196036
 20
59.2499999999999787
 30
0.0000000000000436
 11
188.7426406871196036
 21
58.2499999999975984
 31
0.0000000000000436
  0
LINE
  5
13C6A
  8
0
  6
CONTINUOUS
 62
     3
 10
183.7426406871196036
 20
-58.2499999999985505
 30
0.0000000000000425
 11
188.7426406871196036
 21
-58.2499999999985505
 31
0.0000000000000436
  0
LINE
  5
13C6B
  8
0
  6
CONTINUOUS
 62
     3
 10
188.7426406871196036
 20
-58.2499999999985292
 30
0.0000000000000436
 11
188.7426406871196036
 21
-59.2500000000000284
 31
0.0000000000000436
  0
LINE
  5
13C6C
  8
0
  6
CONTINUOUS
 62
     3
 10
188.7426406871196036
 20
-59.2500000000000426
 30
0.0000000000000435
 11
187.2426406871194899
 21
-59.2500000000000426
 31
0.0000000000000432
  0
LINE
  5
13C6D
  8
0
  6
CONTINUOUS
 62
     3
 10
185.2426406871194899
 20
-59.2500000000000426
 30
0.0000000000000429
 11
183.7426406871196036
 21
-59.2500000000000426
 31
0.0000000000000425
  0
LINE
  5
13C6E
  8
0
  6
CONTINUOUS
 62
     3
 10
183.7426406871196036
 20
-59.2500000000000284
 30
0.0000000000000425
 11
183.7426406871196036
 21
-58.2499999999985292
 31
0.0000000000000425
  0
LINE
  5
13C6F
  8
0
  6
CONTINUOUS
 62
     3
 10
183.7426406871196036
 20
59.2499999999999787
 30
0.0000000000000425
 11
171.0393613899788079
 21
59.2499999999999787
 31
0.0000000000000395
  0
LINE
  5
13C70
  8
0
  6
CONTINUOUS
 62
     3
 10
183.7426406871196036
 20
-59.2500000000000284
 30
0.0000000000000425
 11
171.0393613899786942
 21
-59.2500000000000284
 31
0.0000000000000395
  0
LINE
  5
13C71
  8
0
  6
CONTINUOUS
 62
     3
 10
280.2317407897152748
 20
-59.2500000000000426
 30
0.0000000000000648
 11
188.7426406871196036
 21
-59.2500000000000213
 31
0.0000000000000436
  0
LINE
  5
13C72
  8
0
  6
CONTINUOUS
 62
     3
 10
280.2317407897152748
 20
-59.2499999999982094
 30
0.0000000000000648
 11
280.2317407897152748
 21
-58.2499999999982094
 31
0.0000000000000648
  0
LINE
  5
13C73
  8
0
  6
CONTINUOUS
 62
     3
 10
280.2317407897152748
 20
-58.2499999999982094
 30
0.0000000000000648
 11
283.2317407897152748
 21
-58.2499999999982094
 31
0.0000000000000655
  0
LINE
  5
13C74
  8
0
  6
CONTINUOUS
 62
     3
 10
283.2317407897152748
 20
-58.2499999999982094
 30
0.0000000000000655
 11
283.2317407897152748
 21
-59.2499999999982094
 31
0.0000000000000655
  0
LINE
  5
13C75
  8
0
  6
CONTINUOUS
 62
     3
 10
288.2338274840460031
 20
-59.2500000000000426
 30
0.0000000000000666
 11
283.2317407897152179
 21
-59.2500000000000426
 31
0.0000000000000655
  0
LINE
  5
13C76
  8
0
  6
CONTINUOUS
 62
     3
 10
288.2338274840460031
 20
-59.2500000000000426
 30
0.0000000000000666
 11
288.2338274840460031
 21
59.2499999999999716
 31
0.0000000000000666
  0
LINE
  5
13C77
  8
0
  6
CONTINUOUS
 62
     3
 10
288.2338274840460031
 20
59.2499999999999716
 30
0.0000000000000666
 11
283.2317407897153885
 21
59.2499999999999716
 31
0.0000000000000655
  0
LINE
  5
13C78
  8
0
  6
CONTINUOUS
 62
     3
 10
283.2317407897153885
 20
59.2499999999999716
 30
0.0000000000000655
 11
283.2317407897153885
 21
58.2499999999999503
 31
0.0000000000000655
  0
LINE
  5
13C79
  8
0
  6
CONTINUOUS
 62
     3
 10
283.2317407897153885
 20
58.2499999999999503
 30
0.0000000000000655
 11
280.2317407897152748
 21
58.2499999999999503
 31
0.0000000000000648
  0
LINE
  5
13C7A
  8
0
  6
CONTINUOUS
 62
     3
 10
280.2317407897152748
 20
58.2499999999999574
 30
0.0000000000000648
 11
280.2317407897152748
 21
59.2499999999999716
 31
0.0000000000000648
  0
LINE
  5
13C7B
  8
0
  6
CONTINUOUS
 62
     3
 10
280.2317407897152748
 20
59.2499999999999716
 30
0.0000000000000648
 11
188.7426406871196036
 21
59.2499999999999787
 31
0.0000000000000436
  0
LINE
  5
13C7C
  8
0
  6
CONTINUOUS
 62
     3
 10
171.0393613899786942
 20
-59.2500000000000213
 30
0.0000000000000395
 11
170.3322546087923115
 21
-59.2500000000000213
 31
0.0000000000000394
  0
LINE
  5
13C7D
  8
0
  6
CONTINUOUS
 62
     3
 10
171.0393613899788079
 20
59.2499999999999929
 30
0.0000000000000395
 11
170.3322546087923115
 21
59.2499999999999929
 31
0.0000000000000394
  0
LINE
  5
13C7E
  8
0
  6
CONTINUOUS
 62
     3
 10
111.3532330470335978
 20
59.2500000000005329
 30
0.0000000000000284
 11
170.3322546087923115
 21
59.2499999999999929
 31
0.0000000000000426
  0
LINE
  5
13C7F
  8
0
  6
CONTINUOUS
 62
     3
 10
111.3532330470335978
 20
59.2500000000005329
 30
0.0000000000000284
 11
109.5854660940673
 21
59.25000000000054
 31
0.0000000000000284
  0
LINE
  5
13C80
  8
0
  6
CONTINUOUS
 62
     3
 10
109.5854660940673
 20
-59.2499999999994671
 30
0.0000000000000284
 11
111.3532330470335978
 21
-59.2499999999994884
 31
0.0000000000000284
  0
LINE
  5
13C81
  8
0
  6
CONTINUOUS
 62
     3
 10
170.3322546087923115
 20
-59.2500000000000071
 30
0.0000000000000394
 11
111.3532330470335978
 21
-59.2499999999994813
 31
0.0000000000000251
  0
LINE
  5
13C82
  8
0
  6
CONTINUOUS
 62
     3
 10
-0.0000000000001303
 20
-54.287569344444357
 30
0.0
 11
-0.0000000000000978
 21
0.0000000000000071
 31
0.0
  0
LINE
  5
13C83
  8
0
  6
CONTINUOUS
 62
     3
 10
-0.0000000000000978
 20
0.0000000000000209
 30
0.0
 11
-0.0000000000000971
 21
54.2875693444443783
 31
0.0
  0
LINE
  5
13C84
  8
0
  6
CONTINUOUS
 62
     3
 10
74.387545369576344
 20
50.7999999999999474
 30
0.0000000000000172
 11
90.0
 21
50.7999999999999474
 31
0.0000000000000208
  0
LINE
  5
13C85
  8
0
  6
CONTINUOUS
 62
     3
 10
74.387545369579982
 20
-50.7999999999999474
 30
0.0000000000000172
 11
90.0
 21
-50.7999999999999474
 31
0.0000000000000208
  0
LINE
  5
13C86
  8
0
  6
CONTINUOUS
 62
     3
 10
44.500200530681461
 20
53.8999999999998707
 30
0.0000000000000103
 11
63.0725111230523225
 21
53.8999999999998707
 31
0.0000000000000146
  0
LINE
  5
13C87
  8
0
  6
CONTINUOUS
 62
     3
 10
44.500200530681461
 20
-53.8999999999998565
 30
0.0000000000000103
 11
63.0725111230523225
 21
-53.8999999999998565
 31
0.0000000000000146
  0
ARC
  5
13C88
  8
0
  6
CONTINUOUS
 62
     3
 10
44.5002005306812407
 20
-66.7000000000014239
 30
0.0000000000000103
 40
12.8000000000013294
 50
89.9999999999990052
 51
116.8880476177191952
  0
ARC
  5
13C89
  8
0
  6
CONTINUOUS
 62
     3
 10
44.5002005306812478
 20
66.7000000000013955
 30
0.0000000000000103
 40
12.8000000000012992
 50
243.1119523822796111
 51
270.0
  0
ARC
  5
13C8A
  8
0
  6
CONTINUOUS
 62
     3
 10
27.7669999999995802
 20
-33.6999999999986386
 30
0.0000000000000064
 40
24.2000000000012214
 50
270.00000000000108
 51
296.8880476177238847
  0
ARC
  5
13C8B
  8
0
  6
CONTINUOUS
 62
     3
 10
27.76699999999963
 20
33.6999999999987665
 30
0.0000000000000064
 40
24.2000000000011006
 50
63.1119523822760797
 51
89.9999999999989768
  0
LINE
  5
13C8C
  8
0
  6
CONTINUOUS
 62
     3
 10
13.1118933766598502
 20
57.9000000000000909
 30
0.000000000000003
 11
27.7670000000000599
 21
57.9000000000000909
 31
0.0000000000000064
  0
LINE
  5
13C8D
  8
0
  6
CONTINUOUS
 62
     3
 10
13.1118933766598396
 20
-57.9000000000000767
 30
0.000000000000003
 11
27.7670000000000492
 21
-57.9000000000000767
 31
0.0000000000000064
  0
ARC
  5
13C8E
  8
0
  6
CONTINUOUS
 62
     3
 10
13.1118933766599408
 20
-33.6999999999994628
 30
0.000000000000003
 40
24.200000000000859
 50
245.0000000000003979
 51
269.9999999999997726
  0
ARC
  5
13C8F
  8
0
  6
CONTINUOUS
 62
     3
 10
13.1118933766600101
 20
33.6999999999991715
 30
0.000000000000003
 40
24.200000000001161
 50
90.0000000000003553
 51
114.9999999999994031
  0
LINE
  5
13C90
  8
0
  6
CONTINUOUS
 62
     3
 10
-0.0000000000000544
 20
54.2875693444442504
 30
0.0
 11
2.884531442534862
 21
55.6326484462871491
 31
0.0000000000000007
  0
LINE
  5
13C91
  8
0
  6
CONTINUOUS
 62
     3
 10
-0.0000000000000611
 20
-54.2875693444442291
 30
0.0
 11
2.8845314425348549
 21
-55.6326484462871278
 31
0.0000000000000007
  0
ARC
  5
13C92
  8
0
  6
CONTINUOUS
 62
     3
 10
74.3875453695797688
 20
-58.7999999999977376
 30
0.0000000000000172
 40
7.999999999997784
 50
89.9999999999984936
 51
120.6429317629537934
  0
ARC
  5
13C93
  8
0
  6
CONTINUOUS
 62
     3
 10
74.3875453695797404
 20
58.7999999999976595
 30
0.0000000000000172
 40
7.9999999999977041
 50
239.3570682370703935
 51
270.0
  0
ARC
  5
13C94
  8
0
  6
CONTINUOUS
 62
     3
 10
63.0725111230574313
 20
-39.7000000000011681
 30
0.0000000000000146
 40
14.1999999999986795
 50
269.9999999999794227
 51
300.6429317629311981
  0
ARC
  5
13C95
  8
0
  6
CONTINUOUS
 62
     3
 10
63.0725111230574669
 20
39.7000000000012818
 30
0.0000000000000146
 40
14.1999999999985906
 50
59.3570682370687308
 51
90.0000000000208047
  0
LINE
  5
13C96
  8
0
  6
CONTINUOUS
 62
     3
 10
91.5000000000000142
 20
-34.2500000000003126
 30
0.0000000000000213
 11
90.0000000000000142
 21
-34.2500000000003126
 31
0.000000000000021
  0
LINE
  5
13C97
  8
0
  6
CONTINUOUS
 62
     3
 10
90.0000000000000142
 20
-34.2500000000003126
 30
0.0000000000000213
 11
90.0000000000000142
 21
-36.2500000000003126
 31
0.0000000000000213
  0
LINE
  5
13C98
  8
0
  6
CONTINUOUS
 62
     3
 10
90.0000000000000142
 20
-36.2500000000003126
 30
0.0000000000000213
 11
91.5000000000000142
 21
-36.2500000000003126
 31
0.0000000000000217
  0
LINE
  5
13C99
  8
0
  6
CONTINUOUS
 62
     3
 10
91.5000000000000142
 20
-36.2500000000003126
 30
0.0000000000000213
 11
91.5000000000000142
 21
-34.2500000000003126
 31
0.0000000000000213
  0
LINE
  5
13C9A
  8
0
  6
CONTINUOUS
 62
     3
 10
91.5
 20
34.2499999999996874
 30
0.0000000000000213
 11
91.5
 21
33.7499999999991971
 31
0.0000000000000213
  0
LINE
  5
13C9B
  8
0
  6
CONTINUOUS
 62
     3
 10
91.4999999999999858
 20
-33.7500000000008029
 30
0.0000000000000213
 11
91.4999999999999858
 21
-34.2500000000003126
 31
0.0000000000000213
  0
LINE
  5
13C9C
  8
0
  6
CONTINUOUS
 62
     3
 10
90.0
 20
34.2499999999996874
 30
0.0000000000000213
 11
89.9999999999999858
 21
-34.2500000000003126
 31
0.0000000000000213
  0
LINE
  5
13C9D
  8
0
  6
CONTINUOUS
 62
     3
 10
89.9999999999999858
 20
-36.2500000000003126
 30
0.0000000000000213
 11
89.9999999999999858
 21
-58.4292893218814982
 31
0.0000000000000213
  0
LINE
  5
13C9E
  8
0
  6
CONTINUOUS
 62
     3
 10
90.7500000000000142
 20
-58.4292893218814982
 30
0.0000000000000213
 11
89.9999999999999858
 21
-58.4292893218814982
 31
0.0000000000000211
  0
LINE
  5
13C9F
  8
0
  6
CONTINUOUS
 62
     3
 10
91.4999999999999858
 20
-36.2500000000003126
 30
0.0000000000000213
 11
91.4999999999999858
 21
-36.7500000000008029
 31
0.0000000000000213
  0
LINE
  5
13CA0
  8
0
  6
CONTINUOUS
 62
     3
 10
91.5
 20
36.2499999999996874
 30
0.0000000000000213
 11
90.0
 21
36.2499999999996874
 31
0.000000000000021
  0
LINE
  5
13CA1
  8
0
  6
CONTINUOUS
 62
     3
 10
90.0
 20
36.2499999999996874
 30
0.0000000000000213
 11
90.0
 21
34.2499999999996874
 31
0.0000000000000213
  0
LINE
  5
13CA2
  8
0
  6
CONTINUOUS
 62
     3
 10
90.0
 20
34.2499999999996874
 30
0.0000000000000213
 11
91.5
 21
34.2499999999996874
 31
0.0000000000000217
  0
LINE
  5
13CA3
  8
0
  6
CONTINUOUS
 62
     3
 10
91.5
 20
34.2499999999996874
 30
0.0000000000000213
 11
91.5
 21
36.2499999999996874
 31
0.0000000000000213
  0
LINE
  5
13CA4
  8
0
  6
CONTINUOUS
 62
     3
 10
91.5
 20
36.7499999999992113
 30
0.0000000000000213
 11
91.5
 21
36.2499999999996874
 31
0.0000000000000213
  0
LINE
  5
13CA5
  8
0
  6
CONTINUOUS
 62
     3
 10
90.7500000000000142
 20
58.4292893218808729
 30
0.0000000000000213
 11
90.0
 21
58.4292893218808729
 31
0.0000000000000211
  0
LINE
  5
13CA6
  8
0
  6
CONTINUOUS
 62
     3
 10
90.0000000000000142
 20
58.4292893218808729
 30
0.0000000000000213
 11
90.0000000000000142
 21
36.2499999999996874
 31
0.0000000000000213
  0
LINE
  5
13CA7
  8
0
  6
CONTINUOUS
 62
     3
 10
101.7499999999985931
 20
-59.9999999999989697
 30
0.0000000000000213
 11
99.7499999999986215
 21
-59.9999999999989697
 31
0.0000000000000209
  0
LINE
  5
13CA8
  8
0
  6
CONTINUOUS
 62
     3
 10
101.7499999999985931
 20
-58.5000000000009308
 30
0.0000000000000213
 11
101.7499999999985931
 21
-60.0000000000009379
 31
0.0000000000000213
  0
LINE
  5
13CA9
  8
0
  6
CONTINUOUS
 62
     3
 10
99.7499999999986215
 20
-58.499999999998991
 30
0.0000000000000213
 11
101.7499999999985931
 21
-58.499999999998991
 31
0.0000000000000218
  0
LINE
  5
13CAA
  8
0
  6
CONTINUOUS
 62
     3
 10
99.7499999999986215
 20
-60.0000000000009379
 30
0.0000000000000213
 11
99.7499999999986215
 21
-58.5000000000009308
 31
0.0000000000000213
  0
LINE
  5
13CAB
  8
0
  6
CONTINUOUS
 62
     3
 10
99.750000000000469
 20
59.9999999999995168
 30
0.0000000000000213
 11
101.7500000000003979
 21
59.9999999999995168
 31
0.0000000000000218
  0
LINE
  5
13CAC
  8
0
  6
CONTINUOUS
 62
     3
 10
99.750000000000469
 20
58.4999999999999574
 30
0.0000000000000213
 11
99.750000000000469
 21
59.9999999999999716
 31
0.0000000000000213
  0
LINE
  5
13CAD
  8
0
  6
CONTINUOUS
 62
     3
 10
101.7500000000003979
 20
58.4999999999995168
 30
0.0000000000000213
 11
99.750000000000469
 21
58.4999999999995168
 31
0.0000000000000209
  0
LINE
  5
13CAE
  8
0
  6
CONTINUOUS
 62
     3
 10
101.7500000000003979
 20
59.9999999999999716
 30
0.0000000000000213
 11
101.7500000000003979
 21
58.4999999999999716
 31
0.0000000000000213
  0
LINE
  5
13CAF
  8
0
  6
CONTINUOUS
 62
     3
 10
99.750000000000469
 20
58.4999999999995168
 30
0.0000000000000213
 11
99.2499999999999858
 21
58.4999999999995168
 31
0.0000000000000212
  0
LINE
  5
13CB0
  8
0
  6
CONTINUOUS
 62
     3
 10
339.099595955701318
 20
58.4999999999995097
 30
0.0000000000000782
 11
288.9748856151920791
 21
58.4999999999995097
 31
0.0000000000000639
  0
LINE
  5
13CB1
  8
0
  6
CONTINUOUS
 62
     3
 10
288.2338274840458894
 20
58.4999999999995026
 30
0.0000000000000666
 11
288.9748856151916812
 21
58.4999999999995026
 31
0.0000000000000668
  0
LINE
  5
13CB2
  8
0
  6
CONTINUOUS
 62
     3
 10
283.2317407897153885
 20
58.4999999999995097
 30
0.0000000000000655
 11
282.7317407897157864
 21
58.4999999999995097
 31
0.0000000000000654
  0
LINE
  5
13CB3
  8
0
  6
CONTINUOUS
 62
     3
 10
282.7317407897157864
 20
58.499999999999531
 30
0.0000000000000653
 11
280.7317407897157864
 21
58.499999999999531
 31
0.0000000000000649
  0
LINE
  5
13CB4
  8
0
  6
CONTINUOUS
 62
     3
 10
280.7317407897157864
 20
58.4999999999995381
 30
0.0000000000000648
 11
280.2317407897152748
 21
58.4999999999995381
 31
0.0000000000000647
  0
LINE
  5
13CB5
  8
0
  6
CONTINUOUS
 62
     3
 10
188.7426406871196036
 20
58.499999999999531
 30
0.0000000000000435
 11
187.2426406871196036
 21
58.499999999999531
 31
0.0000000000000432
  0
LINE
  5
13CB6
  8
0
  6
CONTINUOUS
 62
     3
 10
187.2426406871196036
 20
58.4999999999995168
 30
0.0000000000000433
 11
185.2426406871194899
 21
58.4999999999995168
 31
0.0000000000000428
  0
LINE
  5
13CB7
  8
0
  6
CONTINUOUS
 62
     3
 10
185.2426406871194899
 20
58.499999999999531
 30
0.0000000000000429
 11
183.7426406871196036
 21
58.499999999999531
 31
0.0000000000000425
  0
LINE
  5
13CB8
  8
0
  6
CONTINUOUS
 62
     3
 10
102.25
 20
58.4999999999995168
 30
0.0000000000000213
 11
101.7500000000003979
 21
58.4999999999995168
 31
0.0000000000000212
  0
LINE
  5
13CB9
  8
0
  6
CONTINUOUS
 62
     3
 10
101.7499999999985931
 20
-58.4999999999995026
 30
0.0000000000000213
 11
102.25
 21
-58.4999999999995026
 31
0.0000000000000214
  0
LINE
  5
13CBA
  8
0
  6
CONTINUOUS
 62
     3
 10
183.7426406871194899
 20
-58.499999999999531
 30
0.0000000000000424
 11
185.2426406871194899
 21
-58.499999999999531
 31
0.0000000000000428
  0
LINE
  5
13CBB
  8
0
  6
CONTINUOUS
 62
     3
 10
185.2426406871194899
 20
-58.4999999999995097
 30
0.0000000000000428
 11
187.2426406871196036
 21
-58.4999999999995097
 31
0.0000000000000433
  0
LINE
  5
13CBC
  8
0
  6
CONTINUOUS
 62
     3
 10
187.2426406871196036
 20
-58.4999999999995524
 30
0.0000000000000433
 11
188.7426406871194899
 21
-58.4999999999995524
 31
0.0000000000000436
  0
LINE
  5
13CBD
  8
0
  6
CONTINUOUS
 62
     3
 10
280.2317407897152179
 20
-58.4999999999995524
 30
0.0000000000000648
 11
280.7317407897156727
 21
-58.4999999999995524
 31
0.000000000000065
  0
LINE
  5
13CBE
  8
0
  6
CONTINUOUS
 62
     3
 10
280.7317407897157864
 20
-58.4999999999995026
 30
0.0000000000000649
 11
282.7317407897157864
 21
-58.4999999999995026
 31
0.0000000000000653
  0
LINE
  5
13CBF
  8
0
  6
CONTINUOUS
 62
     3
 10
282.7317407897157864
 20
-58.4999999999995524
 30
0.0000000000000653
 11
283.2317407897152179
 21
-58.4999999999995524
 31
0.0000000000000654
  0
LINE
  5
13CC0
  8
0
  6
CONTINUOUS
 62
     3
 10
288.9748856151921927
 20
-58.4999999999995381
 30
0.0000000000000668
 11
288.2338274840460031
 21
-58.499999999999531
 31
0.0000000000000666
  0
LINE
  5
13CC1
  8
0
  6
CONTINUOUS
 62
     3
 10
288.9748856151919085
 20
-58.5000000000003979
 30
0.0000000000000668
 11
339.0995959557020001
 21
-58.5000000000008811
 31
0.000000000000081
  0
LINE
  5
13CC2
  8
0
  6
CONTINUOUS
 62
     3
 10
99.25
 20
-58.4999999999995026
 30
0.0000000000000213
 11
99.7499999999986215
 21
-58.4999999999995026
 31
0.0000000000000214
  0
LINE
  5
13CC3
  8
0
  6
CONTINUOUS
 62
     3
 10
280.7317407897157864
 20
58.49999999999946
 30
0.0000000000000649
 11
280.7317407897157864
 21
59.99999999999946
 31
0.0000000000000649
  0
LINE
  5
13CC4
  8
0
  6
CONTINUOUS
 62
     3
 10
282.7317407897157864
 20
59.99999999999946
 30
0.0000000000000653
 11
282.7317407897157864
 21
58.49999999999946
 31
0.0000000000000653
  0
LINE
  5
13CC5
  8
0
  6
CONTINUOUS
 62
     3
 10
280.7317407897157864
 20
59.999999999999531
 30
0.0000000000000649
 11
282.7317407897157864
 21
59.999999999999531
 31
0.0000000000000653
  0
LINE
  5
13CC6
  8
0
  6
CONTINUOUS
 62
     3
 10
282.7317407897157864
 20
-58.4999999999991687
 30
0.0000000000000653
 11
282.7317407897157864
 21
-59.9999999999991829
 31
0.0000000000000653
  0
LINE
  5
13CC7
  8
0
  6
CONTINUOUS
 62
     3
 10
280.7317407897157864
 20
-59.9999999999991829
 30
0.0000000000000649
 11
280.7317407897157864
 21
-58.4999999999991687
 31
0.0000000000000649
  0
LINE
  5
13CC8
  8
0
  6
CONTINUOUS
 62
     3
 10
282.7317407897157864
 20
-59.9999999999994884
 30
0.0000000000000653
 11
280.7317407897157864
 21
-59.9999999999994884
 31
0.0000000000000649
  0
LINE
  5
13CC9
  8
0
  6
CONTINUOUS
 62
     3
 10
187.2426406871196036
 20
-58.4999999999995097
 30
0.0000000000000433
 11
187.2426406871196036
 21
-59.9999999999995168
 31
0.0000000000000433
  0
LINE
  5
13CCA
  8
0
  6
CONTINUOUS
 62
     3
 10
185.2426406871194899
 20
-59.9999999999995026
 30
0.0000000000000428
 11
185.2426406871194899
 21
-58.4999999999995026
 31
0.0000000000000428
  0
LINE
  5
13CCB
  8
0
  6
CONTINUOUS
 62
     3
 10
187.2426406871196036
 20
-59.9999999999995168
 30
0.0000000000000433
 11
185.2426406871194899
 21
-59.9999999999995168
 31
0.0000000000000428
  0
LINE
  5
13CCC
  8
0
  6
CONTINUOUS
 62
     3
 10
187.2426406871196036
 20
59.9999999999984723
 30
0.0000000000000433
 11
187.2426406871196036
 21
58.4999999999984723
 31
0.0000000000000433
  0
LINE
  5
13CCD
  8
0
  6
CONTINUOUS
 62
     3
 10
185.2426406871194899
 20
59.9999999999995168
 30
0.0000000000000428
 11
187.2426406871196036
 21
59.9999999999995168
 31
0.0000000000000433
  0
LINE
  5
13CCE
  8
0
  6
CONTINUOUS
 62
     3
 10
185.2426406871194899
 20
58.4999999999984723
 30
0.0000000000000428
 11
185.2426406871194899
 21
59.9999999999984723
 31
0.0000000000000428
  0
LINE
  5
13CCF
  8
0
  6
CONTINUOUS
 62
     3
 10
109.5857864376268935
 20
59.9999999999995168
 30
0.0000000000000284
 11
101.7500000000003979
 21
59.9999999999995168
 31
0.0000000000000266
  0
LINE
  5
13CD0
  8
0
  6
CONTINUOUS
 62
     3
 10
110.2928932188133047
 20
60.0000000000000426
 30
0.0000000000000284
 11
109.5857864376268935
 21
60.0000000000000426
 31
0.0000000000000284
  0
LINE
  5
13CD1
  8
0
  6
CONTINUOUS
 62
     3
 10
110.2928932188133047
 20
59.999999999999531
 30
0.0000000000000284
 11
169.1213203435598871
 21
59.999999999999531
 31
0.0000000000000426
  0
LINE
  5
13CD2
  8
0
  6
CONTINUOUS
 62
     3
 10
169.1213203435600008
 20
59.9999999999995524
 30
0.0000000000000391
 11
171.2426406871196036
 21
59.9999999999995524
 31
0.0000000000000395
  0
LINE
  5
13CD3
  8
0
  6
CONTINUOUS
 62
     3
 10
171.2426406871196036
 20
59.9999999999995168
 30
0.0000000000000395
 11
185.2426406871194899
 21
59.9999999999995168
 31
0.0000000000000428
  0
LINE
  5
13CD4
  8
0
  6
CONTINUOUS
 62
     3
 10
187.2426406871196036
 20
59.9999999999995168
 30
0.0000000000000433
 11
280.7317407897157864
 21
59.999999999999531
 31
0.0000000000000649
  0
LINE
  5
13CD5
  8
0
  6
CONTINUOUS
 62
     3
 10
282.7317407897157864
 20
59.9999999999995168
 30
0.0000000000000653
 11
288.2317407897149906
 21
59.9999999999995168
 31
0.0000000000000666
  0
LINE
  5
13CD6
  8
0
  6
CONTINUOUS
 62
     3
 10
288.9748856151916812
 20
59.9999999999995097
 30
0.0000000000000668
 11
288.2317407897149906
 21
59.9999999999995097
 31
0.0000000000000666
  0
LINE
  5
13CD7
  8
0
  6
CONTINUOUS
 62
     3
 10
288.9748856151920791
 20
59.9999999999995168
 30
0.0000000000000668
 11
339.099595955701318
 21
59.9999999999995168
 31
0.000000000000081
  0
LINE
  5
13CD8
  8
0
  6
CONTINUOUS
 62
     3
 10
99.750000000000469
 20
59.9999999999995168
 30
0.0000000000000213
 11
91.570710678118715
 21
59.9999999999995168
 31
0.0000000000000194
  0
LINE
  5
13CD9
  8
0
  6
CONTINUOUS
 62
     3
 10
280.7317407897157864
 20
-59.9999999999995026
 30
0.0000000000000648
 11
187.2426406871196036
 21
-59.9999999999995168
 31
0.0000000000000432
  0
LINE
  5
13CDA
  8
0
  6
CONTINUOUS
 62
     3
 10
185.2426406871194899
 20
-59.9999999999995168
 30
0.0000000000000429
 11
171.2426406871196036
 21
-59.9999999999995168
 31
0.0000000000000396
  0
LINE
  5
13CDB
  8
0
  6
CONTINUOUS
 62
     3
 10
340.0
 20
57.4999999999995168
 30
0.0000000000000782
 11
340.0
 21
-57.50000000000054
 31
0.0000000000000782
  0
LINE
  5
13CDC
  8
0
  6
CONTINUOUS
 62
     3
 10
340.0
 20
-57.50000000000054
 30
0.0000000000000782
 11
340.0
 21
-59.791287847478543
 31
0.0000000000000782
  0
LINE
  5
13CDD
  8
0
  6
CONTINUOUS
 62
     3
 10
340.0
 20
59.7912878474769869
 30
0.0000000000000782
 11
340.0
 21
57.4999999999995168
 31
0.0000000000000782
  0
POLYLINE
  5
13CDE
  8
0
  6
CONTINUOUS
 62
     3
 10
339.9999999999988063
 20
57.4999999999995097
 30
0.0000000000000784
 66
     1
 70
     8
  0
VERTEX
  8
0
  5
13E50
 10
340.000
 20
57.5000
 30
7.83801e-14
  70
    32
  0
VERTEX
  8
0
  5
13E51
 10
340.000
 20
57.5123
 30
7.83801e-14
  70
    32
  0
VERTEX
  8
0
  5
13E52
 10
340.000
 20
57.5245
 30
7.83800e-14
  70
    32
  0
VERTEX
  8
0
  5
13E53
 10
339.999
 20
57.5368
 30
7.83800e-14
  70
    32
  0
VERTEX
  8
0
  5
13E54
 10
339.999
 20
57.5491
 30
7.83799e-14
  70
    32
  0
VERTEX
  8
0
  5
13E55
 10
339.998
 20
57.5613
 30
7.83797e-14
  70
    32
  0
VERTEX
  8
0
  5
13E56
 10
339.998
 20
57.5736
 30
7.83796e-14
  70
    32
  0
VERTEX
  8
0
  5
13E57
 10
339.997
 20
57.5858
 30
7.83794e-14
  70
    32
  0
VERTEX
  8
0
  5
13E58
 10
339.996
 20
57.5980
 30
7.83792e-14
  70
    32
  0
VERTEX
  8
0
  5
13E59
 10
339.995
 20
57.6102
 30
7.83790e-14
  70
    32
  0
VERTEX
  8
0
  5
13E5A
 10
339.993
 20
57.6224
 30
7.83787e-14
  70
    32
  0
VERTEX
  8
0
  5
13E5B
 10
339.992
 20
57.6346
 30
7.83784e-14
  70
    32
  0
VERTEX
  8
0
  5
13E5C
 10
339.990
 20
57.6467
 30
7.83781e-14
  70
    32
  0
VERTEX
  8
0
  5
13E5D
 10
339.989
 20
57.6589
 30
7.83778e-14
  70
    32
  0
VERTEX
  8
0
  5
13E5E
 10
339.987
 20
57.6710
 30
7.83774e-14
  70
    32
  0
VERTEX
  8
0
  5
13E5F
 10
339.985
 20
57.6830
 30
7.83770e-14
  70
    32
  0
VERTEX
  8
0
  5
13E60
 10
339.983
 20
57.6951
 30
7.83766e-14
  70
    32
  0
VERTEX
  8
0
  5
13E61
 10
339.980
 20
57.7071
 30
7.83762e-14
  70
    32
  0
VERTEX
  8
0
  5
13E62
 10
339.978
 20
57.7191
 30
7.83757e-14
  70
    32
  0
VERTEX
  8
0
  5
13E63
 10
339.976
 20
57.7311
 30
7.83752e-14
  70
    32
  0
VERTEX
  8
0
  5
13E64
 10
339.973
 20
57.7430
 30
7.83747e-14
  70
    32
  0
VERTEX
  8
0
  5
13E65
 10
339.970
 20
57.7549
 30
7.83741e-14
  70
    32
  0
VERTEX
  8
0
  5
13E66
 10
339.967
 20
57.7667
 30
7.83736e-14
  70
    32
  0
VERTEX
  8
0
  5
13E67
 10
339.964
 20
57.7785
 30
7.83730e-14
  70
    32
  0
VERTEX
  8
0
  5
13E68
 10
339.961
 20
57.7903
 30
7.83723e-14
  70
    32
  0
VERTEX
  8
0
  5
13E69
 10
339.958
 20
57.8020
 30
7.83717e-14
  70
    32
  0
VERTEX
  8
0
  5
13E6A
 10
339.955
 20
57.8137
 30
7.83710e-14
  70
    32
  0
VERTEX
  8
0
  5
13E6B
 10
339.951
 20
57.8253
 30
7.83703e-14
  70
    32
  0
VERTEX
  8
0
  5
13E6C
 10
339.947
 20
57.8369
 30
7.83696e-14
  70
    32
  0
VERTEX
  8
0
  5
13E6D
 10
339.944
 20
57.8484
 30
7.83688e-14
  70
    32
  0
VERTEX
  8
0
  5
13E6E
 10
339.940
 20
57.8599
 30
7.83680e-14
  70
    32
  0
VERTEX
  8
0
  5
13E6F
 10
339.936
 20
57.8713
 30
7.83672e-14
  70
    32
  0
VERTEX
  8
0
  5
13E70
 10
339.931
 20
57.8827
 30
7.83664e-14
  70
    32
  0
VERTEX
  8
0
  5
13E71
 10
339.927
 20
57.8940
 30
7.83655e-14
  70
    32
  0
VERTEX
  8
0
  5
13E72
 10
339.923
 20
57.9052
 30
7.83646e-14
  70
    32
  0
VERTEX
  8
0
  5
13E73
 10
339.918
 20
57.9164
 30
7.83637e-14
  70
    32
  0
VERTEX
  8
0
  5
13E74
 10
339.914
 20
57.9276
 30
7.83628e-14
  70
    32
  0
VERTEX
  8
0
  5
13E75
 10
339.909
 20
57.9386
 30
7.83618e-14
  70
    32
  0
VERTEX
  8
0
  5
13E76
 10
339.904
 20
57.9496
 30
7.83609e-14
  70
    32
  0
VERTEX
  8
0
  5
13E77
 10
339.899
 20
57.9605
 30
7.83598e-14
  70
    32
  0
VERTEX
  8
0
  5
13E78
 10
339.894
 20
57.9714
 30
7.83588e-14
  70
    32
  0
VERTEX
  8
0
  5
13E79
 10
339.888
 20
57.9822
 30
7.83578e-14
  70
    32
  0
VERTEX
  8
0
  5
13E7A
 10
339.883
 20
57.9929
 30
7.83567e-14
  70
    32
  0
VERTEX
  8
0
  5
13E7B
 10
339.878
 20
58.0035
 30
7.83556e-14
  70
    32
  0
VERTEX
  8
0
  5
13E7C
 10
339.872
 20
58.0141
 30
7.83545e-14
  70
    32
  0
VERTEX
  8
0
  5
13E7D
 10
339.866
 20
58.0246
 30
7.83533e-14
  70
    32
  0
VERTEX
  8
0
  5
13E7E
 10
339.860
 20
58.0350
 30
7.83521e-14
  70
    32
  0
VERTEX
  8
0
  5
13E7F
 10
339.854
 20
58.0453
 30
7.83509e-14
  70
    32
  0
VERTEX
  8
0
  5
13E80
 10
339.848
 20
58.0556
 30
7.83497e-14
  70
    32
  0
VERTEX
  8
0
  5
13E81
 10
339.842
 20
58.0657
 30
7.83485e-14
  70
    32
  0
VERTEX
  8
0
  5
13E82
 10
339.836
 20
58.0758
 30
7.83472e-14
  70
    32
  0
VERTEX
  8
0
  5
13E83
 10
339.829
 20
58.0858
 30
7.83459e-14
  70
    32
  0
VERTEX
  8
0
  5
13E84
 10
339.823
 20
58.0957
 30
7.83446e-14
  70
    32
  0
VERTEX
  8
0
  5
13E85
 10
339.816
 20
58.1055
 30
7.83433e-14
  70
    32
  0
VERTEX
  8
0
  5
13E86
 10
339.809
 20
58.1152
 30
7.83420e-14
  70
    32
  0
VERTEX
  8
0
  5
13E87
 10
339.803
 20
58.1249
 30
7.83406e-14
  70
    32
  0
VERTEX
  8
0
  5
13E88
 10
339.796
 20
58.1344
 30
7.83392e-14
  70
    32
  0
VERTEX
  8
0
  5
13E89
 10
339.789
 20
58.1438
 30
7.83378e-14
  70
    32
  0
VERTEX
  8
0
  5
13E8A
 10
339.781
 20
58.1532
 30
7.83364e-14
  70
    32
  0
VERTEX
  8
0
  5
13E8B
 10
339.774
 20
58.1624
 30
7.83349e-14
  70
    32
  0
VERTEX
  8
0
  5
13E8C
 10
339.767
 20
58.1716
 30
7.83334e-14
  70
    32
  0
VERTEX
  8
0
  5
13E8D
 10
339.759
 20
58.1806
 30
7.83319e-14
  70
    32
  0
VERTEX
  8
0
  5
13E8E
 10
339.752
 20
58.1895
 30
7.83304e-14
  70
    32
  0
VERTEX
  8
0
  5
13E8F
 10
339.744
 20
58.1984
 30
7.83289e-14
  70
    32
  0
VERTEX
  8
0
  5
13E90
 10
339.736
 20
58.2071
 30
7.83273e-14
  70
    32
  0
VERTEX
  8
0
  5
13E91
 10
339.728
 20
58.2157
 30
7.83258e-14
  70
    32
  0
VERTEX
  8
0
  5
13E92
 10
339.720
 20
58.2242
 30
7.83242e-14
  70
    32
  0
VERTEX
  8
0
  5
13E93
 10
339.712
 20
58.2327
 30
7.83226e-14
  70
    32
  0
VERTEX
  8
0
  5
13E94
 10
339.704
 20
58.2410
 30
7.83209e-14
  70
    32
  0
VERTEX
  8
0
  5
13E95
 10
339.696
 20
58.2491
 30
7.83193e-14
  70
    32
  0
VERTEX
  8
0
  5
13E96
 10
339.688
 20
58.2572
 30
7.83176e-14
  70
    32
  0
VERTEX
  8
0
  5
13E97
 10
339.679
 20
58.2652
 30
7.83159e-14
  70
    32
  0
VERTEX
  8
0
  5
13E98
 10
339.671
 20
58.2730
 30
7.83142e-14
  70
    32
  0
VERTEX
  8
0
  5
13E99
 10
339.662
 20
58.2807
 30
7.83125e-14
  70
    32
  0
VERTEX
  8
0
  5
13E9A
 10
339.654
 20
58.2883
 30
7.83108e-14
  70
    32
  0
VERTEX
  8
0
  5
13E9B
 10
339.645
 20
58.2958
 30
7.83090e-14
  70
    32
  0
VERTEX
  8
0
  5
13E9C
 10
339.636
 20
58.3032
 30
7.83073e-14
  70
    32
  0
VERTEX
  8
0
  5
13E9D
 10
339.627
 20
58.3105
 30
7.83055e-14
  70
    32
  0
VERTEX
  8
0
  5
13E9E
 10
339.618
 20
58.3176
 30
7.83037e-14
  70
    32
  0
VERTEX
  8
0
  5
13E9F
 10
339.609
 20
58.3246
 30
7.83019e-14
  70
    32
  0
VERTEX
  8
0
  5
13EA0
 10
339.600
 20
58.3315
 30
7.83000e-14
  70
    32
  0
VERTEX
  8
0
  5
13EA1
 10
339.591
 20
58.3382
 30
7.82982e-14
  70
    32
  0
VERTEX
  8
0
  5
13EA2
 10
339.581
 20
58.3449
 30
7.82963e-14
  70
    32
  0
VERTEX
  8
0
  5
13EA3
 10
339.572
 20
58.3514
 30
7.82945e-14
  70
    32
  0
VERTEX
  8
0
  5
13EA4
 10
339.562
 20
58.3577
 30
7.82926e-14
  70
    32
  0
VERTEX
  8
0
  5
13EA5
 10
339.553
 20
58.3640
 30
7.82907e-14
  70
    32
  0
VERTEX
  8
0
  5
13EA6
 10
339.543
 20
58.3701
 30
7.82888e-14
  70
    32
  0
VERTEX
  8
0
  5
13EA7
 10
339.534
 20
58.3761
 30
7.82868e-14
  70
    32
  0
VERTEX
  8
0
  5
13EA8
 10
339.524
 20
58.3819
 30
7.82849e-14
  70
    32
  0
VERTEX
  8
0
  5
13EA9
 10
339.514
 20
58.3876
 30
7.82829e-14
  70
    32
  0
VERTEX
  8
0
  5
13EAA
 10
339.504
 20
58.3932
 30
7.82810e-14
  70
    32
  0
VERTEX
  8
0
  5
13EAB
 10
339.495
 20
58.3987
 30
7.82790e-14
  70
    32
  0
VERTEX
  8
0
  5
13EAC
 10
339.485
 20
58.4040
 30
7.82770e-14
  70
    32
  0
VERTEX
  8
0
  5
13EAD
 10
339.475
 20
58.4092
 30
7.82750e-14
  70
    32
  0
VERTEX
  8
0
  5
13EAE
 10
339.464
 20
58.4142
 30
7.82730e-14
  70
    32
  0
VERTEX
  8
0
  5
13EAF
 10
339.454
 20
58.4191
 30
7.82710e-14
  70
    32
  0
VERTEX
  8
0
  5
13EB0
 10
339.444
 20
58.4239
 30
7.82689e-14
  70
    32
  0
VERTEX
  8
0
  5
13EB1
 10
339.434
 20
58.4285
 30
7.82669e-14
  70
    32
  0
VERTEX
  8
0
  5
13EB2
 10
339.424
 20
58.4330
 30
7.82648e-14
  70
    32
  0
VERTEX
  8
0
  5
13EB3
 10
339.413
 20
58.4373
 30
7.82627e-14
  70
    32
  0
VERTEX
  8
0
  5
13EB4
 10
339.403
 20
58.4415
 30
7.82607e-14
  70
    32
  0
VERTEX
  8
0
  5
13EB5
 10
339.393
 20
58.4456
 30
7.82586e-14
  70
    32
  0
VERTEX
  8
0
  5
13EB6
 10
339.382
 20
58.4495
 30
7.82565e-14
  70
    32
  0
VERTEX
  8
0
  5
13EB7
 10
339.372
 20
58.4533
 30
7.82544e-14
  70
    32
  0
VERTEX
  8
0
  5
13EB8
 10
339.361
 20
58.4569
 30
7.82523e-14
  70
    32
  0
VERTEX
  8
0
  5
13EB9
 10
339.350
 20
58.4604
 30
7.82502e-14
  70
    32
  0
VERTEX
  8
0
  5
13EBA
 10
339.340
 20
58.4638
 30
7.82480e-14
  70
    32
  0
VERTEX
  8
0
  5
13EBB
 10
339.329
 20
58.4670
 30
7.82459e-14
  70
    32
  0
VERTEX
  8
0
  5
13EBC
 10
339.318
 20
58.4700
 30
7.82438e-14
  70
    32
  0
VERTEX
  8
0
  5
13EBD
 10
339.308
 20
58.4729
 30
7.82416e-14
  70
    32
  0
VERTEX
  8
0
  5
13EBE
 10
339.297
 20
58.4757
 30
7.82395e-14
  70
    32
  0
VERTEX
  8
0
  5
13EBF
 10
339.286
 20
58.4783
 30
7.82373e-14
  70
    32
  0
VERTEX
  8
0
  5
13EC0
 10
339.275
 20
58.4808
 30
7.82351e-14
  70
    32
  0
VERTEX
  8
0
  5
13EC1
 10
339.264
 20
58.4831
 30
7.82330e-14
  70
    32
  0
VERTEX
  8
0
  5
13EC2
 10
339.254
 20
58.4853
 30
7.82308e-14
  70
    32
  0
VERTEX
  8
0
  5
13EC3
 10
339.243
 20
58.4873
 30
7.82286e-14
  70
    32
  0
VERTEX
  8
0
  5
13EC4
 10
339.232
 20
58.4892
 30
7.82264e-14
  70
    32
  0
VERTEX
  8
0
  5
13EC5
 10
339.221
 20
58.4909
 30
7.82242e-14
  70
    32
  0
VERTEX
  8
0
  5
13EC6
 10
339.210
 20
58.4925
 30
7.82220e-14
  70
    32
  0
VERTEX
  8
0
  5
13EC7
 10
339.199
 20
58.4939
 30
7.82198e-14
  70
    32
  0
VERTEX
  8
0
  5
13EC8
 10
339.188
 20
58.4952
 30
7.82177e-14
  70
    32
  0
VERTEX
  8
0
  5
13EC9
 10
339.177
 20
58.4963
 30
7.82155e-14
  70
    32
  0
VERTEX
  8
0
  5
13ECA
 10
339.166
 20
58.4973
 30
7.82132e-14
  70
    32
  0
VERTEX
  8
0
  5
13ECB
 10
339.155
 20
58.4981
 30
7.82110e-14
  70
    32
  0
VERTEX
  8
0
  5
13ECC
 10
339.144
 20
58.4988
 30
7.82088e-14
  70
    32
  0
VERTEX
  8
0
  5
13ECD
 10
339.133
 20
58.4993
 30
7.82066e-14
  70
    32
  0
VERTEX
  8
0
  5
13ECE
 10
339.122
 20
58.4997
 30
7.82044e-14
  70
    32
  0
VERTEX
  8
0
  5
13ECF
 10
339.111
 20
58.4999
 30
7.82022e-14
  70
    32
  0
VERTEX
  8
0
  5
13ED0
 10
339.100
 20
58.5000
 30
7.82000e-14
  70
    32
  0
SEQEND
  8
0
  5
13ED1
  0
POLYLINE
  5
13CDF
  8
0
  6
CONTINUOUS
 62
     3
 10
339.0995959557009769
 20
59.9999999999995097
 30
0.0000000000000782
 66
     1
 70
     8
  0
VERTEX
  8
0
  5
13ED2
 10
339.100
 20
60.0000
 30
7.82000e-14
  70
    32
  0
VERTEX
  8
0
  5
13ED3
 10
339.107
 20
60.0000
 30
7.82014e-14
  70
    32
  0
VERTEX
  8
0
  5
13ED4
 10
339.114
 20
59.9999
 30
7.82029e-14
  70
    32
  0
VERTEX
  8
0
  5
13ED5
 10
339.121
 20
59.9999
 30
7.82043e-14
  70
    32
  0
VERTEX
  8
0
  5
13ED6
 10
339.129
 20
59.9998
 30
7.82058e-14
  70
    32
  0
VERTEX
  8
0
  5
13ED7
 10
339.136
 20
59.9997
 30
7.82072e-14
  70
    32
  0
VERTEX
  8
0
  5
13ED8
 10
339.143
 20
59.9995
 30
7.82087e-14
  70
    32
  0
VERTEX
  8
0
  5
13ED9
 10
339.150
 20
59.9994
 30
7.82101e-14
  70
    32
  0
VERTEX
  8
0
  5
13EDA
 10
339.157
 20
59.9992
 30
7.82116e-14
  70
    32
  0
VERTEX
  8
0
  5
13EDB
 10
339.165
 20
59.9990
 30
7.82130e-14
  70
    32
  0
VERTEX
  8
0
  5
13EDC
 10
339.172
 20
59.9987
 30
7.82145e-14
  70
    32
  0
VERTEX
  8
0
  5
13EDD
 10
339.179
 20
59.9984
 30
7.82159e-14
  70
    32
  0
VERTEX
  8
0
  5
13EDE
 10
339.186
 20
59.9981
 30
7.82174e-14
  70
    32
  0
VERTEX
  8
0
  5
13EDF
 10
339.194
 20
59.9978
 30
7.82188e-14
  70
    32
  0
VERTEX
  8
0
  5
13EE0
 10
339.201
 20
59.9975
 30
7.82203e-14
  70
    32
  0
VERTEX
  8
0
  5
13EE1
 10
339.208
 20
59.9971
 30
7.82217e-14
  70
    32
  0
VERTEX
  8
0
  5
13EE2
 10
339.215
 20
59.9967
 30
7.82231e-14
  70
    32
  0
VERTEX
  8
0
  5
13EE3
 10
339.223
 20
59.9963
 30
7.82246e-14
  70
    32
  0
VERTEX
  8
0
  5
13EE4
 10
339.230
 20
59.9958
 30
7.82260e-14
  70
    32
  0
VERTEX
  8
0
  5
13EE5
 10
339.237
 20
59.9953
 30
7.82275e-14
  70
    32
  0
VERTEX
  8
0
  5
13EE6
 10
339.244
 20
59.9948
 30
7.82289e-14
  70
    32
  0
VERTEX
  8
0
  5
13EE7
 10
339.251
 20
59.9943
 30
7.82304e-14
  70
    32
  0
VERTEX
  8
0
  5
13EE8
 10
339.259
 20
59.9937
 30
7.82318e-14
  70
    32
  0
VERTEX
  8
0
  5
13EE9
 10
339.266
 20
59.9932
 30
7.82333e-14
  70
    32
  0
VERTEX
  8
0
  5
13EEA
 10
339.273
 20
59.9926
 30
7.82347e-14
  70
    32
  0
VERTEX
  8
0
  5
13EEB
 10
339.280
 20
59.9919
 30
7.82361e-14
  70
    32
  0
VERTEX
  8
0
  5
13EEC
 10
339.288
 20
59.9913
 30
7.82376e-14
  70
    32
  0
VERTEX
  8
0
  5
13EED
 10
339.295
 20
59.9906
 30
7.82390e-14
  70
    32
  0
VERTEX
  8
0
  5
13EEE
 10
339.302
 20
59.9899
 30
7.82405e-14
  70
    32
  0
VERTEX
  8
0
  5
13EEF
 10
339.309
 20
59.9891
 30
7.82419e-14
  70
    32
  0
VERTEX
  8
0
  5
13EF0
 10
339.316
 20
59.9884
 30
7.82434e-14
  70
    32
  0
VERTEX
  8
0
  5
13EF1
 10
339.324
 20
59.9876
 30
7.82448e-14
  70
    32
  0
VERTEX
  8
0
  5
13EF2
 10
339.331
 20
59.9868
 30
7.82462e-14
  70
    32
  0
VERTEX
  8
0
  5
13EF3
 10
339.338
 20
59.9859
 30
7.82477e-14
  70
    32
  0
VERTEX
  8
0
  5
13EF4
 10
339.345
 20
59.9851
 30
7.82491e-14
  70
    32
  0
VERTEX
  8
0
  5
13EF5
 10
339.352
 20
59.9842
 30
7.82506e-14
  70
    32
  0
VERTEX
  8
0
  5
13EF6
 10
339.360
 20
59.9833
 30
7.82520e-14
  70
    32
  0
VERTEX
  8
0
  5
13EF7
 10
339.367
 20
59.9823
 30
7.82534e-14
  70
    32
  0
VERTEX
  8
0
  5
13EF8
 10
339.374
 20
59.9814
 30
7.82549e-14
  70
    32
  0
VERTEX
  8
0
  5
13EF9
 10
339.381
 20
59.9804
 30
7.82563e-14
  70
    32
  0
VERTEX
  8
0
  5
13EFA
 10
339.388
 20
59.9794
 30
7.82577e-14
  70
    32
  0
VERTEX
  8
0
  5
13EFB
 10
339.395
 20
59.9783
 30
7.82592e-14
  70
    32
  0
VERTEX
  8
0
  5
13EFC
 10
339.403
 20
59.9772
 30
7.82606e-14
  70
    32
  0
VERTEX
  8
0
  5
13EFD
 10
339.410
 20
59.9761
 30
7.82620e-14
  70
    32
  0
VERTEX
  8
0
  5
13EFE
 10
339.417
 20
59.9750
 30
7.82635e-14
  70
    32
  0
VERTEX
  8
0
  5
13EFF
 10
339.424
 20
59.9739
 30
7.82649e-14
  70
    32
  0
VERTEX
  8
0
  5
13F00
 10
339.431
 20
59.9727
 30
7.82663e-14
  70
    32
  0
VERTEX
  8
0
  5
13F01
 10
339.438
 20
59.9715
 30
7.82678e-14
  70
    32
  0
VERTEX
  8
0
  5
13F02
 10
339.446
 20
59.9703
 30
7.82692e-14
  70
    32
  0
VERTEX
  8
0
  5
13F03
 10
339.453
 20
59.9690
 30
7.82706e-14
  70
    32
  0
VERTEX
  8
0
  5
13F04
 10
339.460
 20
59.9678
 30
7.82721e-14
  70
    32
  0
VERTEX
  8
0
  5
13F05
 10
339.467
 20
59.9665
 30
7.82735e-14
  70
    32
  0
VERTEX
  8
0
  5
13F06
 10
339.474
 20
59.9651
 30
7.82749e-14
  70
    32
  0
VERTEX
  8
0
  5
13F07
 10
339.481
 20
59.9638
 30
7.82763e-14
  70
    32
  0
VERTEX
  8
0
  5
13F08
 10
339.488
 20
59.9624
 30
7.82778e-14
  70
    32
  0
VERTEX
  8
0
  5
13F09
 10
339.496
 20
59.9610
 30
7.82792e-14
  70
    32
  0
VERTEX
  8
0
  5
13F0A
 10
339.503
 20
59.9596
 30
7.82806e-14
  70
    32
  0
VERTEX
  8
0
  5
13F0B
 10
339.510
 20
59.9581
 30
7.82820e-14
  70
    32
  0
VERTEX
  8
0
  5
13F0C
 10
339.517
 20
59.9567
 30
7.82835e-14
  70
    32
  0
VERTEX
  8
0
  5
13F0D
 10
339.524
 20
59.9552
 30
7.82849e-14
  70
    32
  0
VERTEX
  8
0
  5
13F0E
 10
339.531
 20
59.9536
 30
7.82863e-14
  70
    32
  0
VERTEX
  8
0
  5
13F0F
 10
339.538
 20
59.9521
 30
7.82877e-14
  70
    32
  0
VERTEX
  8
0
  5
13F10
 10
339.545
 20
59.9505
 30
7.82891e-14
  70
    32
  0
VERTEX
  8
0
  5
13F11
 10
339.552
 20
59.9489
 30
7.82906e-14
  70
    32
  0
VERTEX
  8
0
  5
13F12
 10
339.559
 20
59.9473
 30
7.82920e-14
  70
    32
  0
VERTEX
  8
0
  5
13F13
 10
339.567
 20
59.9456
 30
7.82934e-14
  70
    32
  0
VERTEX
  8
0
  5
13F14
 10
339.574
 20
59.9439
 30
7.82948e-14
  70
    32
  0
VERTEX
  8
0
  5
13F15
 10
339.581
 20
59.9422
 30
7.82962e-14
  70
    32
  0
VERTEX
  8
0
  5
13F16
 10
339.588
 20
59.9405
 30
7.82976e-14
  70
    32
  0
VERTEX
  8
0
  5
13F17
 10
339.595
 20
59.9387
 30
7.82991e-14
  70
    32
  0
VERTEX
  8
0
  5
13F18
 10
339.602
 20
59.9370
 30
7.83005e-14
  70
    32
  0
VERTEX
  8
0
  5
13F19
 10
339.609
 20
59.9352
 30
7.83019e-14
  70
    32
  0
VERTEX
  8
0
  5
13F1A
 10
339.616
 20
59.9333
 30
7.83033e-14
  70
    32
  0
VERTEX
  8
0
  5
13F1B
 10
339.623
 20
59.9315
 30
7.83047e-14
  70
    32
  0
VERTEX
  8
0
  5
13F1C
 10
339.630
 20
59.9296
 30
7.83061e-14
  70
    32
  0
VERTEX
  8
0
  5
13F1D
 10
339.637
 20
59.9277
 30
7.83075e-14
  70
    32
  0
VERTEX
  8
0
  5
13F1E
 10
339.644
 20
59.9257
 30
7.83089e-14
  70
    32
  0
VERTEX
  8
0
  5
13F1F
 10
339.651
 20
59.9238
 30
7.83103e-14
  70
    32
  0
VERTEX
  8
0
  5
13F20
 10
339.658
 20
59.9218
 30
7.83117e-14
  70
    32
  0
VERTEX
  8
0
  5
13F21
 10
339.665
 20
59.9198
 30
7.83131e-14
  70
    32
  0
VERTEX
  8
0
  5
13F22
 10
339.672
 20
59.9178
 30
7.83145e-14
  70
    32
  0
VERTEX
  8
0
  5
13F23
 10
339.679
 20
59.9157
 30
7.83159e-14
  70
    32
  0
VERTEX
  8
0
  5
13F24
 10
339.686
 20
59.9136
 30
7.83173e-14
  70
    32
  0
VERTEX
  8
0
  5
13F25
 10
339.693
 20
59.9115
 30
7.83187e-14
  70
    32
  0
VERTEX
  8
0
  5
13F26
 10
339.700
 20
59.9094
 30
7.83201e-14
  70
    32
  0
VERTEX
  8
0
  5
13F27
 10
339.707
 20
59.9072
 30
7.83215e-14
  70
    32
  0
VERTEX
  8
0
  5
13F28
 10
339.714
 20
59.9051
 30
7.83229e-14
  70
    32
  0
VERTEX
  8
0
  5
13F29
 10
339.721
 20
59.9028
 30
7.83243e-14
  70
    32
  0
VERTEX
  8
0
  5
13F2A
 10
339.728
 20
59.9006
 30
7.83257e-14
  70
    32
  0
VERTEX
  8
0
  5
13F2B
 10
339.735
 20
59.8984
 30
7.83271e-14
  70
    32
  0
VERTEX
  8
0
  5
13F2C
 10
339.742
 20
59.8961
 30
7.83285e-14
  70
    32
  0
VERTEX
  8
0
  5
13F2D
 10
339.749
 20
59.8938
 30
7.83298e-14
  70
    32
  0
VERTEX
  8
0
  5
13F2E
 10
339.756
 20
59.8914
 30
7.83312e-14
  70
    32
  0
VERTEX
  8
0
  5
13F2F
 10
339.763
 20
59.8891
 30
7.83326e-14
  70
    32
  0
VERTEX
  8
0
  5
13F30
 10
339.770
 20
59.8867
 30
7.83340e-14
  70
    32
  0
VERTEX
  8
0
  5
13F31
 10
339.776
 20
59.8843
 30
7.83354e-14
  70
    32
  0
VERTEX
  8
0
  5
13F32
 10
339.783
 20
59.8819
 30
7.83368e-14
  70
    32
  0
VERTEX
  8
0
  5
13F33
 10
339.790
 20
59.8794
 30
7.83381e-14
  70
    32
  0
VERTEX
  8
0
  5
13F34
 10
339.797
 20
59.8769
 30
7.83395e-14
  70
    32
  0
VERTEX
  8
0
  5
13F35
 10
339.804
 20
59.8744
 30
7.83409e-14
  70
    32
  0
VERTEX
  8
0
  5
13F36
 10
339.811
 20
59.8719
 30
7.83423e-14
  70
    32
  0
VERTEX
  8
0
  5
13F37
 10
339.818
 20
59.8694
 30
7.83436e-14
  70
    32
  0
VERTEX
  8
0
  5
13F38
 10
339.825
 20
59.8668
 30
7.83450e-14
  70
    32
  0
VERTEX
  8
0
  5
13F39
 10
339.831
 20
59.8642
 30
7.83464e-14
  70
    32
  0
VERTEX
  8
0
  5
13F3A
 10
339.838
 20
59.8616
 30
7.83477e-14
  70
    32
  0
VERTEX
  8
0
  5
13F3B
 10
339.845
 20
59.8589
 30
7.83491e-14
  70
    32
  0
VERTEX
  8
0
  5
13F3C
 10
339.852
 20
59.8562
 30
7.83505e-14
  70
    32
  0
VERTEX
  8
0
  5
13F3D
 10
339.859
 20
59.8535
 30
7.83518e-14
  70
    32
  0
VERTEX
  8
0
  5
13F3E
 10
339.866
 20
59.8508
 30
7.83532e-14
  70
    32
  0
VERTEX
  8
0
  5
13F3F
 10
339.872
 20
59.8481
 30
7.83546e-14
  70
    32
  0
VERTEX
  8
0
  5
13F40
 10
339.879
 20
59.8453
 30
7.83559e-14
  70
    32
  0
VERTEX
  8
0
  5
13F41
 10
339.886
 20
59.8425
 30
7.83573e-14
  70
    32
  0
VERTEX
  8
0
  5
13F42
 10
339.893
 20
59.8397
 30
7.83586e-14
  70
    32
  0
VERTEX
  8
0
  5
13F43
 10
339.900
 20
59.8368
 30
7.83600e-14
  70
    32
  0
VERTEX
  8
0
  5
13F44
 10
339.906
 20
59.8340
 30
7.83613e-14
  70
    32
  0
VERTEX
  8
0
  5
13F45
 10
339.913
 20
59.8311
 30
7.83627e-14
  70
    32
  0
VERTEX
  8
0
  5
13F46
 10
339.920
 20
59.8282
 30
7.83640e-14
  70
    32
  0
VERTEX
  8
0
  5
13F47
 10
339.926
 20
59.8252
 30
7.83654e-14
  70
    32
  0
VERTEX
  8
0
  5
13F48
 10
339.933
 20
59.8222
 30
7.83667e-14
  70
    32
  0
VERTEX
  8
0
  5
13F49
 10
339.940
 20
59.8193
 30
7.83681e-14
  70
    32
  0
VERTEX
  8
0
  5
13F4A
 10
339.947
 20
59.8162
 30
7.83694e-14
  70
    32
  0
VERTEX
  8
0
  5
13F4B
 10
339.953
 20
59.8132
 30
7.83708e-14
  70
    32
  0
VERTEX
  8
0
  5
13F4C
 10
339.960
 20
59.8102
 30
7.83721e-14
  70
    32
  0
VERTEX
  8
0
  5
13F4D
 10
339.967
 20
59.8071
 30
7.83734e-14
  70
    32
  0
VERTEX
  8
0
  5
13F4E
 10
339.973
 20
59.8040
 30
7.83748e-14
  70
    32
  0
VERTEX
  8
0
  5
13F4F
 10
339.980
 20
59.8008
 30
7.83761e-14
  70
    32
  0
VERTEX
  8
0
  5
13F50
 10
339.987
 20
59.7977
 30
7.83774e-14
  70
    32
  0
VERTEX
  8
0
  5
13F51
 10
339.993
 20
59.7945
 30
7.83788e-14
  70
    32
  0
VERTEX
  8
0
  5
13F52
 10
340.000
 20
59.7913
 30
7.83801e-14
  70
    32
  0
SEQEND
  8
0
  5
13F53
  0
POLYLINE
  5
13CE0
  8
0
  6
CONTINUOUS
 62
     3
 10
339.0995959557018864
 20
-58.50000000000054
 30
0.0000000000000782
 66
     1
 70
     8
  0
VERTEX
  8
0
  5
13F54
 10
339.100
 20
-58.5000
 30
7.82000e-14
  70
    32
  0
VERTEX
  8
0
  5
13F55
 10
339.111
 20
-58.4999
 30
7.82022e-14
  70
    32
  0
VERTEX
  8
0
  5
13F56
 10
339.122
 20
-58.4997
 30
7.82044e-14
  70
    32
  0
VERTEX
  8
0
  5
13F57
 10
339.133
 20
-58.4993
 30
7.82066e-14
  70
    32
  0
VERTEX
  8
0
  5
13F58
 10
339.144
 20
-58.4988
 30
7.82088e-14
  70
    32
  0
VERTEX
  8
0
  5
13F59
 10
339.155
 20
-58.4981
 30
7.82110e-14
  70
    32
  0
VERTEX
  8
0
  5
13F5A
 10
339.166
 20
-58.4973
 30
7.82132e-14
  70
    32
  0
VERTEX
  8
0
  5
13F5B
 10
339.177
 20
-58.4963
 30
7.82155e-14
  70
    32
  0
VERTEX
  8
0
  5
13F5C
 10
339.188
 20
-58.4952
 30
7.82177e-14
  70
    32
  0
VERTEX
  8
0
  5
13F5D
 10
339.199
 20
-58.4939
 30
7.82198e-14
  70
    32
  0
VERTEX
  8
0
  5
13F5E
 10
339.210
 20
-58.4925
 30
7.82220e-14
  70
    32
  0
VERTEX
  8
0
  5
13F5F
 10
339.221
 20
-58.4909
 30
7.82242e-14
  70
    32
  0
VERTEX
  8
0
  5
13F60
 10
339.232
 20
-58.4892
 30
7.82264e-14
  70
    32
  0
VERTEX
  8
0
  5
13F61
 10
339.243
 20
-58.4873
 30
7.82286e-14
  70
    32
  0
VERTEX
  8
0
  5
13F62
 10
339.254
 20
-58.4853
 30
7.82308e-14
  70
    32
  0
VERTEX
  8
0
  5
13F63
 10
339.264
 20
-58.4831
 30
7.82330e-14
  70
    32
  0
VERTEX
  8
0
  5
13F64
 10
339.275
 20
-58.4808
 30
7.82351e-14
  70
    32
  0
VERTEX
  8
0
  5
13F65
 10
339.286
 20
-58.4783
 30
7.82373e-14
  70
    32
  0
VERTEX
  8
0
  5
13F66
 10
339.297
 20
-58.4757
 30
7.82395e-14
  70
    32
  0
VERTEX
  8
0
  5
13F67
 10
339.308
 20
-58.4729
 30
7.82416e-14
  70
    32
  0
VERTEX
  8
0
  5
13F68
 10
339.318
 20
-58.4700
 30
7.82438e-14
  70
    32
  0
VERTEX
  8
0
  5
13F69
 10
339.329
 20
-58.4670
 30
7.82459e-14
  70
    32
  0
VERTEX
  8
0
  5
13F6A
 10
339.340
 20
-58.4638
 30
7.82480e-14
  70
    32
  0
VERTEX
  8
0
  5
13F6B
 10
339.350
 20
-58.4604
 30
7.82502e-14
  70
    32
  0
VERTEX
  8
0
  5
13F6C
 10
339.361
 20
-58.4569
 30
7.82523e-14
  70
    32
  0
VERTEX
  8
0
  5
13F6D
 10
339.372
 20
-58.4533
 30
7.82544e-14
  70
    32
  0
VERTEX
  8
0
  5
13F6E
 10
339.382
 20
-58.4495
 30
7.82565e-14
  70
    32
  0
VERTEX
  8
0
  5
13F6F
 10
339.393
 20
-58.4456
 30
7.82586e-14
  70
    32
  0
VERTEX
  8
0
  5
13F70
 10
339.403
 20
-58.4415
 30
7.82607e-14
  70
    32
  0
VERTEX
  8
0
  5
13F71
 10
339.413
 20
-58.4373
 30
7.82627e-14
  70
    32
  0
VERTEX
  8
0
  5
13F72
 10
339.424
 20
-58.4330
 30
7.82648e-14
  70
    32
  0
VERTEX
  8
0
  5
13F73
 10
339.434
 20
-58.4285
 30
7.82669e-14
  70
    32
  0
VERTEX
  8
0
  5
13F74
 10
339.444
 20
-58.4239
 30
7.82689e-14
  70
    32
  0
VERTEX
  8
0
  5
13F75
 10
339.454
 20
-58.4191
 30
7.82710e-14
  70
    32
  0
VERTEX
  8
0
  5
13F76
 10
339.464
 20
-58.4142
 30
7.82730e-14
  70
    32
  0
VERTEX
  8
0
  5
13F77
 10
339.475
 20
-58.4092
 30
7.82750e-14
  70
    32
  0
VERTEX
  8
0
  5
13F78
 10
339.485
 20
-58.4040
 30
7.82770e-14
  70
    32
  0
VERTEX
  8
0
  5
13F79
 10
339.495
 20
-58.3987
 30
7.82790e-14
  70
    32
  0
VERTEX
  8
0
  5
13F7A
 10
339.504
 20
-58.3932
 30
7.82810e-14
  70
    32
  0
VERTEX
  8
0
  5
13F7B
 10
339.514
 20
-58.3876
 30
7.82829e-14
  70
    32
  0
VERTEX
  8
0
  5
13F7C
 10
339.524
 20
-58.3819
 30
7.82849e-14
  70
    32
  0
VERTEX
  8
0
  5
13F7D
 10
339.534
 20
-58.3761
 30
7.82868e-14
  70
    32
  0
VERTEX
  8
0
  5
13F7E
 10
339.543
 20
-58.3701
 30
7.82888e-14
  70
    32
  0
VERTEX
  8
0
  5
13F7F
 10
339.553
 20
-58.3640
 30
7.82907e-14
  70
    32
  0
VERTEX
  8
0
  5
13F80
 10
339.562
 20
-58.3577
 30
7.82926e-14
  70
    32
  0
VERTEX
  8
0
  5
13F81
 10
339.572
 20
-58.3514
 30
7.82945e-14
  70
    32
  0
VERTEX
  8
0
  5
13F82
 10
339.581
 20
-58.3449
 30
7.82963e-14
  70
    32
  0
VERTEX
  8
0
  5
13F83
 10
339.591
 20
-58.3382
 30
7.82982e-14
  70
    32
  0
VERTEX
  8
0
  5
13F84
 10
339.600
 20
-58.3315
 30
7.83000e-14
  70
    32
  0
VERTEX
  8
0
  5
13F85
 10
339.609
 20
-58.3246
 30
7.83019e-14
  70
    32
  0
VERTEX
  8
0
  5
13F86
 10
339.618
 20
-58.3176
 30
7.83037e-14
  70
    32
  0
VERTEX
  8
0
  5
13F87
 10
339.627
 20
-58.3105
 30
7.83055e-14
  70
    32
  0
VERTEX
  8
0
  5
13F88
 10
339.636
 20
-58.3032
 30
7.83073e-14
  70
    32
  0
VERTEX
  8
0
  5
13F89
 10
339.645
 20
-58.2958
 30
7.83090e-14
  70
    32
  0
VERTEX
  8
0
  5
13F8A
 10
339.654
 20
-58.2883
 30
7.83108e-14
  70
    32
  0
VERTEX
  8
0
  5
13F8B
 10
339.662
 20
-58.2807
 30
7.83125e-14
  70
    32
  0
VERTEX
  8
0
  5
13F8C
 10
339.671
 20
-58.2730
 30
7.83142e-14
  70
    32
  0
VERTEX
  8
0
  5
13F8D
 10
339.679
 20
-58.2652
 30
7.83159e-14
  70
    32
  0
VERTEX
  8
0
  5
13F8E
 10
339.688
 20
-58.2572
 30
7.83176e-14
  70
    32
  0
VERTEX
  8
0
  5
13F8F
 10
339.696
 20
-58.2491
 30
7.83193e-14
  70
    32
  0
VERTEX
  8
0
  5
13F90
 10
339.704
 20
-58.2410
 30
7.83209e-14
  70
    32
  0
VERTEX
  8
0
  5
13F91
 10
339.712
 20
-58.2327
 30
7.83226e-14
  70
    32
  0
VERTEX
  8
0
  5
13F92
 10
339.720
 20
-58.2242
 30
7.83242e-14
  70
    32
  0
VERTEX
  8
0
  5
13F93
 10
339.728
 20
-58.2157
 30
7.83258e-14
  70
    32
  0
VERTEX
  8
0
  5
13F94
 10
339.736
 20
-58.2071
 30
7.83273e-14
  70
    32
  0
VERTEX
  8
0
  5
13F95
 10
339.744
 20
-58.1984
 30
7.83289e-14
  70
    32
  0
VERTEX
  8
0
  5
13F96
 10
339.752
 20
-58.1895
 30
7.83304e-14
  70
    32
  0
VERTEX
  8
0
  5
13F97
 10
339.759
 20
-58.1806
 30
7.83319e-14
  70
    32
  0
VERTEX
  8
0
  5
13F98
 10
339.767
 20
-58.1716
 30
7.83334e-14
  70
    32
  0
VERTEX
  8
0
  5
13F99
 10
339.774
 20
-58.1624
 30
7.83349e-14
  70
    32
  0
VERTEX
  8
0
  5
13F9A
 10
339.781
 20
-58.1532
 30
7.83364e-14
  70
    32
  0
VERTEX
  8
0
  5
13F9B
 10
339.789
 20
-58.1438
 30
7.83378e-14
  70
    32
  0
VERTEX
  8
0
  5
13F9C
 10
339.796
 20
-58.1344
 30
7.83392e-14
  70
    32
  0
VERTEX
  8
0
  5
13F9D
 10
339.803
 20
-58.1249
 30
7.83406e-14
  70
    32
  0
VERTEX
  8
0
  5
13F9E
 10
339.809
 20
-58.1152
 30
7.83420e-14
  70
    32
  0
VERTEX
  8
0
  5
13F9F
 10
339.816
 20
-58.1055
 30
7.83433e-14
  70
    32
  0
VERTEX
  8
0
  5
13FA0
 10
339.823
 20
-58.0957
 30
7.83446e-14
  70
    32
  0
VERTEX
  8
0
  5
13FA1
 10
339.829
 20
-58.0858
 30
7.83459e-14
  70
    32
  0
VERTEX
  8
0
  5
13FA2
 10
339.836
 20
-58.0758
 30
7.83472e-14
  70
    32
  0
VERTEX
  8
0
  5
13FA3
 10
339.842
 20
-58.0657
 30
7.83485e-14
  70
    32
  0
VERTEX
  8
0
  5
13FA4
 10
339.848
 20
-58.0556
 30
7.83497e-14
  70
    32
  0
VERTEX
  8
0
  5
13FA5
 10
339.854
 20
-58.0453
 30
7.83509e-14
  70
    32
  0
VERTEX
  8
0
  5
13FA6
 10
339.860
 20
-58.0350
 30
7.83521e-14
  70
    32
  0
VERTEX
  8
0
  5
13FA7
 10
339.866
 20
-58.0246
 30
7.83533e-14
  70
    32
  0
VERTEX
  8
0
  5
13FA8
 10
339.872
 20
-58.0141
 30
7.83545e-14
  70
    32
  0
VERTEX
  8
0
  5
13FA9
 10
339.878
 20
-58.0035
 30
7.83556e-14
  70
    32
  0
VERTEX
  8
0
  5
13FAA
 10
339.883
 20
-57.9929
 30
7.83567e-14
  70
    32
  0
VERTEX
  8
0
  5
13FAB
 10
339.888
 20
-57.9822
 30
7.83578e-14
  70
    32
  0
VERTEX
  8
0
  5
13FAC
 10
339.894
 20
-57.9714
 30
7.83588e-14
  70
    32
  0
VERTEX
  8
0
  5
13FAD
 10
339.899
 20
-57.9605
 30
7.83598e-14
  70
    32
  0
VERTEX
  8
0
  5
13FAE
 10
339.904
 20
-57.9496
 30
7.83609e-14
  70
    32
  0
VERTEX
  8
0
  5
13FAF
 10
339.909
 20
-57.9386
 30
7.83618e-14
  70
    32
  0
VERTEX
  8
0
  5
13FB0
 10
339.914
 20
-57.9276
 30
7.83628e-14
  70
    32
  0
VERTEX
  8
0
  5
13FB1
 10
339.918
 20
-57.9164
 30
7.83637e-14
  70
    32
  0
VERTEX
  8
0
  5
13FB2
 10
339.923
 20
-57.9052
 30
7.83646e-14
  70
    32
  0
VERTEX
  8
0
  5
13FB3
 10
339.927
 20
-57.8940
 30
7.83655e-14
  70
    32
  0
VERTEX
  8
0
  5
13FB4
 10
339.931
 20
-57.8827
 30
7.83664e-14
  70
    32
  0
VERTEX
  8
0
  5
13FB5
 10
339.936
 20
-57.8713
 30
7.83672e-14
  70
    32
  0
VERTEX
  8
0
  5
13FB6
 10
339.940
 20
-57.8599
 30
7.83680e-14
  70
    32
  0
VERTEX
  8
0
  5
13FB7
 10
339.944
 20
-57.8484
 30
7.83688e-14
  70
    32
  0
VERTEX
  8
0
  5
13FB8
 10
339.947
 20
-57.8369
 30
7.83696e-14
  70
    32
  0
VERTEX
  8
0
  5
13FB9
 10
339.951
 20
-57.8253
 30
7.83703e-14
  70
    32
  0
VERTEX
  8
0
  5
13FBA
 10
339.955
 20
-57.8137
 30
7.83710e-14
  70
    32
  0
VERTEX
  8
0
  5
13FBB
 10
339.958
 20
-57.8020
 30
7.83717e-14
  70
    32
  0
VERTEX
  8
0
  5
13FBC
 10
339.961
 20
-57.7903
 30
7.83723e-14
  70
    32
  0
VERTEX
  8
0
  5
13FBD
 10
339.964
 20
-57.7785
 30
7.83730e-14
  70
    32
  0
VERTEX
  8
0
  5
13FBE
 10
339.967
 20
-57.7667
 30
7.83736e-14
  70
    32
  0
VERTEX
  8
0
  5
13FBF
 10
339.970
 20
-57.7549
 30
7.83741e-14
  70
    32
  0
VERTEX
  8
0
  5
13FC0
 10
339.973
 20
-57.7430
 30
7.83747e-14
  70
    32
  0
VERTEX
  8
0
  5
13FC1
 10
339.976
 20
-57.7311
 30
7.83752e-14
  70
    32
  0
VERTEX
  8
0
  5
13FC2
 10
339.978
 20
-57.7191
 30
7.83757e-14
  70
    32
  0
VERTEX
  8
0
  5
13FC3
 10
339.980
 20
-57.7071
 30
7.83762e-14
  70
    32
  0
VERTEX
  8
0
  5
13FC4
 10
339.983
 20
-57.6951
 30
7.83766e-14
  70
    32
  0
VERTEX
  8
0
  5
13FC5
 10
339.985
 20
-57.6830
 30
7.83770e-14
  70
    32
  0
VERTEX
  8
0
  5
13FC6
 10
339.987
 20
-57.6710
 30
7.83774e-14
  70
    32
  0
VERTEX
  8
0
  5
13FC7
 10
339.989
 20
-57.6589
 30
7.83778e-14
  70
    32
  0
VERTEX
  8
0
  5
13FC8
 10
339.990
 20
-57.6467
 30
7.83781e-14
  70
    32
  0
VERTEX
  8
0
  5
13FC9
 10
339.992
 20
-57.6346
 30
7.83784e-14
  70
    32
  0
VERTEX
  8
0
  5
13FCA
 10
339.993
 20
-57.6224
 30
7.83787e-14
  70
    32
  0
VERTEX
  8
0
  5
13FCB
 10
339.995
 20
-57.6102
 30
7.83790e-14
  70
    32
  0
VERTEX
  8
0
  5
13FCC
 10
339.996
 20
-57.5980
 30
7.83792e-14
  70
    32
  0
VERTEX
  8
0
  5
13FCD
 10
339.997
 20
-57.5858
 30
7.83794e-14
  70
    32
  0
VERTEX
  8
0
  5
13FCE
 10
339.998
 20
-57.5736
 30
7.83796e-14
  70
    32
  0
VERTEX
  8
0
  5
13FCF
 10
339.998
 20
-57.5613
 30
7.83797e-14
  70
    32
  0
VERTEX
  8
0
  5
13FD0
 10
339.999
 20
-57.5491
 30
7.83799e-14
  70
    32
  0
VERTEX
  8
0
  5
13FD1
 10
339.999
 20
-57.5368
 30
7.83800e-14
  70
    32
  0
VERTEX
  8
0
  5
13FD2
 10
340.000
 20
-57.5245
 30
7.83800e-14
  70
    32
  0
VERTEX
  8
0
  5
13FD3
 10
340.000
 20
-57.5123
 30
7.83801e-14
  70
    32
  0
VERTEX
  8
0
  5
13FD4
 10
340.000
 20
-57.5000
 30
7.83801e-14
  70
    32
  0
SEQEND
  8
0
  5
13FD5
  0
LINE
  5
13CE1
  8
0
  6
CONTINUOUS
 62
     3
 10
339.0995959557018864
 20
-60.0000000000008669
 30
0.0000000000000782
 11
288.9748856151919085
 21
-60.0000000000003908
 31
0.0000000000000639
  0
POLYLINE
  5
13CE2
  8
0
  6
CONTINUOUS
 62
     3
 10
339.9999999999997726
 20
-59.7912878474784364
 30
0.0000000000000784
 66
     1
 70
     8
  0
VERTEX
  8
0
  5
13FD6
 10
340.000
 20
-59.7913
 30
7.83801e-14
  70
    32
  0
VERTEX
  8
0
  5
13FD7
 10
339.993
 20
-59.7945
 30
7.83788e-14
  70
    32
  0
VERTEX
  8
0
  5
13FD8
 10
339.987
 20
-59.7977
 30
7.83774e-14
  70
    32
  0
VERTEX
  8
0
  5
13FD9
 10
339.980
 20
-59.8008
 30
7.83761e-14
  70
    32
  0
VERTEX
  8
0
  5
13FDA
 10
339.973
 20
-59.8040
 30
7.83748e-14
  70
    32
  0
VERTEX
  8
0
  5
13FDB
 10
339.967
 20
-59.8071
 30
7.83734e-14
  70
    32
  0
VERTEX
  8
0
  5
13FDC
 10
339.960
 20
-59.8102
 30
7.83721e-14
  70
    32
  0
VERTEX
  8
0
  5
13FDD
 10
339.953
 20
-59.8132
 30
7.83708e-14
  70
    32
  0
VERTEX
  8
0
  5
13FDE
 10
339.947
 20
-59.8162
 30
7.83694e-14
  70
    32
  0
VERTEX
  8
0
  5
13FDF
 10
339.940
 20
-59.8193
 30
7.83681e-14
  70
    32
  0
VERTEX
  8
0
  5
13FE0
 10
339.933
 20
-59.8222
 30
7.83667e-14
  70
    32
  0
VERTEX
  8
0
  5
13FE1
 10
339.926
 20
-59.8252
 30
7.83654e-14
  70
    32
  0
VERTEX
  8
0
  5
13FE2
 10
339.920
 20
-59.8282
 30
7.83640e-14
  70
    32
  0
VERTEX
  8
0
  5
13FE3
 10
339.913
 20
-59.8311
 30
7.83627e-14
  70
    32
  0
VERTEX
  8
0
  5
13FE4
 10
339.906
 20
-59.8340
 30
7.83613e-14
  70
    32
  0
VERTEX
  8
0
  5
13FE5
 10
339.900
 20
-59.8368
 30
7.83600e-14
  70
    32
  0
VERTEX
  8
0
  5
13FE6
 10
339.893
 20
-59.8397
 30
7.83586e-14
  70
    32
  0
VERTEX
  8
0
  5
13FE7
 10
339.886
 20
-59.8425
 30
7.83573e-14
  70
    32
  0
VERTEX
  8
0
  5
13FE8
 10
339.879
 20
-59.8453
 30
7.83559e-14
  70
    32
  0
VERTEX
  8
0
  5
13FE9
 10
339.872
 20
-59.8481
 30
7.83546e-14
  70
    32
  0
VERTEX
  8
0
  5
13FEA
 10
339.866
 20
-59.8508
 30
7.83532e-14
  70
    32
  0
VERTEX
  8
0
  5
13FEB
 10
339.859
 20
-59.8535
 30
7.83518e-14
  70
    32
  0
VERTEX
  8
0
  5
13FEC
 10
339.852
 20
-59.8562
 30
7.83505e-14
  70
    32
  0
VERTEX
  8
0
  5
13FED
 10
339.845
 20
-59.8589
 30
7.83491e-14
  70
    32
  0
VERTEX
  8
0
  5
13FEE
 10
339.838
 20
-59.8616
 30
7.83477e-14
  70
    32
  0
VERTEX
  8
0
  5
13FEF
 10
339.831
 20
-59.8642
 30
7.83464e-14
  70
    32
  0
VERTEX
  8
0
  5
13FF0
 10
339.825
 20
-59.8668
 30
7.83450e-14
  70
    32
  0
VERTEX
  8
0
  5
13FF1
 10
339.818
 20
-59.8694
 30
7.83436e-14
  70
    32
  0
VERTEX
  8
0
  5
13FF2
 10
339.811
 20
-59.8719
 30
7.83423e-14
  70
    32
  0
VERTEX
  8
0
  5
13FF3
 10
339.804
 20
-59.8744
 30
7.83409e-14
  70
    32
  0
VERTEX
  8
0
  5
13FF4
 10
339.797
 20
-59.8769
 30
7.83395e-14
  70
    32
  0
VERTEX
  8
0
  5
13FF5
 10
339.790
 20
-59.8794
 30
7.83381e-14
  70
    32
  0
VERTEX
  8
0
  5
13FF6
 10
339.783
 20
-59.8819
 30
7.83368e-14
  70
    32
  0
VERTEX
  8
0
  5
13FF7
 10
339.776
 20
-59.8843
 30
7.83354e-14
  70
    32
  0
VERTEX
  8
0
  5
13FF8
 10
339.770
 20
-59.8867
 30
7.83340e-14
  70
    32
  0
VERTEX
  8
0
  5
13FF9
 10
339.763
 20
-59.8891
 30
7.83326e-14
  70
    32
  0
VERTEX
  8
0
  5
13FFA
 10
339.756
 20
-59.8914
 30
7.83312e-14
  70
    32
  0
VERTEX
  8
0
  5
13FFB
 10
339.749
 20
-59.8938
 30
7.83298e-14
  70
    32
  0
VERTEX
  8
0
  5
13FFC
 10
339.742
 20
-59.8961
 30
7.83285e-14
  70
    32
  0
VERTEX
  8
0
  5
13FFD
 10
339.735
 20
-59.8984
 30
7.83271e-14
  70
    32
  0
VERTEX
  8
0
  5
13FFE
 10
339.728
 20
-59.9006
 30
7.83257e-14
  70
    32
  0
VERTEX
  8
0
  5
13FFF
 10
339.721
 20
-59.9028
 30
7.83243e-14
  70
    32
  0
VERTEX
  8
0
  5
14000
 10
339.714
 20
-59.9051
 30
7.83229e-14
  70
    32
  0
VERTEX
  8
0
  5
14001
 10
339.707
 20
-59.9072
 30
7.83215e-14
  70
    32
  0
VERTEX
  8
0
  5
14002
 10
339.700
 20
-59.9094
 30
7.83201e-14
  70
    32
  0
VERTEX
  8
0
  5
14003
 10
339.693
 20
-59.9115
 30
7.83187e-14
  70
    32
  0
VERTEX
  8
0
  5
14004
 10
339.686
 20
-59.9136
 30
7.83173e-14
  70
    32
  0
VERTEX
  8
0
  5
14005
 10
339.679
 20
-59.9157
 30
7.83159e-14
  70
    32
  0
VERTEX
  8
0
  5
14006
 10
339.672
 20
-59.9178
 30
7.83145e-14
  70
    32
  0
VERTEX
  8
0
  5
14007
 10
339.665
 20
-59.9198
 30
7.83131e-14
  70
    32
  0
VERTEX
  8
0
  5
14008
 10
339.658
 20
-59.9218
 30
7.83117e-14
  70
    32
  0
VERTEX
  8
0
  5
14009
 10
339.651
 20
-59.9238
 30
7.83103e-14
  70
    32
  0
VERTEX
  8
0
  5
1400A
 10
339.644
 20
-59.9257
 30
7.83089e-14
  70
    32
  0
VERTEX
  8
0
  5
1400B
 10
339.637
 20
-59.9277
 30
7.83075e-14
  70
    32
  0
VERTEX
  8
0
  5
1400C
 10
339.630
 20
-59.9296
 30
7.83061e-14
  70
    32
  0
VERTEX
  8
0
  5
1400D
 10
339.623
 20
-59.9315
 30
7.83047e-14
  70
    32
  0
VERTEX
  8
0
  5
1400E
 10
339.616
 20
-59.9333
 30
7.83033e-14
  70
    32
  0
VERTEX
  8
0
  5
1400F
 10
339.609
 20
-59.9352
 30
7.83019e-14
  70
    32
  0
VERTEX
  8
0
  5
14010
 10
339.602
 20
-59.9370
 30
7.83005e-14
  70
    32
  0
VERTEX
  8
0
  5
14011
 10
339.595
 20
-59.9387
 30
7.82991e-14
  70
    32
  0
VERTEX
  8
0
  5
14012
 10
339.588
 20
-59.9405
 30
7.82976e-14
  70
    32
  0
VERTEX
  8
0
  5
14013
 10
339.581
 20
-59.9422
 30
7.82962e-14
  70
    32
  0
VERTEX
  8
0
  5
14014
 10
339.574
 20
-59.9439
 30
7.82948e-14
  70
    32
  0
VERTEX
  8
0
  5
14015
 10
339.567
 20
-59.9456
 30
7.82934e-14
  70
    32
  0
VERTEX
  8
0
  5
14016
 10
339.559
 20
-59.9473
 30
7.82920e-14
  70
    32
  0
VERTEX
  8
0
  5
14017
 10
339.552
 20
-59.9489
 30
7.82906e-14
  70
    32
  0
VERTEX
  8
0
  5
14018
 10
339.545
 20
-59.9505
 30
7.82891e-14
  70
    32
  0
VERTEX
  8
0
  5
14019
 10
339.538
 20
-59.9521
 30
7.82877e-14
  70
    32
  0
VERTEX
  8
0
  5
1401A
 10
339.531
 20
-59.9536
 30
7.82863e-14
  70
    32
  0
VERTEX
  8
0
  5
1401B
 10
339.524
 20
-59.9552
 30
7.82849e-14
  70
    32
  0
VERTEX
  8
0
  5
1401C
 10
339.517
 20
-59.9567
 30
7.82835e-14
  70
    32
  0
VERTEX
  8
0
  5
1401D
 10
339.510
 20
-59.9581
 30
7.82820e-14
  70
    32
  0
VERTEX
  8
0
  5
1401E
 10
339.503
 20
-59.9596
 30
7.82806e-14
  70
    32
  0
VERTEX
  8
0
  5
1401F
 10
339.496
 20
-59.9610
 30
7.82792e-14
  70
    32
  0
VERTEX
  8
0
  5
14020
 10
339.488
 20
-59.9624
 30
7.82778e-14
  70
    32
  0
VERTEX
  8
0
  5
14021
 10
339.481
 20
-59.9638
 30
7.82763e-14
  70
    32
  0
VERTEX
  8
0
  5
14022
 10
339.474
 20
-59.9651
 30
7.82749e-14
  70
    32
  0
VERTEX
  8
0
  5
14023
 10
339.467
 20
-59.9665
 30
7.82735e-14
  70
    32
  0
VERTEX
  8
0
  5
14024
 10
339.460
 20
-59.9678
 30
7.82721e-14
  70
    32
  0
VERTEX
  8
0
  5
14025
 10
339.453
 20
-59.9690
 30
7.82706e-14
  70
    32
  0
VERTEX
  8
0
  5
14026
 10
339.446
 20
-59.9703
 30
7.82692e-14
  70
    32
  0
VERTEX
  8
0
  5
14027
 10
339.438
 20
-59.9715
 30
7.82678e-14
  70
    32
  0
VERTEX
  8
0
  5
14028
 10
339.431
 20
-59.9727
 30
7.82663e-14
  70
    32
  0
VERTEX
  8
0
  5
14029
 10
339.424
 20
-59.9739
 30
7.82649e-14
  70
    32
  0
VERTEX
  8
0
  5
1402A
 10
339.417
 20
-59.9750
 30
7.82635e-14
  70
    32
  0
VERTEX
  8
0
  5
1402B
 10
339.410
 20
-59.9761
 30
7.82620e-14
  70
    32
  0
VERTEX
  8
0
  5
1402C
 10
339.403
 20
-59.9772
 30
7.82606e-14
  70
    32
  0
VERTEX
  8
0
  5
1402D
 10
339.395
 20
-59.9783
 30
7.82592e-14
  70
    32
  0
VERTEX
  8
0
  5
1402E
 10
339.388
 20
-59.9794
 30
7.82577e-14
  70
    32
  0
VERTEX
  8
0
  5
1402F
 10
339.381
 20
-59.9804
 30
7.82563e-14
  70
    32
  0
VERTEX
  8
0
  5
14030
 10
339.374
 20
-59.9814
 30
7.82549e-14
  70
    32
  0
VERTEX
  8
0
  5
14031
 10
339.367
 20
-59.9823
 30
7.82534e-14
  70
    32
  0
VERTEX
  8
0
  5
14032
 10
339.360
 20
-59.9833
 30
7.82520e-14
  70
    32
  0
VERTEX
  8
0
  5
14033
 10
339.352
 20
-59.9842
 30
7.82506e-14
  70
    32
  0
VERTEX
  8
0
  5
14034
 10
339.345
 20
-59.9851
 30
7.82491e-14
  70
    32
  0
VERTEX
  8
0
  5
14035
 10
339.338
 20
-59.9859
 30
7.82477e-14
  70
    32
  0
VERTEX
  8
0
  5
14036
 10
339.331
 20
-59.9868
 30
7.82462e-14
  70
    32
  0
VERTEX
  8
0
  5
14037
 10
339.324
 20
-59.9876
 30
7.82448e-14
  70
    32
  0
VERTEX
  8
0
  5
14038
 10
339.316
 20
-59.9884
 30
7.82434e-14
  70
    32
  0
VERTEX
  8
0
  5
14039
 10
339.309
 20
-59.9891
 30
7.82419e-14
  70
    32
  0
VERTEX
  8
0
  5
1403A
 10
339.302
 20
-59.9899
 30
7.82405e-14
  70
    32
  0
VERTEX
  8
0
  5
1403B
 10
339.295
 20
-59.9906
 30
7.82390e-14
  70
    32
  0
VERTEX
  8
0
  5
1403C
 10
339.288
 20
-59.9913
 30
7.82376e-14
  70
    32
  0
VERTEX
  8
0
  5
1403D
 10
339.280
 20
-59.9919
 30
7.82361e-14
  70
    32
  0
VERTEX
  8
0
  5
1403E
 10
339.273
 20
-59.9926
 30
7.82347e-14
  70
    32
  0
VERTEX
  8
0
  5
1403F
 10
339.266
 20
-59.9932
 30
7.82333e-14
  70
    32
  0
VERTEX
  8
0
  5
14040
 10
339.259
 20
-59.9937
 30
7.82318e-14
  70
    32
  0
VERTEX
  8
0
  5
14041
 10
339.251
 20
-59.9943
 30
7.82304e-14
  70
    32
  0
VERTEX
  8
0
  5
14042
 10
339.244
 20
-59.9948
 30
7.82289e-14
  70
    32
  0
VERTEX
  8
0
  5
14043
 10
339.237
 20
-59.9953
 30
7.82275e-14
  70
    32
  0
VERTEX
  8
0
  5
14044
 10
339.230
 20
-59.9958
 30
7.82260e-14
  70
    32
  0
VERTEX
  8
0
  5
14045
 10
339.223
 20
-59.9963
 30
7.82246e-14
  70
    32
  0
VERTEX
  8
0
  5
14046
 10
339.215
 20
-59.9967
 30
7.82231e-14
  70
    32
  0
VERTEX
  8
0
  5
14047
 10
339.208
 20
-59.9971
 30
7.82217e-14
  70
    32
  0
VERTEX
  8
0
  5
14048
 10
339.201
 20
-59.9975
 30
7.82203e-14
  70
    32
  0
VERTEX
  8
0
  5
14049
 10
339.194
 20
-59.9978
 30
7.82188e-14
  70
    32
  0
VERTEX
  8
0
  5
1404A
 10
339.186
 20
-59.9981
 30
7.82174e-14
  70
    32
  0
VERTEX
  8
0
  5
1404B
 10
339.179
 20
-59.9984
 30
7.82159e-14
  70
    32
  0
VERTEX
  8
0
  5
1404C
 10
339.172
 20
-59.9987
 30
7.82145e-14
  70
    32
  0
VERTEX
  8
0
  5
1404D
 10
339.165
 20
-59.9990
 30
7.82130e-14
  70
    32
  0
VERTEX
  8
0
  5
1404E
 10
339.157
 20
-59.9992
 30
7.82116e-14
  70
    32
  0
VERTEX
  8
0
  5
1404F
 10
339.150
 20
-59.9994
 30
7.82101e-14
  70
    32
  0
VERTEX
  8
0
  5
14050
 10
339.143
 20
-59.9995
 30
7.82087e-14
  70
    32
  0
VERTEX
  8
0
  5
14051
 10
339.136
 20
-59.9997
 30
7.82072e-14
  70
    32
  0
VERTEX
  8
0
  5
14052
 10
339.129
 20
-59.9998
 30
7.82058e-14
  70
    32
  0
VERTEX
  8
0
  5
14053
 10
339.121
 20
-59.9999
 30
7.82043e-14
  70
    32
  0
VERTEX
  8
0
  5
14054
 10
339.114
 20
-59.9999
 30
7.82029e-14
  70
    32
  0
VERTEX
  8
0
  5
14055
 10
339.107
 20
-60.0000
 30
7.82014e-14
  70
    32
  0
VERTEX
  8
0
  5
14056
 10
339.100
 20
-60.0000
 30
7.82000e-14
  70
    32
  0
SEQEND
  8
0
  5
14057
  0
LINE
  5
13CE3
  8
0
  6
CONTINUOUS
 62
     3
 10
288.2317407897149906
 20
-59.9999999999995168
 30
0.0000000000000666
 11
288.9748856151921927
 21
-59.999999999999531
 31
0.0000000000000668
  0
LINE
  5
13CE4
  8
0
  6
CONTINUOUS
 62
     3
 10
288.2317407897149906
 20
-59.9999999999995168
 30
0.0000000000000666
 11
282.7317407897157864
 21
-59.999999999999531
 31
0.0000000000000653
  0
LINE
  5
13CE5
  8
0
  6
CONTINUOUS
 62
     3
 10
91.5707106781186155
 20
-59.9999999999994884
 30
0.0000000000000213
 11
99.7499999999986215
 21
-59.9999999999994884
 31
0.0000000000000232
  0
LINE
  5
13CE6
  8
0
  6
CONTINUOUS
 62
     3
 10
171.2426406871194899
 20
-59.999999999999531
 30
0.0000000000000395
 11
169.1213203435598871
 21
-59.9999999999995168
 31
0.0000000000000391
  0
LINE
  5
13CE7
  8
0
  6
CONTINUOUS
 62
     3
 10
169.1213203435598871
 20
-60.0000000000004619
 30
0.0000000000000391
 11
110.2928932188133047
 21
-59.9999999999999574
 31
0.0000000000000249
  0
LINE
  5
13CE8
  8
0
  6
CONTINUOUS
 62
     3
 10
109.585786437626993
 20
-59.9999999999994813
 30
0.0000000000000284
 11
110.2928932188132052
 21
-59.9999999999994884
 31
0.0000000000000284
  0
LINE
  5
13CE9
  8
0
  6
CONTINUOUS
 62
     3
 10
101.7499999999985931
 20
-59.9999999999994884
 30
0.0000000000000213
 11
109.585786437626993
 21
-59.9999999999994884
 31
0.0000000000000231
  0
LINE
  5
13CEA
  8
0
  6
CONTINUOUS
 62
     3
 10
91.5707106781186155
 20
-59.2499999999992895
 30
0.0000000000000213
 11
91.5707106781186155
 21
-59.9999999999994884
 31
0.0000000000000213
  0
LINE
  5
13CEB
  8
0
  6
CONTINUOUS
 62
     3
 10
91.5707106781186866
 20
59.25000000000054
 30
0.0000000000000213
 11
91.5707106781186866
 21
59.9999999999995168
 31
0.0000000000000213
  0
LINE
  5
13CEC
  8
0
  6
VERDECKT
 62
     1
 10
185.2426406871194899
 20
59.2499999999999716
 30
0.0000000000000429
 11
187.2426406871194899
 21
59.2499999999999716
 31
0.0000000000000433
  0
LINE
  5
13CED
  8
0
  6
VERDECKT
 62
     1
 10
187.2426406871194899
 20
-59.2500000000000426
 30
0.0000000000000433
 11
185.2426406871194899
 21
-59.2500000000000426
 31
0.0000000000000428
  0
LINE
  5
13CEE
  8
0
  6
VERDECKT
 62
     1
 10
0.5071419140887038
 20
-53.2000000000002515
 30
0.0000000000000001
 11
0.5071419140887357
 21
0.0000000000000071
 31
0.0
  0
LINE
  5
13CEF
  8
0
  6
VERDECKT
 62
     1
 10
0.5071419140887357
 20
0.0000000000000164
 30
0.0
 11
0.5071419140887365
 21
53.20000000000028
 31
0.0000000000000001
  0
LINE
  5
13CF0
  8
0
  6
VERDECKT
 62
     1
 10
74.387545369576344
 20
49.6000000000003567
 30
0.0000000000000172
 11
90.0
 21
49.6000000000003567
 31
0.0000000000000208
  0
LINE
  5
13CF1
  8
0
  6
VERDECKT
 62
     1
 10
74.387545369576344
 20
-49.6000000000003567
 30
0.0000000000000172
 11
90.0
 21
-49.6000000000003567
 31
0.0000000000000208
  0
LINE
  5
13CF2
  8
0
  6
VERDECKT
 62
     1
 10
0.507141914088717
 20
-53.2000000000002586
 30
0.0000000000000001
 11
-0.000000000000117
 21
-54.287569344444357
 31
0.0
  0
LINE
  5
13CF3
  8
0
  6
VERDECKT
 62
     1
 10
0.5071419140887234
 20
53.20000000000028
 30
0.0000000000000001
 11
-0.0000000000001104
 21
54.2875693444443712
 31
0.0
  0
LINE
  5
13CF4
  8
0
  6
VERDECKT
 62
     1
 10
0.5071419140887745
 20
53.2000000000001805
 30
0.0000000000000001
 11
3.3916733566237012
 21
54.5450791018430365
 31
0.0000000000000008
  0
LINE
  5
13CF5
  8
0
  6
VERDECKT
 62
     1
 10
0.5071419140887679
 20
-53.2000000000001592
 30
0.0000000000000001
 11
3.3916733566236941
 21
-54.5450791018430294
 31
0.0000000000000008
  0
ARC
  5
13CF6
  8
0
  6
VERDECKT
 62
     1
 10
13.1118933766592995
 20
-33.7000000000008626
 30
0.000000000000003
 40
22.99999999999919
 50
244.9999999999988916
 51
270.0
  0
ARC
  5
13CF7
  8
0
  6
VERDECKT
 62
     1
 10
13.1118933766592498
 20
33.7000000000011397
 30
0.000000000000003
 40
22.99999999999892
 50
89.9999999999984936
 51
114.9999999999999005
  0
LINE
  5
13CF8
  8
0
  6
VERDECKT
 62
     1
 10
13.1118933766598502
 20
56.7000000000000526
 30
0.000000000000003
 11
27.7670000000000599
 21
56.7000000000000526
 31
0.0000000000000064
  0
LINE
  5
13CF9
  8
0
  6
VERDECKT
 62
     1
 10
13.1118933766598396
 20
-56.7000000000000384
 30
0.000000000000003
 11
27.7670000000000492
 21
-56.7000000000000384
 31
0.0000000000000064
  0
ARC
  5
13CFA
  8
0
  6
VERDECKT
 62
     1
 10
27.7670000000012998
 20
-33.7000000000034632
 30
0.0000000000000064
 40
22.9999999999963585
 50
269.9999999999968736
 51
296.88804761772451
  0
ARC
  5
13CFB
  8
0
  6
VERDECKT
 62
     1
 10
27.7670000000012891
 20
33.7000000000033282
 30
0.0000000000000064
 40
22.9999999999964899
 50
63.1119523822755824
 51
90.0000000000030838
  0
ARC
  5
13CFC
  8
0
  6
VERDECKT
 62
     1
 10
44.5002005306810915
 20
-66.6999999999983544
 30
0.0000000000000103
 40
13.9999999999983196
 50
89.999999999998451
 51
116.8880476177263006
  0
ARC
  5
13CFD
  8
0
  6
VERDECKT
 62
     1
 10
44.5002005306811412
 20
66.6999999999984965
 30
0.0000000000000103
 40
13.9999999999984599
 50
243.1119523822723067
 51
270.0
  0
LINE
  5
13CFE
  8
0
  6
VERDECKT
 62
     1
 10
44.500200530681461
 20
52.7000000000000526
 30
0.0000000000000103
 11
63.0725111230523225
 21
52.7000000000000526
 31
0.0000000000000146
  0
LINE
  5
13CFF
  8
0
  6
VERDECKT
 62
     1
 10
44.500200530681461
 20
-52.7000000000000384
 30
0.0000000000000103
 11
63.0725111230523225
 21
-52.7000000000000384
 31
0.0000000000000146
  0
ARC
  5
13D00
  8
0
  6
VERDECKT
 62
     1
 10
63.0725111230536228
 20
-39.7000000000002018
 30
0.0000000000000146
 40
12.9999999999998401
 50
269.9999999999943157
 51
300.642931762933074
  0
ARC
  5
13D01
  8
0
  6
VERDECKT
 62
     1
 10
63.0725111230535589
 20
39.7000000000000171
 30
0.0000000000000146
 40
13.0000000000000302
 50
59.3570682370671321
 51
90.0000000000054285
  0
ARC
  5
13D02
  8
0
  6
VERDECKT
 62
     1
 10
74.3875453695761735
 20
-58.7999999999992724
 30
0.0000000000000172
 40
9.1999999999989068
 50
89.9999999999989342
 51
120.642931762941501
  0
ARC
  5
13D03
  8
0
  6
VERDECKT
 62
     1
 10
74.3875453695761593
 20
58.7999999999992085
 30
0.0000000000000172
 40
9.1999999999988447
 50
239.3570682370570921
 51
270.0
  0
LINE
  5
13D04
  8
0
  6
VERDECKT
 62
     1
 10
91.5
 20
33.7499999999991971
 30
0.0000000000000213
 11
91.4999999999999858
 21
-33.7500000000008029
 31
0.0000000000000213
  0
LINE
  5
13D05
  8
0
  6
VERDECKT
 62
     1
 10
91.4999999999999858
 20
-58.4292893218814982
 30
0.0000000000000213
 11
90.7500000000000142
 21
-58.4292893218814982
 31
0.0000000000000211
  0
LINE
  5
13D06
  8
0
  6
VERDECKT
 62
     1
 10
91.4999999999999858
 20
-36.7500000000008029
 30
0.0000000000000213
 11
91.4999999999999858
 21
-58.4292893218814982
 31
0.0000000000000213
  0
LINE
  5
13D07
  8
0
  6
VERDECKT
 62
     1
 10
91.5000000000000142
 20
58.4292893218808729
 30
0.0000000000000213
 11
91.5000000000000142
 21
36.7499999999992113
 31
0.0000000000000213
  0
LINE
  5
13D08
  8
0
  6
VERDECKT
 62
     1
 10
91.5000000000000142
 20
58.4292893218808729
 30
0.0000000000000213
 11
90.7500000000000142
 21
58.4292893218808729
 31
0.0000000000000211
  0
LINE
  5
13D09
  8
0
  6
VERDECKT
 62
     1
 10
99.2499999999999858
 20
58.4999999999995168
 30
0.0000000000000213
 11
91.570710678118715
 21
58.4999999999995168
 31
0.0000000000000195
  0
LINE
  5
13D0A
  8
0
  6
VERDECKT
 62
     1
 10
288.2317407897149906
 20
58.4999999999995026
 30
0.0000000000000666
 11
288.2338274840460031
 21
58.4999999999995026
 31
0.0000000000000666
  0
LINE
  5
13D0B
  8
0
  6
VERDECKT
 62
     1
 10
288.2317407897149906
 20
58.4999999999995097
 30
0.0000000000000666
 11
283.2317407897153885
 21
58.4999999999995097
 31
0.0000000000000655
  0
LINE
  5
13D0C
  8
0
  6
VERDECKT
 62
     1
 10
280.2317407897152748
 20
58.4999999999995381
 30
0.0000000000000648
 11
188.7426406871196036
 21
58.499999999999531
 31
0.0000000000000437
  0
LINE
  5
13D0D
  8
0
  6
VERDECKT
 62
     1
 10
183.7426406871196036
 20
58.499999999999531
 30
0.0000000000000424
 11
171.2426406871196036
 21
58.499999999999531
 31
0.0000000000000395
  0
LINE
  5
13D0E
  8
0
  6
VERDECKT
 62
     1
 10
171.2426406871196036
 20
58.4999999999995524
 30
0.0000000000000395
 11
169.1213203435600008
 21
58.4999999999995524
 31
0.0000000000000391
  0
LINE
  5
13D0F
  8
0
  6
VERDECKT
 62
     1
 10
169.1213203435600008
 20
58.4999999999995524
 30
0.0000000000000391
 11
110.2928932188133047
 21
58.4999999999995524
 31
0.0000000000000249
  0
LINE
  5
13D10
  8
0
  6
VERDECKT
 62
     1
 10
109.5857864376268935
 20
58.5000000000000426
 30
0.0000000000000284
 11
110.2928932188133047
 21
58.5000000000000426
 31
0.0000000000000284
  0
LINE
  5
13D11
  8
0
  6
VERDECKT
 62
     1
 10
109.5857864376268935
 20
58.4999999999995168
 30
0.0000000000000284
 11
102.25
 21
58.4999999999995168
 31
0.0000000000000267
  0
LINE
  5
13D12
  8
0
  6
VERDECKT
 62
     1
 10
102.25
 20
-58.4999999999995026
 30
0.0000000000000213
 11
109.585786437626993
 21
-58.4999999999995026
 31
0.000000000000023
  0
LINE
  5
13D13
  8
0
  6
VERDECKT
 62
     1
 10
110.2928932188132052
 20
-58.4999999999995026
 30
0.0000000000000284
 11
109.585786437626993
 21
-58.4999999999994884
 31
0.0000000000000284
  0
LINE
  5
13D14
  8
0
  6
VERDECKT
 62
     1
 10
110.2928932188133047
 20
-58.4999999999999716
 30
0.0000000000000284
 11
169.1213203435600008
 21
-58.500000000000469
 31
0.0000000000000426
  0
LINE
  5
13D15
  8
0
  6
VERDECKT
 62
     1
 10
169.1213203435598871
 20
-58.499999999999531
 30
0.0000000000000391
 11
171.2426406871196036
 21
-58.4999999999995381
 31
0.0000000000000395
  0
LINE
  5
13D16
  8
0
  6
VERDECKT
 62
     1
 10
171.2426406871194899
 20
-58.499999999999531
 30
0.0000000000000395
 11
183.7426406871194899
 21
-58.499999999999531
 31
0.0000000000000424
  0
LINE
  5
13D17
  8
0
  6
VERDECKT
 62
     1
 10
188.7426406871194899
 20
-58.4999999999995524
 30
0.0000000000000435
 11
280.2317407897152179
 21
-58.4999999999995524
 31
0.0000000000000647
  0
LINE
  5
13D18
  8
0
  6
VERDECKT
 62
     1
 10
283.2317407897152179
 20
-58.4999999999995524
 30
0.0000000000000655
 11
288.2317407897149906
 21
-58.499999999999531
 31
0.0000000000000667
  0
LINE
  5
13D19
  8
0
  6
VERDECKT
 62
     1
 10
288.2338274840460031
 20
-58.499999999999531
 30
0.0000000000000666
 11
288.2317407897149906
 21
-58.499999999999531
 31
0.0000000000000666
  0
LINE
  5
13D1A
  8
0
  6
VERDECKT
 62
     1
 10
91.5707106781186155
 20
-58.4999999999995026
 30
0.0000000000000213
 11
99.25
 21
-58.4999999999995026
 31
0.0000000000000231
  0
LINE
  5
13D1B
  8
0
  6
VERDECKT
 62
     1
 10
91.5707106781186155
 20
-58.4999999999995026
 30
0.0000000000000213
 11
91.5707106781186155
 21
-59.2499999999992895
 31
0.0000000000000213
  0
LINE
  5
13D1C
  8
0
  6
VERDECKT
 62
     1
 10
91.5707106781186866
 20
58.4999999999995168
 30
0.0000000000000213
 11
91.5707106781186866
 21
59.25000000000054
 31
0.0000000000000213
  0
LINE
  5
13D1D
  8
0
  6
VERDECKT
 62
     1
 10
92.4999999999999574
 20
-57.5000000000004832
 30
0.0000000000000213
 11
92.4999999999999574
 21
-58.5000000000004903
 31
0.0000000000000213
  0
LINE
  5
13D1E
  8
0
  6
VERDECKT
 62
     1
 10
92.4999999999999858
 20
58.4999999999995097
 30
0.0000000000000213
 11
92.4999999999999858
 21
59.9999999999995168
 31
0.0000000000000213
  0
LINE
  5
13D1F
  8
0
  6
VERDECKT
 62
     1
 10
92.4999999999999858
 20
57.4999999999995168
 30
0.0000000000000213
 11
92.4999999999999858
 21
58.4999999999995097
 31
0.0000000000000213
  0
LINE
  5
13D20
  8
0
  6
VERDECKT
 62
     1
 10
92.4999999999999432
 20
-58.5000000000004974
 30
0.0000000000000213
 11
92.4999999999999432
 21
-60.0000000000004832
 31
0.0000000000000213
  0
LINE
  5
13D21
  8
0
  6
VERDECKT
 62
     1
 10
91.4999999999999432
 20
-57.5000000000004832
 30
0.0000000000000213
 11
89.9999999999999432
 21
-57.5000000000004832
 31
0.000000000000021
  0
LINE
  5
13D22
  8
0
  6
VERDECKT
 62
     1
 10
92.4999999999999858
 20
-57.5000000000004832
 30
0.0000000000000213
 11
91.4999999999999574
 21
-57.5000000000004832
 31
0.0000000000000213
  0
LINE
  5
13D23
  8
0
  6
VERDECKT
 62
     1
 10
91.4999999999999574
 20
57.4999999999995168
 30
0.0000000000000213
 11
89.9999999999999858
 21
57.4999999999995168
 31
0.000000000000021
  0
LINE
  5
13D24
  8
0
  6
VERDECKT
 62
     1
 10
92.4999999999999858
 20
57.4999999999995168
 30
0.0000000000000213
 11
91.4999999999999574
 21
57.4999999999995168
 31
0.0000000000000213
  0
LINE
  5
13D25
  8
0
  6
VERDECKT
 62
     1
 10
91.4999999999999574
 20
-49.5999999999999872
 30
0.0000000000000211
 11
89.9999999999999858
 21
-49.5999999999999872
 31
0.0000000000000208
  0
LINE
  5
13D26
  8
0
  6
VERDECKT
 62
     1
 10
91.4999999999999858
 20
49.6000000000000227
 30
0.0000000000000211
 11
90.0
 21
49.6000000000000227
 31
0.0000000000000208
  0
ENDBLK
  5
13D28
  8
0
  0
BLOCK
  8
0
  2
A$C61C65417
 70
     0
 10
0.0
 20
0.0
 30
0.0
  3
A$C61C65417
  1

  0
LINE
  5
13D2C
  8
0
  6
CONTINUOUS
 62
     3
 10
99.2499999999999716
 20
60.0000000000000497
 30
-0.0000000000000133
 11
90.7499999999999716
 21
60.0000000000000497
 31
-0.0000000000000133
210
0.0
220
1.0
230
-0.0000000000000002
  0
LINE
  5
13D2D
  8
0
  6
CONTINUOUS
 62
     3
 10
99.2499999999999716
 20
60.0000000000000426
 30
-0.0000000000000133
 11
99.7499999999985931
 21
60.0000000000000426
 31
-0.0000000000000133
210
0.0
220
1.0
230
-0.0000000000000002
  0
LINE
  5
13D2E
  8
0
  6
CONTINUOUS
 62
     3
 10
101.7499999999985931
 20
60.0000000000000426
 30
-0.0000000000000133
 11
102.2499999999999005
 21
60.0000000000000426
 31
-0.0000000000000133
210
0.0
220
1.0
230
-0.0000000000000002
  0
LINE
  5
13D2F
  8
0
  6
CONTINUOUS
 62
     3
 10
109.5854660940672005
 20
60.0000000000000497
 30
-0.0000000000000133
 11
102.2499999999999005
 21
60.0000000000000497
 31
-0.0000000000000133
210
0.0
220
1.0
230
-0.0000000000000002
  0
LINE
  5
13D30
  8
0
  6
CONTINUOUS
 62
     3
 10
90.7499999999999716
 20
58.5000000000000426
 30
-0.000000000000013
 11
90.7499999999999716
 21
60.0000000000000497
 31
-0.0000000000000133
210
0.0
220
1.0
230
-0.0000000000000002
  0
LINE
  5
13D31
  8
0
  6
CONTINUOUS
 62
     3
 10
183.7426406871196036
 20
-0.0041478276064666
 30
0.0
 11
185.2426406871194899
 21
-0.0041478276064524
 31
0.0
210
0.0
220
1.0
230
-0.0000000000000002
  0
LINE
  5
13D32
  8
0
  6
CONTINUOUS
 62
     3
 10
187.2426406871194899
 20
-0.0041478276064311
 30
0.0
 11
188.7426406871196036
 21
-0.0041478276064169
 31
0.0
210
0.0
220
1.0
230
-0.0000000000000002
  0
LINE
  5
13D33
  8
0
  6
CONTINUOUS
 62
     3
 10
188.7426406871194899
 20
-0.0041478276065021
 30
0.0
 11
188.7426406871194899
 21
-1.4999999999999929
 31
0.0000000000000003
210
0.0
220
1.0
230
-0.0000000000000002
  0
LINE
  5
13D34
  8
0
  6
CONTINUOUS
 62
     3
 10
183.7426406871194899
 20
-1.4999999999999929
 30
0.0000000000000003
 11
183.7426406871194899
 21
-0.004147827606559
 31
0.0
210
0.0
220
1.0
230
-0.0000000000000002
  0
LINE
  5
13D35
  8
0
  6
CONTINUOUS
 62
     3
 10
183.7426406871196036
 20
-0.004147827606559
 30
0.0
 11
171.0393613899786942
 21
-0.0041478276067153
 31
0.0
210
0.0
220
1.0
230
-0.0000000000000002
  0
LINE
  5
13D36
  8
0
  6
CONTINUOUS
 62
     3
 10
280.2317407897152748
 20
-0.004147827605415
 30
0.0
 11
188.7426406871196036
 21
-0.0041478276065021
 31
0.0
210
0.0
220
1.0
230
-0.0000000000000002
  0
LINE
  5
13D37
  8
0
  6
CONTINUOUS
 62
     3
 10
280.2317407897152748
 20
-0.0041478276055784
 30
0.0
 11
280.7317407897157864
 21
-0.0041478276055784
 31
0.0
210
0.0
220
1.0
230
-0.0000000000000002
  0
LINE
  5
13D38
  8
0
  6
CONTINUOUS
 62
     3
 10
282.7317407897157864
 20
-0.0041478276055571
 30
0.0
 11
283.2317407897153885
 21
-0.0041478276055571
 31
0.0
210
0.0
220
1.0
230
-0.0000000000000002
  0
LINE
  5
13D39
  8
0
  6
CONTINUOUS
 62
     3
 10
288.2338274840460031
 20
-0.0041478276053226
 30
0.0
 11
283.2317407897152179
 21
-0.0041478276053795
 31
0.0
210
0.0
220
1.0
230
-0.0000000000000002
  0
LINE
  5
13D3A
  8
0
  6
CONTINUOUS
 62
     3
 10
102.2499999999999005
 20
60.0000000000000497
 30
-0.0000000000000133
 11
102.2499999999999005
 21
58.4999999999979394
 31
-0.000000000000013
210
0.0
220
1.0
230
-0.0000000000000002
  0
LINE
  5
13D3B
  8
0
  6
CONTINUOUS
 62
     3
 10
99.2499999999999716
 20
58.4999999999979465
 30
-0.000000000000013
 11
99.2499999999999716
 21
60.0000000000000568
 31
-0.0000000000000133
210
0.0
220
1.0
230
-0.0000000000000002
  0
ARC
  5
13D3C
  8
0
  6
CONTINUOUS
 62
     3
 10
-171.0393613899786942
 20
0.9958521723939883
 30
0.0
 40
0.9999999999999502
210
0.0
220
-0.0000000000000002
230
-1.0
 50
269.9999999999997726
 51
314.9999999999977831
  0
ARC
  5
13D3D
  8
0
  6
CONTINUOUS
 62
     3
 10
109.5854660940672005
 20
57.5000000000000284
 30
-0.0000000000000128
 40
2.5000000000000111
 50
45.0000000000011511
 51
89.9999999999999432
  0
LINE
  5
13D3E
  8
0
  6
CONTINUOUS
 62
     3
 10
170.3322546087923115
 20
0.2887453912074563
 30
-0.0000000000000001
 11
111.3532330470335978
 21
59.2677669529664328
 31
-0.0000000000000132
210
0.0
220
1.0
230
-0.0000000000000002
  0
LINE
  5
13D3F
  8
0
  6
CONTINUOUS
 62
     3
 10
90.7499999999999716
 20
58.5000000000000426
 30
-0.000000000000013
 11
91.5707106781186155
 21
58.5000000000000426
 31
-0.000000000000013
210
0.0
220
1.0
230
-0.0000000000000002
  0
LINE
  5
13D40
  8
0
  6
CONTINUOUS
 62
     3
 10
283.2317407897152179
 20
-0.00414782760555
 30
0.0
 11
283.2317407897152179
 21
-1.4999999999999929
 31
0.0000000000000003
210
0.0
220
1.0
230
-0.0000000000000002
  0
LINE
  5
13D41
  8
0
  6
CONTINUOUS
 62
     3
 10
288.2338274840460031
 20
-0.0041478276054718
 30
0.0
 11
288.2338274840460031
 21
-1.5000021771489711
 31
0.0000000000000003
210
0.0
220
1.0
230
-0.0000000000000002
  0
LINE
  5
13D42
  8
0
  6
CONTINUOUS
 62
     3
 10
280.2317407897152179
 20
-1.4999999999999929
 30
0.0000000000000003
 11
280.2317407897152179
 21
-0.0041478276055784
 31
0.0
210
0.0
220
1.0
230
-0.0000000000000002
  0
LINE
  5
13D43
  8
0
  6
CONTINUOUS
 62
     3
 10
-0.000000000000117
 20
-54.2875693444444707
 30
0.0000000000000121
 11
-0.0000000000001104
 21
54.2875693444442931
 31
-0.0000000000000121
210
0.0
220
1.0
230
-0.0000000000000002
  0
LINE
  5
13D44
  8
0
  6
CONTINUOUS
 62
     3
 10
74.387545369579982
 20
50.7999999999998835
 30
-0.0000000000000113
 11
90.0
 21
50.7999999999998835
 31
-0.0000000000000113
210
0.0
220
1.0
230
-0.0000000000000002
  0
LINE
  5
13D45
  8
0
  6
CONTINUOUS
 62
     3
 10
74.387545369579982
 20
-50.8000000000000469
 30
0.0000000000000113
 11
90.0
 21
-50.8000000000000469
 31
0.0000000000000113
210
0.0
220
1.0
230
-0.0000000000000002
  0
LINE
  5
13D46
  8
0
  6
CONTINUOUS
 62
     3
 10
44.500200530681461
 20
53.8999999999997925
 30
-0.000000000000012
 11
63.0725111230523225
 21
53.8999999999997925
 31
-0.000000000000012
210
0.0
220
1.0
230
-0.0000000000000002
  0
LINE
  5
13D47
  8
0
  6
CONTINUOUS
 62
     3
 10
44.500200530681461
 20
-53.8999999999999702
 30
0.000000000000012
 11
63.0725111230523225
 21
-53.8999999999999702
 31
0.000000000000012
210
0.0
220
1.0
230
-0.0000000000000002
  0
ARC
  5
13D48
  8
0
  6
CONTINUOUS
 62
     3
 10
-44.5002005306812478
 20
-66.7000000000015945
 30
0.0
 40
12.8000000000014005
210
0.0
220
-0.0000000000000002
230
-1.0
 50
63.1119523822808404
 51
90.0000000000009521
  0
ARC
  5
13D49
  8
0
  6
CONTINUOUS
 62
     3
 10
-44.5002005306812194
 20
66.7000000000012534
 30
0.0
 40
12.8000000000012495
210
0.0
220
-0.0000000000000002
230
-1.0
 50
270.0
 51
296.8880476177204741
  0
ARC
  5
13D4A
  8
0
  6
CONTINUOUS
 62
     3
 10
-27.7669999999995802
 20
-33.699999999998731
 30
0.0
 40
24.2000000000012214
210
0.0
220
-0.0000000000000002
230
-1.0
 50
243.1119523822760868
 51
269.99999999999892
  0
ARC
  5
13D4B
  8
0
  6
CONTINUOUS
 62
     3
 10
-27.7669999999995802
 20
33.6999999999985178
 30
0.0
 40
24.2000000000012712
210
0.0
220
-0.0000000000000002
230
-1.0
 50
90.0000000000011084
 51
116.8880476177237995
  0
LINE
  5
13D4C
  8
0
  6
CONTINUOUS
 62
     3
 10
13.1118933766598502
 20
57.9000000000000199
 30
-0.0000000000000129
 11
27.7670000000000492
 21
57.9000000000000199
 31
-0.0000000000000129
210
0.0
220
1.0
230
-0.0000000000000002
  0
LINE
  5
13D4D
  8
0
  6
CONTINUOUS
 62
     3
 10
13.1118933766598396
 20
-57.9000000000001904
 30
0.0000000000000129
 11
27.7670000000000492
 21
-57.9000000000001904
 31
0.0000000000000129
210
0.0
220
1.0
230
-0.0000000000000002
  0
ARC
  5
13D4E
  8
0
  6
CONTINUOUS
 62
     3
 10
-13.1118933766599408
 20
-33.6999999999995694
 30
0.0
 40
24.2000000000008413
210
0.0
220
-0.0000000000000002
230
-1.0
 50
270.0000000000002274
 51
294.9999999999994884
  0
ARC
  5
13D4F
  8
0
  6
CONTINUOUS
 62
     3
 10
-13.1118933766599604
 20
33.6999999999992568
 30
0.0
 40
24.2000000000009905
210
0.0
220
-0.0000000000000002
230
-1.0
 50
65.00000000000054
 51
89.9999999999997442
  0
LINE
  5
13D50
  8
0
  6
CONTINUOUS
 62
     3
 10
-0.0000000000000462
 20
54.2875693444441794
 30
-0.0000000000000121
 11
2.88453144253487
 21
55.632648446287071
 31
-0.0000000000000124
210
0.0
220
1.0
230
-0.0000000000000002
  0
LINE
  5
13D51
  8
0
  6
CONTINUOUS
 62
     3
 10
-0.0000000000000611
 20
-54.2875693444443428
 30
0.0000000000000121
 11
2.8845314425348549
 21
-55.6326484462872415
 31
0.0000000000000124
210
0.0
220
1.0
230
-0.0000000000000002
  0
ARC
  5
13D52
  8
0
  6
CONTINUOUS
 62
     3
 10
-74.3875453695797688
 20
-58.7999999999978371
 30
0.0
 40
7.999999999997784
210
0.0
220
-0.0000000000000002
230
-1.0
 50
59.3570682370461711
 51
90.0000000000015206
  0
ARC
  5
13D53
  8
0
  6
CONTINUOUS
 62
     3
 10
-74.3875453695797546
 20
58.79999999999756
 30
0.0
 40
7.9999999999976756
210
0.0
220
-0.0000000000000002
230
-1.0
 50
270.0
 51
300.642931762955925
  0
ARC
  5
13D54
  8
0
  6
CONTINUOUS
 62
     3
 10
-63.0725111230574313
 20
-39.7000000000012605
 30
0.0
 40
14.1999999999986901
210
0.0
220
-0.0000000000000002
230
-1.0
 50
239.3570682370686882
 51
270.0000000000205773
  0
ARC
  5
13D55
  8
0
  6
CONTINUOUS
 62
     3
 10
-63.0725111230573887
 20
39.7000000000009834
 30
0.0
 40
14.1999999999988091
210
0.0
220
-0.0000000000000002
230
-1.0
 50
89.9999999999795364
 51
120.6429317629309992
  0
LINE
  5
13D56
  8
0
  6
CONTINUOUS
 62
     3
 10
90.0
 20
59.9999999999990692
 30
-0.0000000000000133
 11
90.7499999999999858
 21
59.9999999999990692
 31
-0.0000000000000133
210
0.0
220
1.0
230
-0.0000000000000002
  0
LINE
  5
13D57
  8
0
  6
CONTINUOUS
 62
     3
 10
90.0
 20
58.5000000000000426
 30
-0.000000000000013
 11
90.0
 21
59.9999999999990692
 31
-0.0000000000000133
210
0.0
220
1.0
230
-0.0000000000000002
  0
LINE
  5
13D58
  8
0
  6
CONTINUOUS
 62
     3
 10
90.7499999999999858
 20
58.5000000000000426
 30
-0.000000000000013
 11
89.9999999999999858
 21
58.5000000000000426
 31
-0.000000000000013
210
0.0
220
1.0
230
-0.0000000000000002
  0
LINE
  5
13D59
  8
0
  6
CONTINUOUS
 62
     3
 10
101.7499999999985931
 20
59.9999999999990408
 30
-0.0000000000000133
 11
99.7499999999986073
 21
59.9999999999990408
 31
-0.0000000000000133
210
0.0
220
1.0
230
-0.0000000000000002
  0
LINE
  5
13D5A
  8
0
  6
CONTINUOUS
 62
     3
 10
101.7499999999985931
 20
59.9999999999990408
 30
-0.0000000000000133
 11
101.7499999999985931
 21
58.5000000000000497
 31
-0.000000000000013
210
0.0
220
1.0
230
-0.0000000000000002
  0
LINE
  5
13D5B
  8
0
  6
CONTINUOUS
 62
     3
 10
282.7317407897157864
 20
-0.0041478276065234
 30
0.0
 11
280.7317407897157864
 21
-0.0041478276065233
 31
0.0
210
0.0
220
1.0
230
-0.0000000000000002
  0
LINE
  5
13D5C
  8
0
  6
CONTINUOUS
 62
     3
 10
187.2426406871196036
 20
-0.0041478276065234
 30
0.0
 11
185.2426406871194899
 21
-0.0041478276065233
 31
0.0
210
0.0
220
1.0
230
-0.0000000000000002
  0
LINE
  5
13D5D
  8
0
  6
CONTINUOUS
 62
     3
 10
185.2426406871194899
 20
-0.0041478276065234
 30
0.0
 11
185.2426406871194899
 21
-1.4999999999999849
 31
0.0000000000000003
210
0.0
220
1.0
230
-0.0000000000000002
  0
LINE
  5
13D5E
  8
0
  6
CONTINUOUS
 62
     3
 10
280.7317407897157864
 20
-1.4999999999999929
 30
0.0000000000000003
 11
280.7317407897157864
 21
-0.0041478276065305
 31
0.0
210
0.0
220
1.0
230
-0.0000000000000002
  0
LINE
  5
13D5F
  8
0
  6
CONTINUOUS
 62
     3
 10
187.2426406871196036
 20
-0.0041478276065234
 30
0.0
 11
187.2426406871196036
 21
-1.4999999999999849
 31
0.0000000000000003
210
0.0
220
1.0
230
-0.0000000000000002
  0
LINE
  5
13D60
  8
0
  6
CONTINUOUS
 62
     3
 10
280.7317407897157864
 20
-1.4999999999999001
 30
0.0000000000000003
 11
187.2426406871196036
 21
-1.499999999999895
 31
0.0000000000000003
210
0.0
220
1.0
230
-0.0000000000000002
  0
LINE
  5
13D61
  8
0
  6
CONTINUOUS
 62
     3
 10
185.2426406871194899
 20
-1.499999999999893
 30
0.0000000000000003
 11
171.2426406871196036
 21
-1.4999999999998921
 31
0.0000000000000003
210
0.0
220
1.0
230
-0.0000000000000002
  0
LINE
  5
13D62
  8
0
  6
CONTINUOUS
 62
     3
 10
340.0
 20
-60.0000000000000071
 30
0.0000000000000133
 11
340.0
 21
-58.4999999999999716
 31
0.000000000000013
210
0.0
220
1.0
230
-0.0000000000000002
  0
LINE
  5
13D63
  8
0
  6
CONTINUOUS
 62
     3
 10
339.0995959557018864
 20
-57.5
 30
0.0000000000000128
 11
288.9748856151919085
 21
-1.8308693936412079
 31
0.0000000000000004
210
0.0
220
1.0
230
-0.0000000000000002
  0
LINE
  5
13D64
  8
0
  6
CONTINUOUS
 62
     3
 10
339.0995959557018864
 20
-57.5
 30
0.0000000000000128
 11
339.9999999999998863
 21
-58.5000000000000426
 31
0.000000000000013
210
0.0
220
1.0
230
-0.0000000000000002
  0
ARC
  5
13D65
  8
0
  6
CONTINUOUS
 62
     3
 10
288.2317407897148769
 20
-2.4999999999999858
 30
0.0000000000000006
 40
1.0000000000000231
 50
42.0000000000144667
 51
89.9999999999972857
  0
LINE
  5
13D66
  8
0
  6
CONTINUOUS
 62
     3
 10
288.2317407897149906
 20
-1.4999999999999001
 30
0.0000000000000003
 11
282.7317407897157864
 21
-1.4999999999999001
 31
0.0000000000000003
210
0.0
220
1.0
230
-0.0000000000000002
  0
LINE
  5
13D67
  8
0
  6
CONTINUOUS
 62
     3
 10
282.7317407897157864
 20
-0.0041478276065305
 30
0.0
 11
282.7317407897157864
 21
-1.4999999999999929
 31
0.0000000000000003
210
0.0
220
1.0
230
-0.0000000000000002
  0
LINE
  5
13D68
  8
0
  6
CONTINUOUS
 62
     3
 10
340.0
 20
-60.0000000000000071
 30
0.0000000000000133
 11
92.5
 21
-60.0
 31
0.0000000000000133
210
0.0
220
1.0
230
-0.0000000000000002
  0
LINE
  5
13D69
  8
0
  6
CONTINUOUS
 62
     3
 10
92.4999999999999858
 20
-57.4999999999999787
 30
0.0000000000000128
 11
92.4999999999999858
 21
-60.0
 31
0.0000000000000133
210
0.0
220
1.0
230
-0.0000000000000002
  0
LINE
  5
13D6A
  8
0
  6
CONTINUOUS
 62
     3
 10
99.7499999999986073
 20
58.5000000000000497
 30
-0.000000000000013
 11
99.7499999999986073
 21
59.9999999999990408
 31
-0.0000000000000133
210
0.0
220
1.0
230
-0.0000000000000002
  0
LINE
  5
13D6B
  8
0
  6
CONTINUOUS
 62
     3
 10
91.5707106781186155
 20
58.5000000000000426
 30
-0.000000000000013
 11
99.7499999999986073
 21
58.5000000000000426
 31
-0.000000000000013
210
0.0
220
1.0
230
-0.0000000000000002
  0
LINE
  5
13D6C
  8
0
  6
CONTINUOUS
 62
     3
 10
91.5707106781186155
 20
-57.4999999999999787
 30
0.0000000000000128
 11
91.5707106781186155
 21
58.5000000000000426
 31
-0.000000000000013
210
0.0
220
1.0
230
-0.0000000000000002
  0
LINE
  5
13D6D
  8
0
  6
CONTINUOUS
 62
     3
 10
92.4999999999999574
 20
-57.4999999999999787
 30
0.0000000000000128
 11
91.5707106781186155
 21
-57.4999999999999787
 31
0.0000000000000128
210
0.0
220
1.0
230
-0.0000000000000002
  0
ARC
  5
13D6E
  8
0
  6
CONTINUOUS
 62
     3
 10
-171.2426406871194899
 20
1.499999999999964
 30
0.0
 40
2.999999999999921
210
0.0
220
-0.0000000000000002
230
-1.0
 50
270.0000000000002274
 51
315.0000000000011937
  0
LINE
  5
13D6F
  8
0
  6
CONTINUOUS
 62
     3
 10
169.1213203435598871
 20
-0.6213203435596172
 30
0.0000000000000001
 11
110.2928932188132052
 21
58.207106781187818
 31
-0.0000000000000129
210
0.0
220
1.0
230
-0.0000000000000002
  0
ARC
  5
13D70
  8
0
  6
CONTINUOUS
 62
     3
 10
109.5857864376268935
 20
57.500000000001009
 30
-0.0000000000000128
 40
1.0000000000000431
 50
45.0000000000178701
 51
89.9999999999945857
  0
LINE
  5
13D71
  8
0
  6
CONTINUOUS
 62
     3
 10
101.7499999999985931
 20
58.5000000000000426
 30
-0.000000000000013
 11
109.5857864376268935
 21
58.5000000000000426
 31
-0.000000000000013
210
0.0
220
1.0
230
-0.0000000000000002
  0
ARC
  5
13D72
  8
0
  6
CONTINUOUS
 62
     3
 10
92.4999999999999574
 20
-57.5
 30
0.0000000000000128
 40
2.5
 50
180.0000000000001137
 51
270.0000000000002274
  0
LINE
  5
13D73
  8
0
  6
CONTINUOUS
 62
     3
 10
91.4999999999999574
 20
-57.5
 30
0.0000000000000128
 11
91.4999999999999574
 21
58.5000000000000568
 31
-0.000000000000013
210
0.0
220
1.0
230
-0.0000000000000002
  0
LINE
  5
13D74
  8
0
  6
CONTINUOUS
 62
     3
 10
89.9999999999999858
 20
58.5000000000000497
 30
-0.000000000000013
 11
89.9999999999999858
 21
-57.5000000000000071
 31
0.0000000000000128
210
0.0
220
1.0
230
-0.0000000000000002
  0
LINE
  5
13D75
  8
0
  6
CONTINUOUS
 62
     3
 10
91.4999999999999574
 20
-57.5
 30
0.0000000000000128
 11
89.9999999999999574
 21
-57.5
 31
0.0000000000000128
210
0.0
220
1.0
230
-0.0000000000000002
  0
ARC
  5
13D76
  8
0
  6
CONTINUOUS
 62
     3
 10
-92.4999999999999858
 20
-57.5
 30
0.0
 40
1.0
210
0.0
220
-0.0000000000000002
230
-1.0
 50
269.9999999999997158
 51
359.9999999999996021
  0
LINE
  5
13D77
  8
0
  6
VERDECKT
 62
     1
 10
91.7499999999994031
 20
58.4999999999979821
 30
-0.000000000000013
 11
91.7499999999994031
 21
59.9999999999990479
 31
-0.0000000000000133
210
0.0
220
1.0
230
-0.0000000000000002
  0
LINE
  5
13D78
  8
0
  6
VERDECKT
 62
     1
 10
187.2426406871194899
 20
-1.4999999999999929
 30
0.0000000000000003
 11
185.2426406871194899
 21
-1.4999999999999929
 31
0.0000000000000003
210
0.0
220
1.0
230
-0.0000000000000002
  0
LINE
  5
13D79
  8
0
  6
VERDECKT
 62
     1
 10
101.7499999999985931
 20
58.5000000000000426
 30
-0.000000000000013
 11
99.7499999999985931
 21
58.5000000000000426
 31
-0.000000000000013
210
0.0
220
1.0
230
-0.0000000000000002
  0
ARC
  5
13D7A
  8
0
  6
VERDECKT
 62
     1
 10
171.0393613899786942
 20
0.9958521723940522
 30
-0.0000000000000002
 40
2.5
 50
225.0000000000021885
 51
270.0000000000001137
  0
LINE
  5
13D7B
  8
0
  6
VERDECKT
 62
     1
 10
169.2715944370125101
 20
-0.7719147805723596
 30
0.0000000000000002
 11
110.2925728752537964
 21
58.2071067811866101
 31
-0.0000000000000129
210
0.0
220
1.0
230
-0.0000000000000002
  0
ARC
  5
13D7C
  8
0
  6
VERDECKT
 62
     1
 10
109.5854660940672005
 20
57.5000000000000711
 30
-0.0000000000000128
 40
0.9999999999999921
 50
45.0000000000014424
 51
90.0000000000000568
  0
LINE
  5
13D7D
  8
0
  6
VERDECKT
 62
     1
 10
283.2317407897152179
 20
-1.4999999999999929
 30
0.0000000000000003
 11
283.2317407897152179
 21
-1.5041478276055431
 31
0.0000000000000003
210
0.0
220
1.0
230
-0.0000000000000002
  0
LINE
  5
13D7E
  8
0
  6
VERDECKT
 62
     1
 10
283.2317407897152748
 20
-1.5041478276054929
 30
0.0000000000000003
 11
288.2338274840460031
 21
-1.504147827605443
 31
0.0000000000000003
210
0.0
220
1.0
230
-0.0000000000000002
  0
LINE
  5
13D7F
  8
0
  6
VERDECKT
 62
     1
 10
288.2338274840460031
 20
-1.5000021771489711
 30
0.0000000000000003
 11
288.2338274840460031
 21
-1.5041478276054721
 31
0.0000000000000003
210
0.0
220
1.0
230
-0.0000000000000002
  0
LINE
  5
13D80
  8
0
  6
VERDECKT
 62
     1
 10
171.0393613899786942
 20
-1.5041478276065161
 30
0.0000000000000003
 11
280.2317407897152748
 21
-1.504147827605522
 31
0.0000000000000003
210
0.0
220
1.0
230
-0.0000000000000002
  0
LINE
  5
13D81
  8
0
  6
VERDECKT
 62
     1
 10
283.2317407897152748
 20
-1.5041478276055431
 30
0.0000000000000003
 11
280.2317407897152748
 21
-1.5041478276055711
 31
0.0000000000000003
210
0.0
220
1.0
230
-0.0000000000000002
  0
LINE
  5
13D82
  8
0
  6
VERDECKT
 62
     1
 10
280.2317407897152179
 20
-1.5041478276055711
 30
0.0000000000000003
 11
280.2317407897152179
 21
-1.4999999999999929
 31
0.0000000000000003
210
0.0
220
1.0
230
-0.0000000000000002
  0
LINE
  5
13D83
  8
0
  6
VERDECKT
 62
     1
 10
0.507141914088717
 20
-53.2000000000003723
 30
0.0000000000000118
 11
0.5071419140887234
 21
53.2000000000002018
 31
-0.0000000000000118
210
0.0
220
1.0
230
-0.0000000000000002
  0
LINE
  5
13D84
  8
0
  6
VERDECKT
 62
     1
 10
74.387545369576344
 20
49.6000000000003212
 30
-0.000000000000011
 11
90.0
 21
49.6000000000003212
 31
-0.000000000000011
210
0.0
220
1.0
230
-0.0000000000000002
  0
LINE
  5
13D85
  8
0
  6
VERDECKT
 62
     1
 10
74.387545369576344
 20
-49.6000000000004277
 30
0.000000000000011
 11
90.0
 21
-49.6000000000004277
 31
0.000000000000011
210
0.0
220
1.0
230
-0.0000000000000002
  0
LINE
  5
13D86
  8
0
  6
VERDECKT
 62
     1
 10
0.507141914088717
 20
-53.2000000000003723
 30
0.0000000000000118
 11
-0.000000000000117
 21
-54.2875693444444707
 31
0.0000000000000121
210
0.0
220
1.0
230
-0.0000000000000002
  0
LINE
  5
13D87
  8
0
  6
VERDECKT
 62
     1
 10
0.507141914088712
 20
53.2000000000002231
 30
-0.0000000000000118
 11
-0.0000000000001219
 21
54.2875693444443073
 31
-0.0000000000000121
210
0.0
220
1.0
230
-0.0000000000000002
  0
LINE
  5
13D88
  8
0
  6
VERDECKT
 62
     1
 10
0.507141914088783
 20
53.2000000000001023
 30
-0.0000000000000118
 11
3.3916733566237092
 21
54.5450791018429726
 31
-0.0000000000000121
210
0.0
220
1.0
230
-0.0000000000000002
  0
LINE
  5
13D89
  8
0
  6
VERDECKT
 62
     1
 10
0.5071419140887679
 20
-53.2000000000002586
 30
0.0000000000000118
 11
3.3916733566236941
 21
-54.5450791018431431
 31
0.0000000000000121
210
0.0
220
1.0
230
-0.0000000000000002
  0
ARC
  5
13D8A
  8
0
  6
VERDECKT
 62
     1
 10
-13.1118933766592392
 20
-33.7000000000012534
 30
0.0
 40
22.9999999999988987
210
0.0
220
-0.0000000000000002
230
-1.0
 50
270.0
 51
295.0000000000014211
  0
ARC
  5
13D8B
  8
0
  6
VERDECKT
 62
     1
 10
-13.1118933766592995
 20
33.7000000000008768
 30
0.0
 40
22.9999999999991012
210
0.0
220
-0.0000000000000002
230
-1.0
 50
65.0000000000002132
 51
90.0000000000013642
  0
LINE
  5
13D8C
  8
0
  6
VERDECKT
 62
     1
 10
13.1118933766598502
 20
56.6999999999999815
 30
-0.0000000000000126
 11
27.7670000000000492
 21
56.6999999999999815
 31
-0.0000000000000126
210
0.0
220
1.0
230
-0.0000000000000002
  0
LINE
  5
13D8D
  8
0
  6
VERDECKT
 62
     1
 10
13.1118933766598396
 20
-56.7000000000001521
 30
0.0000000000000126
 11
27.7670000000000492
 21
-56.7000000000001521
 31
0.0000000000000126
210
0.0
220
1.0
230
-0.0000000000000002
  0
ARC
  5
13D8E
  8
0
  6
VERDECKT
 62
     1
 10
-27.7670000000012998
 20
-33.7000000000035769
 30
0.0
 40
22.99999999999633
210
0.0
220
-0.0000000000000002
230
-1.0
 50
243.1119523822754047
 51
270.0000000000031264
  0
ARC
  5
13D8F
  8
0
  6
VERDECKT
 62
     1
 10
-27.7670000000013388
 20
33.70000000000352
 30
0.0
 40
22.9999999999962199
210
0.0
220
-0.0000000000000002
230
-1.0
 50
89.9999999999967741
 51
116.8880476177244958
  0
ARC
  5
13D90
  8
0
  6
VERDECKT
 62
     1
 10
-44.5002005306810702
 20
-66.6999999999984396
 30
0.0
 40
13.9999999999983107
210
0.0
220
-0.0000000000000002
230
-1.0
 50
63.111952382273671
 51
90.0000000000016058
  0
ARC
  5
13D91
  8
0
  6
VERDECKT
 62
     1
 10
-44.5002005306811128
 20
66.6999999999983402
 30
0.0
 40
13.99999999999838
210
0.0
220
-0.0000000000000002
230
-1.0
 50
270.0
 51
296.8880476177279206
  0
LINE
  5
13D92
  8
0
  6
VERDECKT
 62
     1
 10
44.500200530681461
 20
52.6999999999999673
 30
-0.0000000000000117
 11
63.0725111230523225
 21
52.6999999999999673
 31
-0.0000000000000117
210
0.0
220
1.0
230
-0.0000000000000002
  0
LINE
  5
13D93
  8
0
  6
VERDECKT
 62
     1
 10
44.500200530681461
 20
-52.7000000000001378
 30
0.0000000000000117
 11
63.0725111230523225
 21
-52.7000000000001378
 31
0.0000000000000117
210
0.0
220
1.0
230
-0.0000000000000002
  0
ARC
  5
13D94
  8
0
  6
VERDECKT
 62
     1
 10
-63.0725111230535518
 20
-39.7000000000000171
 30
0.0
 40
13.0000000000001101
210
0.0
220
-0.0000000000000002
230
-1.0
 50
239.3570682370672955
 51
270.0000000000055138
  0
ARC
  5
13D95
  8
0
  6
VERDECKT
 62
     1
 10
-63.0725111230535589
 20
39.6999999999999815
 30
0.0
 40
12.9999999999999805
210
0.0
220
-0.0000000000000002
230
-1.0
 50
89.9999999999945146
 51
120.6429317629329034
  0
ARC
  5
13D96
  8
0
  6
VERDECKT
 62
     1
 10
-74.3875453695761593
 20
-58.7999999999993079
 30
0.0
 40
9.1999999999988464
210
0.0
220
-0.0000000000000002
230
-1.0
 50
59.3570682370582787
 51
90.0000000000011511
  0
ARC
  5
13D97
  8
0
  6
VERDECKT
 62
     1
 10
-74.3875453695762019
 20
58.7999999999992369
 30
0.0
 40
9.1999999999989441
210
0.0
220
-0.0000000000000002
230
-1.0
 50
270.0
 51
300.6429317629426237
  0
LINE
  5
13D98
  8
0
  6
VERDECKT
 62
     1
 10
91.5
 20
58.5000000000000426
 30
-0.000000000000013
 11
91.5
 21
59.9999999999990692
 31
-0.0000000000000133
210
0.0
220
1.0
230
-0.0000000000000002
  0
LINE
  5
13D99
  8
0
  6
VERDECKT
 62
     1
 10
92.4999999999999858
 20
-58.5
 30
0.000000000000013
 11
340.0
 21
-58.5000000000000071
 31
0.000000000000013
210
0.0
220
1.0
230
-0.0000000000000002
  0
LINE
  5
13D9A
  8
0
  6
VERDECKT
 62
     1
 10
91.4999999999999858
 20
-49.6000000000000014
 30
0.000000000000011
 11
89.9999999999999858
 21
-49.6000000000000014
 31
0.000000000000011
210
0.0
220
1.0
230
-0.0000000000000002
  0
LINE
  5
13D9B
  8
0
  6
VERDECKT
 62
     1
 10
91.4999999999999858
 20
49.6000000000000369
 30
-0.000000000000011
 11
89.9999999999999858
 21
49.6000000000000369
 31
-0.000000000000011
210
0.0
220
1.0
230
-0.0000000000000002
  0
ENDBLK
  5
13D9D
  8
0
  0
BLOCK
  8
0
  2
A$C568B3369
 70
     0
 10
0.0
 20
0.0
 30
0.0
  3
A$C568B3369
  1

  0
LINE
  5
13DA1
  8
0
  6
CONTINUOUS
 62
     3
 10
-33.7499999999992326
 20
59.9999999999990621
 30
-0.0000000000000133
 11
-33.7499999999992326
 21
58.4999999999979892
 31
-0.000000000000013
210
-0.0000000000000002
220
1.0
230
-0.0000000000000002
  0
LINE
  5
13DA2
  8
0
  6
CONTINUOUS
 62
     3
 10
-36.7499999999992184
 20
59.9999999999992113
 30
-0.0000000000000133
 11
-36.2499999999997087
 21
59.9999999999992113
 31
-0.0000000000000133
210
-0.0000000000000002
220
1.0
230
-0.0000000000000002
  0
LINE
  5
13DA3
  8
0
  6
CONTINUOUS
 62
     3
 10
-34.2499999999997087
 20
59.9999999999992326
 30
-0.0000000000000133
 11
-33.7499999999992326
 21
59.9999999999992397
 31
-0.0000000000000133
210
-0.0000000000000002
220
1.0
230
-0.0000000000000002
  0
LINE
  5
13DA4
  8
0
  6
CONTINUOUS
 62
     3
 10
-36.7499999999992184
 20
58.4999999999979892
 30
-0.000000000000013
 11
-36.7499999999992184
 21
59.9999999999990621
 31
-0.0000000000000133
210
-0.0000000000000002
220
1.0
230
-0.0000000000000002
  0
LINE
  5
13DA5
  8
0
  6
CONTINUOUS
 62
     3
 10
36.75000000000081
 20
59.9999999999990692
 30
-0.0000000000000133
 11
36.75000000000081
 21
58.4999999999980105
 31
-0.000000000000013
210
-0.0000000000000002
220
1.0
230
-0.0000000000000002
  0
LINE
  5
13DA6
  8
0
  6
CONTINUOUS
 62
     3
 10
33.7500000000007887
 20
59.9999999999998508
 30
-0.0000000000000133
 11
34.2500000000003126
 21
59.9999999999998508
 31
-0.0000000000000133
210
-0.0000000000000002
220
1.0
230
-0.0000000000000002
  0
LINE
  5
13DA7
  8
0
  6
CONTINUOUS
 62
     3
 10
36.2500000000003126
 20
59.9999999999998721
 30
-0.0000000000000133
 11
36.7500000000007887
 21
59.9999999999998792
 31
-0.0000000000000133
210
-0.0000000000000002
220
1.0
230
-0.0000000000000002
  0
LINE
  5
13DA8
  8
0
  6
CONTINUOUS
 62
     3
 10
33.7500000000008029
 20
58.4999999999980105
 30
-0.000000000000013
 11
33.7500000000008029
 21
59.9999999999990692
 31
-0.0000000000000133
210
-0.0000000000000002
220
1.0
230
-0.0000000000000002
  0
LINE
  5
13DA9
  8
0
  6
CONTINUOUS
 62
     3
 10
33.7500000000007887
 20
59.9999999999998508
 30
-0.0000000000000133
 11
-33.7499999999992326
 21
59.9999999999992397
 31
-0.0000000000000133
210
-0.0000000000000002
220
1.0
230
-0.0000000000000002
  0
LINE
  5
13DAA
  8
0
  6
CONTINUOUS
 62
     3
 10
59.2499999999994671
 20
60.0000000000000711
 30
-0.0000000000000133
 11
36.7500000000007887
 21
59.9999999999998721
 31
-0.0000000000000133
210
-0.0000000000000002
220
1.0
230
-0.0000000000000002
  0
LINE
  5
13DAB
  8
0
  6
CONTINUOUS
 62
     3
 10
-36.7499999999992184
 20
59.9999999999992113
 30
-0.0000000000000133
 11
-59.2500000000005684
 21
59.9999999999989981
 31
-0.0000000000000133
210
-0.0000000000000002
220
1.0
230
-0.0000000000000002
  0
LINE
  5
13DAC
  8
0
  6
CONTINUOUS
 62
     3
 10
58.4292893218814982
 20
58.5000000000000711
 30
-0.000000000000013
 11
59.2499999999994884
 21
58.5000000000000782
 31
-0.000000000000013
210
-0.0000000000000002
220
1.0
230
-0.0000000000000002
  0
LINE
  5
13DAD
  8
0
  6
CONTINUOUS
 62
     3
 10
59.2499999999994884
 20
58.5000000000000782
 30
-0.000000000000013
 11
59.2499999999994671
 21
60.0000000000000711
 31
-0.0000000000000133
210
-0.0000000000000002
220
1.0
230
-0.0000000000000002
  0
LINE
  5
13DAE
  8
0
  6
CONTINUOUS
 62
     3
 10
-59.2500000000005471
 20
58.4999999999990123
 30
-0.000000000000013
 11
-59.2500000000005684
 21
59.9999999999989981
 31
-0.0000000000000133
210
-0.0000000000000002
220
1.0
230
-0.0000000000000002
  0
LINE
  5
13DAF
  8
0
  6
CONTINUOUS
 62
     3
 10
58.5000000000000284
 20
-1.504147827605963
 30
0.0000000000000003
 11
58.4292893218814982
 21
-1.5041478276059641
 31
0.0000000000000003
210
-0.0000000000000002
220
1.0
230
-0.0000000000000002
  0
LINE
  5
13DB0
  8
0
  6
CONTINUOUS
 62
     3
 10
49.5771876906376008
 20
-1.5041478276060429
 30
0.0000000000000003
 11
-49.5771876906376079
 21
-1.5041478276069411
 31
0.0000000000000003
210
-0.0000000000000002
220
1.0
230
-0.0000000000000002
  0
LINE
  5
13DB1
  8
0
  6
CONTINUOUS
 62
     3
 10
-58.42928932188088
 20
-1.5041478276070199
 30
0.0000000000000003
 11
-58.4999999999995168
 21
-1.5041478276070199
 31
0.0000000000000003
210
-0.0000000000000002
220
1.0
230
-0.0000000000000002
  0
LINE
  5
13DB2
  8
0
  6
CONTINUOUS
 62
     3
 10
-59.2500000000005471
 20
58.4999999999990123
 30
-0.000000000000013
 11
-58.4292893218808871
 21
58.4999999999990123
 31
-0.000000000000013
210
-0.0000000000000002
220
1.0
230
-0.0000000000000002
  0
CIRCLE
  5
13DB3
  8
0
  6
CONTINUOUS
 62
     3
 10
0.0000000000000035
 20
-0.0000000000000853
 30
0.0
 40
49.600000000000378
210
0.0
220
-0.0000000000000002
230
-1.0
  0
CIRCLE
  5
13DB4
  8
0
  6
CONTINUOUS
 62
     3
 10
0.0000000000000072
 20
-0.0000000000000853
 30
0.0
 40
57.9000000000003325
210
0.0
220
-0.0000000000000002
230
-1.0
  0
CIRCLE
  5
13DB5
  8
0
  6
CONTINUOUS
 62
     3
 10
0.000000000000008
 20
-0.0000000000000853
 30
0.0
 40
54.2875693444443783
210
0.0
220
-0.0000000000000002
230
-1.0
  0
CIRCLE
  5
13DB6
  8
0
  6
CONTINUOUS
 62
     3
 10
0.000000000000008
 20
-0.0000000000000853
 30
0.0
 40
53.20000000000028
210
0.0
220
-0.0000000000000002
230
-1.0
  0
CIRCLE
  5
13DB7
  8
0
  6
CONTINUOUS
 62
     3
 10
0.0000000000000053
 20
-0.0000000000000853
 30
0.0
 40
52.7000000000000597
210
0.0
220
-0.0000000000000002
230
-1.0
  0
LINE
  5
13DB8
  8
0
  6
CONTINUOUS
 62
     3
 10
34.2500000000003126
 20
59.9999999999990976
 30
-0.0000000000000133
 11
36.2500000000003126
 21
59.9999999999990976
 31
-0.0000000000000133
210
-0.0000000000000002
220
1.0
230
-0.0000000000000002
  0
LINE
  5
13DB9
  8
0
  6
CONTINUOUS
 62
     3
 10
36.2500000000003126
 20
58.5000000000000568
 30
-0.000000000000013
 11
36.2500000000003126
 21
59.9999999999990976
 31
-0.0000000000000133
210
-0.0000000000000002
220
1.0
230
-0.0000000000000002
  0
LINE
  5
13DBA
  8
0
  6
CONTINUOUS
 62
     3
 10
34.2500000000003126
 20
58.5000000000000568
 30
-0.000000000000013
 11
34.2500000000003126
 21
59.9999999999990976
 31
-0.0000000000000133
210
-0.0000000000000002
220
1.0
230
-0.0000000000000002
  0
LINE
  5
13DBB
  8
0
  6
CONTINUOUS
 62
     3
 10
-34.2499999999997087
 20
58.5000000000000426
 30
-0.000000000000013
 11
34.2500000000003126
 21
58.5000000000000568
 31
-0.000000000000013
210
-0.0000000000000002
220
1.0
230
-0.0000000000000002
  0
LINE
  5
13DBC
  8
0
  6
CONTINUOUS
 62
     3
 10
36.2500000000003126
 20
58.5000000000000568
 30
-0.000000000000013
 11
58.4292893218814982
 21
58.5000000000000711
 31
-0.000000000000013
210
-0.0000000000000002
220
1.0
230
-0.0000000000000002
  0
LINE
  5
13DBD
  8
0
  6
CONTINUOUS
 62
     3
 10
-36.2499999999997087
 20
59.9999999999990834
 30
-0.0000000000000133
 11
-34.2499999999997087
 21
59.9999999999990834
 31
-0.0000000000000133
210
-0.0000000000000002
220
1.0
230
-0.0000000000000002
  0
LINE
  5
13DBE
  8
0
  6
CONTINUOUS
 62
     3
 10
-34.2499999999997087
 20
58.5000000000000426
 30
-0.000000000000013
 11
-34.2499999999997087
 21
59.9999999999990834
 31
-0.0000000000000133
210
-0.0000000000000002
220
1.0
230
-0.0000000000000002
  0
LINE
  5
13DBF
  8
0
  6
CONTINUOUS
 62
     3
 10
-36.2499999999997087
 20
58.5000000000000426
 30
-0.000000000000013
 11
-36.2499999999997087
 21
59.9999999999990834
 31
-0.0000000000000133
210
-0.0000000000000002
220
1.0
230
-0.0000000000000002
  0
LINE
  5
13DC0
  8
0
  6
CONTINUOUS
 62
     3
 10
-58.4292893218808871
 20
58.5000000000000426
 30
-0.000000000000013
 11
-36.2499999999997087
 21
58.5000000000000426
 31
-0.000000000000013
210
-0.0000000000000002
220
1.0
230
-0.0000000000000002
  0
LINE
  5
13DC1
  8
0
  6
CONTINUOUS
 62
     3
 10
60.0000000000009379
 20
59.9999999999990621
 30
-0.0000000000000133
 11
59.2499999999994671
 21
59.9999999999990621
 31
-0.0000000000000133
210
-0.0000000000000002
220
1.0
230
-0.0000000000000002
  0
LINE
  5
13DC2
  8
0
  6
CONTINUOUS
 62
     3
 10
-59.2500000000005684
 20
59.9999999999990408
 30
-0.0000000000000133
 11
-60.0
 21
59.9999999999990408
 31
-0.0000000000000133
210
-0.0000000000000002
220
1.0
230
-0.0000000000000002
  0
LINE
  5
13DC3
  8
0
  6
CONTINUOUS
 62
     3
 10
-58.4999999999995097
 20
-57.5000000000000071
 30
0.0000000000000128
 11
-58.4999999999995524
 21
58.5000000000000426
 31
-0.000000000000013
210
-0.0000000000000002
220
1.0
230
-0.0000000000000002
  0
LINE
  5
13DC4
  8
0
  6
CONTINUOUS
 62
     3
 10
-60.0
 20
58.5
 30
-0.000000000000013
 11
-60.0
 21
59.9999999999990408
 31
-0.0000000000000133
210
-0.0000000000000002
220
1.0
230
-0.0000000000000002
  0
LINE
  5
13DC5
  8
0
  6
CONTINUOUS
 62
     3
 10
58.5000000000005187
 20
-57.5
 30
0.0000000000000128
 11
58.4999999999994813
 21
58.5000000000000711
 31
-0.000000000000013
210
-0.0000000000000002
220
1.0
230
-0.0000000000000002
  0
LINE
  5
13DC6
  8
0
  6
CONTINUOUS
 62
     3
 10
-59.9999999999995524
 20
58.5000000000000426
 30
-0.000000000000013
 11
-59.9999999999995168
 21
-57.5000000000000071
 31
0.0000000000000128
210
-0.0000000000000002
220
1.0
230
-0.0000000000000002
  0
LINE
  5
13DC7
  8
0
  6
CONTINUOUS
 62
     3
 10
57.5000000000005116
 20
-60.0
 30
0.0000000000000133
 11
-57.4999999999995168
 21
-60.0000000000000284
 31
0.0000000000000133
210
-0.0000000000000002
220
1.0
230
-0.0000000000000002
  0
ARC
  5
13DC8
  8
0
  6
CONTINUOUS
 62
     3
 10
-57.4999999999995168
 20
-57.5000000000000284
 30
0.0000000000000128
 40
2.5
 50
179.9999999999996021
 51
269.9999999999998863
  0
ARC
  5
13DC9
  8
0
  6
CONTINUOUS
 62
     3
 10
57.5000000000005329
 20
-57.5000000000000071
 30
0.0000000000000128
 40
2.4999999999999871
 50
270.0
 51
0.0000000000010814
  0
LINE
  5
13DCA
  8
0
  6
CONTINUOUS
 62
     3
 10
60.0000000000009379
 20
58.5000000000000782
 30
-0.000000000000013
 11
60.0000000000009379
 21
59.9999999999990621
 31
-0.0000000000000133
210
-0.0000000000000002
220
1.0
230
-0.0000000000000002
  0
LINE
  5
13DCB
  8
0
  6
CONTINUOUS
 62
     3
 10
60.0000000000005116
 20
-57.4999999999999787
 30
0.0000000000000128
 11
59.99999999999946
 21
58.5000000000000782
 31
-0.000000000000013
210
-0.0000000000000002
220
1.0
230
-0.0000000000000002
  0
LINE
  5
13DCC
  8
0
  6
CONTINUOUS
 62
     3
 10
59.2499999999994884
 20
58.5000000000000711
 30
-0.000000000000013
 11
59.9999999999994884
 21
58.5000000000000782
 31
-0.000000000000013
210
-0.0000000000000002
220
1.0
230
-0.0000000000000002
  0
LINE
  5
13DCD
  8
0
  6
CONTINUOUS
 62
     3
 10
-59.2500000000005471
 20
58.5000000000000426
 30
-0.000000000000013
 11
-59.9999999999995524
 21
58.5000000000000426
 31
-0.000000000000013
210
-0.0000000000000002
220
1.0
230
-0.0000000000000002
  0
ARC
  5
13DCE
  8
0
  6
CONTINUOUS
 62
     3
 10
57.5000000000005329
 20
-57.5
 30
0.0000000000000128
 40
0.9999999999999905
 50
270.0
 51
0.0000000000013867
  0
LINE
  5
13DCF
  8
0
  6
CONTINUOUS
 62
     3
 10
-58.4999999999995097
 20
-57.5000000000000071
 30
0.0000000000000128
 11
-59.9999999999995168
 21
-57.5000000000000071
 31
0.0000000000000128
210
-0.0000000000000002
220
1.0
230
-0.0000000000000002
  0
ARC
  5
13DD0
  8
0
  6
CONTINUOUS
 62
     3
 10
57.4999999999995168
 20
-57.5000000000000284
 30
0.0
 40
0.9999999999999998
210
0.0
220
-0.0000000000000002
230
-1.0
 50
270.0
 51
0.0000000000006488
  0
LINE
  5
13DD1
  8
0
  6
CONTINUOUS
 62
     3
 10
58.5000000000005187
 20
-57.5
 30
0.0000000000000128
 11
60.0000000000005116
 21
-57.4999999999999929
 31
0.0000000000000128
210
-0.0000000000000002
220
1.0
230
-0.0000000000000002
  0
LINE
  5
13DD2
  8
0
  6
CONTINUOUS
 62
     3
 10
-57.4999999999995168
 20
-57.5000000000000284
 30
0.0000000000000128
 11
-57.4999999999995168
 21
-60.0000000000000284
 31
0.0000000000000133
210
-0.0000000000000002
220
1.0
230
-0.0000000000000002
  0
LINE
  5
13DD3
  8
0
  6
CONTINUOUS
 62
     3
 10
57.5000000000005116
 20
-60.0
 30
0.0000000000000133
 11
57.5000000000005116
 21
-57.5
 31
0.0000000000000128
210
-0.0000000000000002
220
1.0
230
-0.0000000000000002
  0
LINE
  5
13DD4
  8
0
  6
CONTINUOUS
 62
     3
 10
58.4292893218814982
 20
58.5000000000000782
 30
-0.000000000000013
 11
58.4292893218815266
 21
-57.5000000000000071
 31
0.0000000000000128
210
-0.0000000000000002
220
1.0
230
-0.0000000000000002
  0
LINE
  5
13DD5
  8
0
  6
CONTINUOUS
 62
     3
 10
58.4292893218815266
 20
-57.5
 30
0.0000000000000128
 11
57.5000000000005116
 21
-57.5
 31
0.0000000000000128
210
-0.0000000000000002
220
1.0
230
-0.0000000000000002
  0
LINE
  5
13DD6
  8
0
  6
CONTINUOUS
 62
     3
 10
-57.4999999999995168
 20
-57.5000000000000284
 30
0.0000000000000128
 11
-58.4292893218808729
 21
-57.5000000000000284
 31
0.0000000000000128
210
-0.0000000000000002
220
1.0
230
-0.0000000000000002
  0
LINE
  5
13DD7
  8
0
  6
CONTINUOUS
 62
     3
 10
-58.4292893218808587
 20
-57.5000000000000284
 30
0.0000000000000128
 11
-58.4292893218808871
 21
58.5000000000000426
 31
-0.000000000000013
210
-0.0000000000000002
220
1.0
230
-0.0000000000000002
  0
LINE
  5
13DD8
  8
0
  6
VERDECKT
 62
     1
 10
-34.2499999999997087
 20
58.4999999999992326
 30
-0.000000000000013
 11
-36.2499999999997087
 21
58.4999999999992184
 31
-0.000000000000013
210
-0.0000000000000002
220
1.0
230
-0.0000000000000002
  0
LINE
  5
13DD9
  8
0
  6
VERDECKT
 62
     1
 10
36.2500000000003126
 20
58.4999999999998721
 30
-0.000000000000013
 11
34.2500000000003126
 21
58.4999999999998579
 31
-0.000000000000013
210
-0.0000000000000002
220
1.0
230
-0.0000000000000002
  0
LINE
  5
13DDA
  8
0
  6
VERDECKT
 62
     1
 10
-58.2499999999976126
 20
-0.0041478276075027
 30
0.0
 11
-58.2499999999976126
 21
-1.500000000000006
 31
0.0000000000000003
210
-0.0000000000000002
220
1.0
230
-0.0000000000000002
  0
LINE
  5
13DDB
  8
0
  6
VERDECKT
 62
     1
 10
-58.4999999999995524
 20
-1.500000000000006
 30
0.0000000000000003
 11
-58.2499999999975699
 21
-1.500000000000004
 31
0.0000000000000003
210
-0.0000000000000002
220
1.0
230
-0.0000000000000002
  0
LINE
  5
13DDC
  8
0
  6
VERDECKT
 62
     1
 10
58.2499999999985505
 20
-0.0041478276064466
 30
0.0
 11
58.2499999999985505
 21
-1.49999999999998
 31
0.0000000000000003
210
-0.0000000000000002
220
1.0
230
-0.0000000000000002
  0
LINE
  5
13DDD
  8
0
  6
VERDECKT
 62
     1
 10
58.5000000000005187
 20
-1.49999999999998
 30
0.0000000000000003
 11
58.2499999999985292
 21
-1.499999999999982
 31
0.0000000000000003
210
-0.0000000000000002
220
1.0
230
-0.0000000000000002
  0
LINE
  5
13DDE
  8
0
  6
VERDECKT
 62
     1
 10
-59.25
 20
-0.0041478276070269
 30
0.0
 11
59.2500000000000426
 21
-0.0041478276059548
 31
0.0
210
-0.0000000000000002
220
1.0
230
-0.0000000000000002
  0
LINE
  5
13DDF
  8
0
  6
VERDECKT
 62
     1
 10
-58.2500000000005613
 20
59.9999999999990123
 30
-0.0000000000000133
 11
-58.2500000000005613
 21
58.4999999999979394
 31
-0.000000000000013
210
-0.0000000000000002
220
1.0
230
-0.0000000000000002
  0
LINE
  5
13DE0
  8
0
  6
VERDECKT
 62
     1
 10
58.249999999997641
 20
60.0000000000000711
 30
-0.0000000000000133
 11
58.249999999997641
 21
58.4999999999979821
 31
-0.000000000000013
210
-0.0000000000000002
220
1.0
230
-0.0000000000000002
  0
LINE
  5
13DE1
  8
0
  6
VERDECKT
 62
     1
 10
59.2500000000000426
 20
-1.5041478276059559
 30
0.0000000000000003
 11
58.5000000000000284
 21
-1.504147827605963
 31
0.0000000000000003
210
-0.0000000000000002
220
1.0
230
-0.0000000000000002
  0
LINE
  5
13DE2
  8
0
  6
VERDECKT
 62
     1
 10
58.4292893218814982
 20
-1.5041478276059641
 30
0.0000000000000003
 11
49.5771876906376008
 21
-1.5041478276060429
 31
0.0000000000000003
210
-0.0000000000000002
220
1.0
230
-0.0000000000000002
  0
LINE
  5
13DE3
  8
0
  6
VERDECKT
 62
     1
 10
-49.5771876906376008
 20
-1.50414782760694
 30
0.0000000000000003
 11
-58.42928932188088
 21
-1.5041478276070199
 31
0.0000000000000003
210
-0.0000000000000002
220
1.0
230
-0.0000000000000002
  0
LINE
  5
13DE4
  8
0
  6
VERDECKT
 62
     1
 10
-58.4999999999995168
 20
-1.5041478276070199
 30
0.0000000000000003
 11
-59.2500000000000426
 21
-1.504147827607027
 31
0.0000000000000003
210
-0.0000000000000002
220
1.0
230
-0.0000000000000002
  0
LINE
  5
13DE5
  8
0
  6
VERDECKT
 62
     1
 10
59.2500000000000497
 20
-1.504147827605935
 30
0.0000000000000003
 11
59.2500000000000426
 21
-0.7719147805723681
 31
0.0000000000000002
210
-0.0000000000000002
220
1.0
230
-0.0000000000000002
  0
LINE
  5
13DE6
  8
0
  6
VERDECKT
 62
     1
 10
-59.2500000000000426
 20
-0.7719147805734452
 30
0.0000000000000002
 11
-59.2500000000000284
 21
-1.5041478276070199
 31
0.0000000000000003
210
-0.0000000000000002
220
1.0
230
-0.0000000000000002
  0
LINE
  5
13DE7
  8
0
  6
VERDECKT
 62
     1
 10
-59.25
 20
-0.7719147805734174
 30
0.0000000000000002
 11
-59.25000000000054
 21
58.2071067811855727
 31
-0.0000000000000129
210
-0.0000000000000002
220
1.0
230
-0.0000000000000002
  0
LINE
  5
13DE8
  8
0
  6
VERDECKT
 62
     1
 10
59.2500000000000426
 20
-0.7719147805723466
 30
0.0000000000000002
 11
59.2499999999995026
 21
58.2071067811866527
 31
-0.0000000000000129
210
-0.0000000000000002
220
1.0
230
-0.0000000000000002
  0
LINE
  5
13DE9
  8
0
  6
VERDECKT
 62
     1
 10
-59.25000000000054
 20
58.2071067811855798
 30
-0.0000000000000129
 11
-59.25000000000054
 21
58.4999999999990123
 31
-0.000000000000013
210
-0.0000000000000002
220
1.0
230
-0.0000000000000002
  0
LINE
  5
13DEA
  8
0
  6
VERDECKT
 62
     1
 10
59.2499999999995026
 20
58.2071067811866527
 30
-0.0000000000000129
 11
59.2499999999995026
 21
58.5000000000000782
 31
-0.000000000000013
210
-0.0000000000000002
220
1.0
230
-0.0000000000000002
  0
LINE
  5
13DEB
  8
0
  6
VERDECKT
 62
     1
 10
-58.2499999999999787
 20
-1.5000000000000131
 30
0.0000000000000003
 11
-58.2499999999999787
 21
-1.504147827606622
 31
0.0000000000000003
210
-0.0000000000000002
220
1.0
230
-0.0000000000000002
  0
LINE
  5
13DEC
  8
0
  6
VERDECKT
 62
     1
 10
58.2499999999982165
 20
-1.49999999999998
 30
0.0000000000000003
 11
58.2499999999982165
 21
-1.504147827605566
 31
0.0000000000000003
210
-0.0000000000000002
220
1.0
230
-0.0000000000000002
  0
CIRCLE
  5
13DED
  8
0
  6
VERDECKT
 62
     1
 10
0.0000000000000035
 20
-0.0000000000000853
 30
0.0
 40
50.7999999999999687
210
0.0
220
-0.0000000000000002
230
-1.0
  0
CIRCLE
  5
13DEE
  8
0
  6
VERDECKT
 62
     1
 10
0.0000000000000053
 20
-0.0000000000000853
 30
0.0
 40
53.9000000000001123
210
0.0
220
-0.0000000000000002
230
-1.0
  0
CIRCLE
  5
13DEF
  8
0
  6
VERDECKT
 62
     1
 10
0.0000000000000072
 20
-0.0000000000000853
 30
0.0
 40
56.7000000000000597
210
0.0
220
-0.0000000000000002
230
-1.0
  0
LINE
  5
13DF0
  8
0
  6
VERDECKT
 62
     1
 10
-58.4999999999999929
 20
59.9999999999990408
 30
-0.0000000000000133
 11
-58.4999999999999929
 21
58.5
 31
-0.000000000000013
210
-0.0000000000000002
220
1.0
230
-0.0000000000000002
  0
LINE
  5
13DF1
  8
0
  6
VERDECKT
 62
     1
 10
58.5000000000009308
 20
59.9999999999990621
 30
-0.0000000000000133
 11
58.5000000000009308
 21
58.5000000000000782
 31
-0.000000000000013
210
-0.0000000000000002
220
1.0
230
-0.0000000000000002
  0
LINE
  5
13DF2
  8
0
  6
VERDECKT
 62
     1
 10
59.9999999999995168
 20
-0.0041478276065101
 30
0.0
 11
59.2500000000000284
 21
-0.0041478276065103
 31
0.0
210
-0.0000000000000002
220
1.0
230
-0.0000000000000002
  0
LINE
  5
13DF3
  8
0
  6
VERDECKT
 62
     1
 10
-59.25
 20
-0.0041478276065366
 30
0.0
 11
-59.9999999999984865
 21
-0.0041478276065368
 31
0.0
210
-0.0000000000000002
220
1.0
230
-0.0000000000000002
  0
LINE
  5
13DF4
  8
0
  6
VERDECKT
 62
     1
 10
-58.4999999999995168
 20
-1.5000000000010429
 30
0.0000000000000003
 11
-60.0000000000000213
 21
-1.500000000001058
 31
0.0000000000000003
210
-0.0000000000000002
220
1.0
230
-0.0000000000000002
  0
LINE
  5
13DF5
  8
0
  6
VERDECKT
 62
     1
 10
59.9999999999995168
 20
-1.4999999999999729
 30
0.0000000000000003
 11
58.5000000000005187
 21
-1.4999999999999869
 31
0.0000000000000003
210
-0.0000000000000002
220
1.0
230
-0.0000000000000002
  0
LINE
  5
13DF6
  8
0
  6
VERDECKT
 62
     1
 10
57.5000000000005613
 20
-58.5
 30
0.000000000000013
 11
59.7912878474785714
 21
-58.4999999999999716
 31
0.000000000000013
210
-0.0000000000000002
220
1.0
230
-0.0000000000000002
  0
LINE
  5
13DF7
  8
0
  6
VERDECKT
 62
     1
 10
-59.7912878474769869
 20
-58.5000000000011084
 30
0.000000000000013
 11
-57.4999999999995168
 21
-58.5000000000010871
 31
0.000000000000013
210
-0.0000000000000002
220
1.0
230
-0.0000000000000002
  0
LINE
  5
13DF8
  8
0
  6
VERDECKT
 62
     1
 10
-57.4999999999995168
 20
-58.5000000000000284
 30
0.000000000000013
 11
57.5000000000005116
 21
-58.5
 31
0.000000000000013
210
-0.0000000000000002
220
1.0
230
-0.0000000000000002
  0
ENDBLK
  5
13DFA
  8
0
  0
ENDSEC
  0
SECTION
  2
ENTITIES
  0
INSERT
  5
48E5
  8
ADSK_ASSOC_ENTITY_BACKUPS
  2
*S0
 10
0.0
 20
0.0
 30
0.0
  0
INSERT
  5
13D29
  8
STEMPEL
  2
A$C0D9BCDA3
 10
0.0
 20
-150.0
 30
0.0
  0
INSERT
  5
13D9E
  8
STEMPEL
  2
A$C61C65417
 10
0.0
 20
0.0
 30
0.0
  0
INSERT
  5
13DFB
  8
STEMPEL
  2
A$C568B3369
 10
450.0
 20
0.0
 30
0.0
  0
VIEWPORT
  5
3E7B
 67
     1
  8
0
 10
150.705647438901309
 20
76.5200525730386829
 30
0.0
 40
9.472480369586151
 41
5.0257731157977608
 68
     1
 69
     1
1001
ACAD
1000
MVIEW
1002
{
1070
    16
1010
0.0
1020
0.0
1030
0.0
1010
0.0
1020
0.0
1030
1.0
1040
0.0
1040
5.0257731157977608
1040
150.705647438901309
1040
76.5200525730386829
1040
50.0
1040
0.0
1040
0.0
1070
     0
1070
  1500
1070
     1
1070
     1
1070
     0
1070
     0
1070
     0
1070
     2
1040
0.0
1040
0.0
1040
0.0
1040
10.0
1040
10.0
1040
10.0
1040
10.0
1070
     0
1002
{
1002
}
1002
}
  0
CIRCLE
  5
1356B
 67
     1
  8
INDEX
 62
   152
 10
150.7056479959809963
 20
76.5200526585213083
 30
0.0
 40
2.5
  0
TEXT
  5
1356C
 67
     1
  8
INDEX
 62
   152
 10
149.8485051388381919
 20
75.0200526585213083
 30
0.0
 40
3.0
  1
C
 41
0.8
 72
     4
 11
150.7056479959809963
 21
76.5200526585213083
 31
0.0
  0
ENDSEC
  0
EOF
