  0
SECTION
  2
HEADER
  9
$ACADVER
  1
AC1009
  9
$INSBASE
 10
0.0
 20
0.0
 30
0.0
  9
$EXTMIN
 10
-126.0
 20
-0.0000000000000059
 30
-0.0000000000001149
  9
$EXTMAX
 10
25.9999999999999609
 20
517.5000000000001137
 30
0.0
  9
$LIMMIN
 10
0.0
 20
0.0
  9
$LIMMAX
 10
594.0000000000002274
 20
840.0
  9
$ORTHOMODE
 70
     1
  9
$REGENMODE
 70
     1
  9
$FILLMODE
 70
     1
  9
$QTEXTMODE
 70
     0
  9
$MIRRTEXT
 70
     1
  9
$DRAGMODE
 70
     2
  9
$LTSCALE
 40
20.0
  9
$OSMODE
 70
   511
  9
$ATTMODE
 70
     1
  9
$TEXTSIZE
 40
3.5
  9
$TRACEWID
 40
1.0
  9
$TEXTSTYLE
  7
STANDARD
  9
$CLAYER
  8
STEMPEL
  9
$CELTYPE
  6
BYLAYER
  9
$CECOLOR
 62
   256
  9
$DIMSCALE
 40
1.0
  9
$DIMASZ
 40
3.5
  9
$DIMEXO
 40
1.0
  9
$DIMDLI
 40
7.0
  9
$DIMRND
 40
0.0
  9
$DIMDLE
 40
0.0
  9
$DIMEXE
 40
1.0
  9
$DIMTP
 40
0.0
  9
$DIMTM
 40
0.0
  9
$DIMTXT
 40
3.5
  9
$DIMCEN
 40
1.5
  9
$DIMTSZ
 40
0.0
  9
$DIMTOL
 70
     0
  9
$DIMLIM
 70
     0
  9
$DIMTIH
 70
     0
  9
$DIMTOH
 70
     0
  9
$DIMSE1
 70
     0
  9
$DIMSE2
 70
     0
  9
$DIMTAD
 70
     1
  9
$DIMZIN
 70
     8
  9
$DIMBLK
  1

  9
$DIMASO
 70
     1
  9
$DIMSHO
 70
     0
  9
$DIMPOST
  1

  9
$DIMAPOST
  1

  9
$DIMALT
 70
     0
  9
$DIMALTD
 70
     2
  9
$DIMALTF
 40
25.3999999999999986
  9
$DIMLFAC
 40
1.0
  9
$DIMTOFL
 70
     1
  9
$DIMTVP
 40
0.0
  9
$DIMTIX
 70
     0
  9
$DIMSOXD
 70
     0
  9
$DIMSAH
 70
     0
  9
$DIMBLK1
  1

  9
$DIMBLK2
  1

  9
$DIMSTYLE
  2
STANDARD
  9
$DIMCLRD
 70
     0
  9
$DIMCLRE
 70
     0
  9
$DIMCLRT
 70
     1
  9
$DIMTFAC
 40
0.5
  9
$DIMGAP
 40
1.5
  9
$LUNITS
 70
     2
  9
$LUPREC
 70
     2
  9
$SKETCHINC
 40
1.0
  9
$FILLETRAD
 40
6.0
  9
$AUNITS
 70
     0
  9
$AUPREC
 70
     0
  9
$MENU
  1
ACAD
  9
$ELEVATION
 40
0.0
  9
$PELEVATION
 40
0.0
  9
$THICKNESS
 40
0.0
  9
$LIMCHECK
 70
     0
  9
$BLIPMODE
 70
     0
  9
$CHAMFERA
 40
0.0
  9
$CHAMFERB
 40
0.0
  9
$SKPOLY
 70
     0
  9
$TDCREATE
 40
2455397.867048610933125
  9
$TDUPDATE
 40
2460293.5279745371080935
  9
$TDINDWG
 40
3.0320971874999998
  9
$TDUSRTIMER
 40
3.0320971874999998
  9
$USRTIMER
 70
     1
  9
$ANGBASE
 50
0.0
  9
$ANGDIR
 70
     0
  9
$PDMODE
 70
     0
  9
$PDSIZE
 40
0.0
  9
$PLINEWID
 40
0.0
  9
$COORDS
 70
     1
  9
$SPLFRAME
 70
     0
  9
$SPLINETYPE
 70
     6
  9
$SPLINESEGS
 70
     8
  9
$ATTDIA
 70
     1
  9
$ATTREQ
 70
     1
  9
$HANDLING
 70
     1
  9
$HANDSEED
  5
F069
  9
$SURFTAB1
 70
     6
  9
$SURFTAB2
 70
     6
  9
$SURFTYPE
 70
     6
  9
$SURFU
 70
     6
  9
$SURFV
 70
     6
  9
$UCSNAME
  2

  9
$UCSORG
 10
0.0
 20
0.0
 30
0.0
  9
$UCSXDIR
 10
1.0
 20
0.0
 30
0.0
  9
$UCSYDIR
 10
0.0
 20
1.0
 30
0.0
  9
$PUCSNAME
  2

  9
$PUCSORG
 10
0.0
 20
0.0
 30
0.0
  9
$PUCSXDIR
 10
1.0
 20
0.0
 30
0.0
  9
$PUCSYDIR
 10
0.0
 20
1.0
 30
0.0
  9
$USERI1
 70
     0
  9
$USERI2
 70
     0
  9
$USERI3
 70
     0
  9
$USERI4
 70
     0
  9
$USERI5
 70
     0
  9
$USERR1
 40
0.0
  9
$USERR2
 40
0.0
  9
$USERR3
 40
0.0
  9
$USERR4
 40
0.0
  9
$USERR5
 40
0.0
  9
$WORLDVIEW
 70
     1
  9
$SHADEDGE
 70
     3
  9
$SHADEDIF
 70
    70
  9
$TILEMODE
 70
     1
  9
$MAXACTVP
 70
    16
  9
$PLIMCHECK
 70
     0
  9
$PEXTMIN
 10
1.0000000000000000E+20
 20
1.0000000000000000E+20
 30
1.0000000000000000E+20
  9
$PEXTMAX
 10
-1.0000000000000000E+20
 20
-1.0000000000000000E+20
 30
-1.0000000000000000E+20
  9
$PLIMMIN
 10
-4.5273465929126813
 20
-3.1961862395036729
  9
$PLIMMAX
 10
415.9653673829126888
 20
294.1283175172118831
  9
$UNITMODE
 70
     0
  9
$VISRETAIN
 70
     0
  9
$PLINEGEN
 70
     0
  9
$PSLTSCALE
 70
     0
  0
ENDSEC
  0
SECTION
  2
TABLES
  0
TABLE
  2
VPORT
 70
     1
  0
VPORT
  2
*ACTIVE
 70
     0
 10
0.0
 20
0.0
 11
1.0
 21
1.0
 12
-49.9999999999999432
 22
13.0000000000000604
 13
0.0
 23
0.0
 14
1.0
 24
1.0
 15
10.0
 25
10.0
 16
0.0000000000004539
 26
0.0
 36
2044.1456889935270738
 17
0.0
 27
245.75
 37
258.7499999999998863
 40
520.1470588235293917
 41
1.8720136518771331
 42
50.0
 43
0.0
 44
0.0
 50
0.0
 51
0.0
 71
     0
 72
  1500
 73
     1
 74
     1
 75
     0
 76
     0
 77
     0
 78
     0
  0
ENDTAB
  0
TABLE
  2
LTYPE
 70
     5
  0
LTYPE
  2
CONTINUOUS
 70
     0
  3
Solid line
 72
    65
 73
     0
 40
0.0
  0
LTYPE
  2
STRICHPUNKT
 70
     0
  3
__ . __ . __ . __ . __ . __ . __ . __ . __ . __
 72
    65
 73
     4
 40
1.0
 49
0.5
 49
-0.25
 49
0.0
 49
-0.25
  0
LTYPE
  2
AUSGEZOGEN
 70
     0
  3
Ausgezogene Linie
 72
    65
 73
     0
 40
0.0
  0
LTYPE
  2
VERDECKT
 70
     0
  3
Verdeckt __ __ __ __ __ __ __ __ __ __ __ __ __
 72
    65
 73
     2
 40
0.375
 49
0.25
 49
-0.125
  0
ENDTAB
  0
TABLE
  2
LAYER
 70
    18
  0
LAYER
  2
0
 70
     0
 62
     7
  6
CONTINUOUS
  0
LAYER
  2
BEM
 70
     0
 62
     7
  6
CONTINUOUS
  0
LAYER
  2
STEMPEL
 70
     0
 62
     3
  6
CONTINUOUS
  0
LAYER
  2
TEXT
 70
     0
 62
     7
  6
CONTINUOUS
  0
LAYER
  2
ADSK_ASSOC_ENTITY_BACKUPS
 70
     1
 62
    -7
  6
CONTINUOUS
  0
ENDTAB
  0
TABLE
  2
STYLE
 70
     3
  0
STYLE
  2
STANDARD
 70
     0
 40
0.0
 41
0.8
 50
0.0
 71
     0
 42
3.5
  3
simplex.shx
  4

  0
STYLE
  2
GREEKS
 70
     0
 40
0.0
 41
0.8
 50
0.0
 71
     0
 42
2.5
  3
SIMPLEX.shx
  4

  0
ENDTAB
  0
TABLE
  2
VIEW
 70
     2
  0
ENDTAB
  0
TABLE
  2
UCS
 70
     0
  0
ENDTAB
  0
TABLE
  2
APPID
 70
    48
  0
APPID
  2
ACAD
 70
     0
  0
APPID
  2
ACAD_EXEMPT_FROM_CAD_STANDARDS
 70
     0
  0
APPID
  2
ACAD_NAV_VCDISPLAY
 70
     0
  0
APPID
  2
ACAD_PSEXT
 70
     0
  0
APPID
  2
ACAECLAYERSTANDARD
 70
     0
  0
APPID
  2
ACCMTRANSPARENCY
 70
     0
  0
APPID
  2
ACAD_STEPID
 70
     0
  0
APPID
  2
ACADANNOMONITORALERTICONDI
 70
     0
  0
APPID
  2
ACAD_MLEADERVER
 70
     0
  0
APPID
  2
ACAD_OBJECT_CHANGE_GUID
 70
     0
  0
APPID
  2
ACADANNOPO
 70
     0
  0
APPID
  2
GRADIENTCOLOR1ACI
 70
     0
  0
APPID
  2
GRADIENTCOLOR2ACI
 70
     0
  0
APPID
  2
ACAD_DSTYLE_DIMRADIAL_EXTENSION
 70
     0
  0
APPID
  2
MCAD_NO_VIS
 70
     0
  0
APPID
  2
ACAD_TEMP_GRAPHIC
 70
     0
  0
APPID
  2
ACATTRIBSERVICES
 70
     0
  0
APPID
  2
DESIGNERASSEMBLIES
 70
     0
  0
APPID
  2
ACAD_DSTYLE_DIMJAG
 70
     0
  0
APPID
  2
ACAD_DSTYLE_DIMBREAK
 70
     0
  0
APPID
  2
GENIUS_GENSCREG_15
 70
     0
  0
APPID
  2
GENIUS_GENOBJ-N-SDF_13
 70
     0
  0
APPID
  2
GENIUS_GENODEF_13
 70
     0
  0
APPID
  2
ACAD_DSTYLE_DIMARC_LENGTH_
 70
     0
  0
APPID
  2
ACAD_DSTYLE_DIM_LINETYPE
 70
     0
  0
APPID
  2
ACAD_DSTYLE_DIM_EXT1_LINETYPE
 70
     0
  0
APPID
  2
ACAD_DSTYLE_DIM_EXT2_LINETYPE
 70
     0
  0
APPID
  2
RAK
 70
     0
  0
APPID
  2
ACSYNERGY
 70
     0
  0
APPID
  2
SYNERGY_BODY_TBR_ID
 70
     0
  0
APPID
  2
ACAD_VIEW_EDGE_ID
 70
     0
  0
APPID
  2
ACSYNERGYSKETCH
 70
     0
  0
APPID
  2
ACAD_MODELDOC_XFORM
 70
     0
  0
APPID
  2
GENIUS_GENDTOL_13
 70
     0
  0
APPID
  2
ACAD_DSTYLE_DIMINSPECT
 70
     0
  0
APPID
  2
ACAD_DSTYLE_DIMANGULAR_EXT
 70
     0
  0
APPID
  2
PLOTTRANSPARENCY
 70
     0
  0
APPID
  2
ACAUTHENVIRON
 70
     0
  0
APPID
  2
ACDBDYNAMICBLOCKTRUENAME
 70
     0
  0
APPID
  2
ACDBDYNAMICBLOCKGUID
 70
     0
  0
APPID
  2
PE_URL
 70
     0
  0
APPID
  2
SYNERGY_EXCLUDED_FROM_SNAPSHOT
 70
     0
  0
APPID
  2
ACAD_DSTYLE_DIMTALN
 70
     0
  0
APPID
  2
ACAD_DIMASSOC_CALC_DIMLFAC
 70
     0
  0
APPID
  2
ACAD_DIMASSOC_DIMLFAC
 70
     0
  0
APPID
  2
ACAD_DIMASSOC_OVERRIDDEN_D
 70
     0
  0
APPID
  2
ACADANNOAV
 70
     0
  0
APPID
  2
AcDbAttr
 70
     0
  0
ENDTAB
  0
TABLE
  2
DIMSTYLE
 70
     3
  0
DIMSTYLE
  2
STANDARD
 70
     0
  3

  4

  5

  6

  7

 40
1.0
 41
0.18
 42
0.0625
 43
0.38
 44
0.18
 45
0.0
 46
0.0
 47
0.0
 48
0.0
140
0.18
141
0.09
142
0.0
143
25.3999999999999986
144
1.0
145
0.0
146
1.0
147
0.09
 71
     0
 72
     0
 73
     1
 74
     1
 75
     0
 76
     0
 77
     0
 78
     0
170
     0
171
     2
172
     0
173
     0
174
     0
175
     0
176
     0
177
     0
178
     0
  0
ENDTAB
  0
ENDSEC
  0
SECTION
  2
BLOCKS
  0
BLOCK
  8
0
  2
$MODEL_SPACE
 70
     0
 10
0.0
 20
0.0
 30
0.0
  3
$MODEL_SPACE
  1

  0
ENDBLK
  5
38
  8
0
  0
BLOCK
 67
     1
  8
0
  2
$PAPER_SPACE
 70
     0
 10
0.0
 20
0.0
 30
0.0
  3
$PAPER_SPACE
  1

  0
ENDBLK
  5
36
 67
     1
  8
0
  0
BLOCK
  8
0
  2
*S0
 70
     1
 10
0.0
 20
0.0
 30
0.0
  3
*S0
  1

  0
ENDBLK
  5
30A9
  8
0
  0
BLOCK
  8
0
  2
_NONE
 70
     0
 10
0.0
 20
0.0
 30
0.0
  3
_NONE
  1

  0
ENDBLK
  5
E713
  8
0
  0
BLOCK
  8
0
  2
A$C6459A63D
 70
     0
 10
0.0
 20
0.0
 30
0.0
  3
A$C6459A63D
  1

  0
LINE
  5
EF01
  8
0
  6
CONTINUOUS
 62
     3
 10
-25.0
 20
287.5
 30
-0.0000000000000638
 11
25.0
 21
287.5
 31
-0.0000000000000638
210
0.0
220
1.0
230
-0.0000000000000002
  0
LINE
  5
EF02
  8
0
  6
CONTINUOUS
 62
     3
 10
-24.4000000000000306
 20
286.8999999999999773
 30
-0.0000000000000637
 11
24.4000000000000306
 21
286.8999999999999773
 31
-0.0000000000000637
210
0.0
220
1.0
230
-0.0000000000000002
  0
LINE
  5
EF03
  8
0
  6
CONTINUOUS
 62
     3
 10
-24.4000000000000306
 20
285.3856406460549806
 30
-0.0000000000000634
 11
24.4000000000000306
 21
285.3856406460549806
 31
-0.0000000000000634
210
0.0
220
1.0
230
-0.0000000000000002
  0
LINE
  5
EF04
  8
0
  6
CONTINUOUS
 62
     3
 10
-25.1999999999999886
 20
283.9999999999998863
 30
-0.0000000000000631
 11
25.1999999999999886
 21
283.9999999999998863
 31
-0.0000000000000631
210
0.0
220
1.0
230
-0.0000000000000002
  0
LINE
  5
EF05
  8
0
  6
CONTINUOUS
 62
     3
 10
-21.9999999999998899
 20
265.0000000000001137
 30
-0.0000000000000588
 11
21.9999999999998899
 21
265.0000000000001137
 31
-0.0000000000000588
210
0.0
220
1.0
230
-0.0000000000000002
  0
LINE
  5
EF06
  8
0
  6
CONTINUOUS
 62
     3
 10
-25.0
 20
297.5
 30
-0.0000000000000661
 11
25.0
 21
297.5
 31
-0.0000000000000661
210
0.0
220
1.0
230
-0.0000000000000002
  0
LINE
  5
EF07
  8
0
  6
CONTINUOUS
 62
     3
 10
-26.0
 20
292.9999999999998863
 30
-0.0000000000000651
 11
26.0
 21
292.9999999999998863
 31
-0.0000000000000651
210
0.0
220
1.0
230
-0.0000000000000002
  0
LINE
  5
EF08
  8
0
  6
CONTINUOUS
 62
     3
 10
-24.4000000000000306
 20
289.4266197158419232
 30
-0.0000000000000643
 11
24.4000000000000306
 21
289.4266197158419232
 31
-0.0000000000000643
210
0.0
220
1.0
230
-0.0000000000000002
  0
LINE
  5
EF09
  8
0
  6
CONTINUOUS
 62
     3
 10
-24.4000000000000306
 20
289.1000000000000227
 30
-0.0000000000000642
 11
24.4000000000000306
 21
289.1000000000000227
 31
-0.0000000000000642
210
0.0
220
1.0
230
-0.0000000000000002
  0
LINE
  5
EF0A
  8
0
  6
CONTINUOUS
 62
     3
 10
-25.0000000000000604
 20
288.4999999999998863
 30
-0.0000000000000641
 11
25.0000000000000604
 21
288.4999999999998863
 31
-0.0000000000000641
210
0.0
220
1.0
230
-0.0000000000000002
  0
LINE
  5
EF0B
  8
0
  6
CONTINUOUS
 62
     3
 10
-24.4000000000000696
 20
286.8999999999999773
 30
-0.0000000000000637
 11
-25.0
 21
287.5
 31
-0.0000000000000638
210
0.0
220
1.0
230
-0.0000000000000002
  0
LINE
  5
EF0C
  8
0
  6
CONTINUOUS
 62
     3
 10
24.4000000000000306
 20
286.8999999999999773
 30
-0.0000000000000637
 11
25.0
 21
287.5
 31
-0.0000000000000638
210
0.0
220
1.0
230
-0.0000000000000002
  0
LINE
  5
EF0D
  8
0
  6
CONTINUOUS
 62
     3
 10
24.4000000000000306
 20
286.8999999999999773
 30
-0.0000000000000637
 11
24.4000000000000306
 21
285.3856406460549806
 31
-0.0000000000000634
210
0.0
220
1.0
230
-0.0000000000000002
  0
LINE
  5
EF0E
  8
0
  6
CONTINUOUS
 62
     3
 10
-24.4000000000000306
 20
286.8999999999999773
 30
-0.0000000000000637
 11
-24.4000000000000306
 21
285.3856406460549806
 31
-0.0000000000000634
210
0.0
220
1.0
230
-0.0000000000000002
  0
LINE
  5
EF0F
  8
0
  6
CONTINUOUS
 62
     3
 10
24.4000000000000306
 20
285.3856406460549806
 30
-0.0000000000000634
 11
25.1999999999999886
 21
283.9999999999998863
 31
-0.0000000000000631
210
0.0
220
1.0
230
-0.0000000000000002
  0
LINE
  5
EF10
  8
0
  6
CONTINUOUS
 62
     3
 10
-24.4000000000000306
 20
285.3856406460549806
 30
-0.0000000000000634
 11
-25.1999999999999886
 21
283.9999999999998863
 31
-0.0000000000000631
210
0.0
220
1.0
230
-0.0000000000000002
  0
LINE
  5
EF11
  8
0
  6
CONTINUOUS
 62
     3
 10
22.4999999999998899
 20
283.9999999999998863
 30
-0.0000000000000631
 11
22.4999999999998899
 21
271.0000000000001137
 31
-0.0000000000000602
210
0.0
220
1.0
230
-0.0000000000000002
  0
LINE
  5
EF12
  8
0
  6
CONTINUOUS
 62
     3
 10
-22.4999999999998899
 20
283.9999999999998863
 30
-0.0000000000000631
 11
-22.4999999999998899
 21
271.0000000000001137
 31
-0.0000000000000602
210
0.0
220
1.0
230
-0.0000000000000002
  0
LINE
  5
EF13
  8
0
  6
CONTINUOUS
 62
     3
 10
-21.9999999999998899
 20
265.0000000000001137
 30
-0.0000000000000588
 11
-22.4999999999998792
 21
271.0
 31
-0.0000000000000602
210
0.0
220
1.0
230
-0.0000000000000002
  0
LINE
  5
EF14
  8
0
  6
CONTINUOUS
 62
     3
 10
21.9999999999998899
 20
265.0000000000001137
 30
-0.0000000000000588
 11
22.4999999999998899
 21
271.0000000000001137
 31
-0.0000000000000602
210
0.0
220
1.0
230
-0.0000000000000002
  0
ARC
  5
EF15
  8
0
  6
CONTINUOUS
 62
     3
 10
25.0000000000000107
 20
296.4999999999998863
 30
0.0
 40
0.9999999999999928
210
0.0
220
-0.0000000000000002
230
-1.0
 50
0.0
 51
90.0000000000003979
  0
ARC
  5
EF16
  8
0
  6
CONTINUOUS
 62
     3
 10
-25.0000000000000107
 20
296.4999999999998863
 30
0.0
 40
1.0
210
0.0
220
-0.0000000000000002
230
-1.0
 50
89.9999999999995879
 51
180.0
  0
LINE
  5
EF17
  8
0
  6
CONTINUOUS
 62
     3
 10
26.0
 20
296.4999999999998863
 30
-0.0000000000000658
 11
26.0
 21
292.9999999999998863
 31
-0.0000000000000651
210
0.0
220
1.0
230
-0.0000000000000002
  0
LINE
  5
EF18
  8
0
  6
CONTINUOUS
 62
     3
 10
-26.0
 20
296.4999999999998863
 30
-0.0000000000000658
 11
-26.0
 21
292.9999999999998863
 31
-0.0000000000000651
210
0.0
220
1.0
230
-0.0000000000000002
  0
ARC
  5
EF19
  8
0
  6
CONTINUOUS
 62
     3
 10
23.3321397411752187
 20
292.4999999999998863
 30
0.0
 40
0.5
210
0.0
220
-0.0000000000000002
230
-1.0
 50
89.9999999999975557
 51
207.9999999999996021
  0
ARC
  5
EF1A
  8
0
  6
CONTINUOUS
 62
     3
 10
-23.3321397411752187
 20
292.4999999999998863
 30
0.0
 40
0.4999999999999982
210
0.0
220
-0.0000000000000002
230
-1.0
 50
332.0000000000002842
 51
90.0000000000024443
  0
LINE
  5
EF1B
  8
0
  6
CONTINUOUS
 62
     3
 10
22.8906659447457592
 20
292.2652642186070011
 30
-0.0000000000000649
 11
24.4000000000000306
 21
289.4266197158419232
 31
-0.0000000000000643
210
0.0
220
1.0
230
-0.0000000000000002
  0
LINE
  5
EF1C
  8
0
  6
CONTINUOUS
 62
     3
 10
-22.8906659447457592
 20
292.2652642186070011
 30
-0.0000000000000649
 11
-24.4000000000000306
 21
289.4266197158419232
 31
-0.0000000000000643
210
0.0
220
1.0
230
-0.0000000000000002
  0
LINE
  5
EF1D
  8
0
  6
CONTINUOUS
 62
     3
 10
24.4000000000000306
 20
289.4266197158419232
 30
-0.0000000000000643
 11
24.4000000000000306
 21
289.1000000000000227
 31
-0.0000000000000642
210
0.0
220
1.0
230
-0.0000000000000002
  0
LINE
  5
EF1E
  8
0
  6
CONTINUOUS
 62
     3
 10
-24.4000000000000306
 20
289.4266197158419232
 30
-0.0000000000000643
 11
-24.4000000000000306
 21
289.1000000000000227
 31
-0.0000000000000642
210
0.0
220
1.0
230
-0.0000000000000002
  0
LINE
  5
EF1F
  8
0
  6
CONTINUOUS
 62
     3
 10
24.4000000000000306
 20
289.1000000000000227
 30
-0.0000000000000642
 11
25.0000000000000604
 21
288.4999999999998863
 31
-0.0000000000000641
210
0.0
220
1.0
230
-0.0000000000000002
  0
LINE
  5
EF20
  8
0
  6
CONTINUOUS
 62
     3
 10
-24.4000000000000306
 20
289.1000000000000227
 30
-0.0000000000000642
 11
-25.0000000000000604
 21
288.4999999999998863
 31
-0.0000000000000641
210
0.0
220
1.0
230
-0.0000000000000002
  0
LINE
  5
EF21
  8
0
  6
CONTINUOUS
 62
     3
 10
25.0
 20
288.4999999999998863
 30
-0.0000000000000641
 11
25.0
 21
287.5
 31
-0.0000000000000638
210
0.0
220
1.0
230
-0.0000000000000002
  0
LINE
  5
EF22
  8
0
  6
CONTINUOUS
 62
     3
 10
-25.0
 20
288.4999999999998863
 30
-0.0000000000000641
 11
-25.0
 21
287.5
 31
-0.0000000000000638
210
0.0
220
1.0
230
-0.0000000000000002
  0
LINE
  5
EF23
  8
0
  6
CONTINUOUS
 62
     3
 10
-21.0
 20
475.4999999999998863
 30
-0.0000000000001056
 11
21.0
 21
517.4999999999998863
 31
-0.0000000000001149
210
0.0
220
1.0
230
-0.0000000000000002
  0
LINE
  5
EF24
  8
0
  6
CONTINUOUS
 62
     3
 10
20.5625566823705412
 20
337.4999999999998863
 30
-0.0000000000000749
 11
-20.5625566823705412
 21
337.4999999999998863
 31
-0.0000000000000749
210
0.0
220
1.0
230
-0.0000000000000002
  0
LINE
  5
EF25
  8
0
  6
CONTINUOUS
 62
     3
 10
-21.0
 20
342.4999999999998863
 30
-0.0000000000000761
 11
-21.0
 21
475.4999999999998863
 31
-0.0000000000001056
210
0.0
220
1.0
230
-0.0000000000000002
  0
LINE
  5
EF26
  8
0
  6
CONTINUOUS
 62
     3
 10
21.0
 20
342.4999999999998863
 30
-0.0000000000000761
 11
21.0
 21
517.4999999999998863
 31
-0.0000000000001149
210
0.0
220
1.0
230
-0.0000000000000002
  0
LINE
  5
EF27
  8
0
  6
CONTINUOUS
 62
     3
 10
-20.5625566823705412
 20
337.4999999999998863
 30
-0.0000000000000749
 11
-21.0
 21
342.4999999999998863
 31
-0.0000000000000761
210
0.0
220
1.0
230
-0.0000000000000002
  0
LINE
  5
EF28
  8
0
  6
CONTINUOUS
 62
     3
 10
20.5625566823705412
 20
337.4999999999998863
 30
-0.0000000000000749
 11
21.0
 21
342.4999999999998863
 31
-0.0000000000000761
210
0.0
220
1.0
230
-0.0000000000000002
  0
LINE
  5
EF29
  8
0
  6
CONTINUOUS
 62
     3
 10
20.5625566823705412
 20
0.0
 30
0.0
 11
-20.5625566823705412
 21
0.0
 31
0.0
210
0.0
220
1.0
230
-0.0000000000000002
  0
LINE
  5
EF2A
  8
0
  6
CONTINUOUS
 62
     3
 10
23.2998762301444415
 20
170.0
 30
-0.0000000000000377
 11
-23.2998762301444415
 21
170.0
 31
-0.0000000000000377
210
0.0
220
1.0
230
-0.0000000000000002
  0
LINE
  5
EF2B
  8
0
  6
CONTINUOUS
 62
     3
 10
-21.0
 20
5.0000000000000293
 30
-0.0000000000000011
 11
-21.0
 21
136.3903074475097128
 31
-0.0000000000000303
210
0.0
220
1.0
230
-0.0000000000000002
  0
LINE
  5
EF2C
  8
0
  6
CONTINUOUS
 62
     3
 10
21.0
 20
5.0000000000000293
 30
-0.0000000000000011
 11
21.0
 21
136.3903074475097128
 31
-0.0000000000000303
210
0.0
220
1.0
230
-0.0000000000000002
  0
LINE
  5
EF2D
  8
0
  6
CONTINUOUS
 62
     3
 10
-20.5625566823705412
 20
0.0
 30
0.0
 11
-21.0
 21
5.0000000000000293
 31
-0.0000000000000011
210
0.0
220
1.0
230
-0.0000000000000002
  0
LINE
  5
EF2E
  8
0
  6
CONTINUOUS
 62
     3
 10
20.5625566823705412
 20
0.0
 30
0.0
 11
21.0
 21
5.0000000000000293
 31
-0.0000000000000011
210
0.0
220
1.0
230
-0.0000000000000002
  0
ARC
  5
EF2F
  8
0
  6
CONTINUOUS
 62
     3
 10
-8.9018565478335798
 20
163.0216743248990099
 30
0.0
 40
15.9999999999995399
210
0.0
220
-0.0000000000000002
230
-1.0
 50
154.1418030082622863
 51
180.0000000000003979
  0
ARC
  5
EF30
  8
0
  6
CONTINUOUS
 62
     3
 10
8.9018565478334448
 20
163.0216743248990099
 30
0.0
 40
15.9999999999996696
210
0.0
220
-0.0000000000000002
230
-1.0
 50
359.9999999999997158
 51
25.8581969917375609
  0
LINE
  5
EF31
  8
0
  6
CONTINUOUS
 62
     3
 10
-24.9018565478331801
 20
158.3670000000001039
 30
-0.0000000000000352
 11
-24.9018565478331801
 21
163.0216743248988962
 31
-0.0000000000000362
210
0.0
220
1.0
230
-0.0000000000000002
  0
LINE
  5
EF32
  8
0
  6
CONTINUOUS
 62
     3
 10
24.9018565478331801
 20
158.3670000000001039
 30
-0.0000000000000352
 11
24.9018565478331801
 21
163.0216743248988962
 31
-0.0000000000000362
210
0.0
220
1.0
230
-0.0000000000000002
  0
ARC
  5
EF33
  8
0
  6
CONTINUOUS
 62
     3
 10
-5.3958409343581231
 20
158.3684603853282056
 30
0.0
 40
19.5060156681434513
210
0.0
220
-0.0000000000000002
230
-1.0
 50
180.0042896467051889
 51
198.1925286248431064
  0
ARC
  5
EF34
  8
0
  6
CONTINUOUS
 62
     3
 10
5.3958409343582536
 20
158.3684603853282056
 30
0.0
 40
19.5060156681433199
210
0.0
220
-0.0000000000000002
230
-1.0
 50
341.8074713751566946
 51
359.9957103532947826
  0
ARC
  5
EF35
  8
0
  6
CONTINUOUS
 62
     3
 10
-33.9018565478352087
 20
148.9999999999998863
 30
0.0
 40
10.5000000000020304
210
0.0
220
-0.0000000000000002
230
-1.0
 50
0.0000000000023282
 51
18.1939705983812701
  0
ARC
  5
EF36
  8
0
  6
CONTINUOUS
 62
     3
 10
33.9018565478352087
 20
148.9999999999998863
 30
0.0
 40
10.5000000000020304
210
0.0
220
-0.0000000000000002
230
-1.0
 50
161.8060294016187015
 51
179.9999999999976126
  0
LINE
  5
EF37
  8
0
  6
CONTINUOUS
 62
     3
 10
-23.4018565478331801
 20
144.8218253804967048
 30
-0.0000000000000322
 11
-23.4018565478331801
 21
149.0000000000003126
 31
-0.0000000000000331
210
0.0
220
1.0
230
-0.0000000000000002
  0
LINE
  5
EF38
  8
0
  6
CONTINUOUS
 62
     3
 10
23.4018565478331801
 20
144.8218253804967048
 30
-0.0000000000000322
 11
23.4018565478331801
 21
149.0000000000003126
 31
-0.0000000000000331
210
0.0
220
1.0
230
-0.0000000000000002
  0
ARC
  5
EF39
  8
0
  6
CONTINUOUS
 62
     3
 10
-13.9018565478333596
 20
144.8218253804965912
 30
0.0
 40
9.4999999999998117
210
0.0
220
-0.0000000000000002
230
-1.0
 50
179.9999999999996021
 51
211.8009488966000902
  0
ARC
  5
EF3A
  8
0
  6
CONTINUOUS
 62
     3
 10
13.9018565478334093
 20
144.8218253804965912
 30
0.0
 40
9.4999999999997584
210
0.0
220
-0.0000000000000002
230
-1.0
 50
328.1990511033998814
 51
0.0000000000005216
  0
ARC
  5
EF3B
  8
0
  6
CONTINUOUS
 62
     3
 10
-27.4999999999997513
 20
136.3903074475090023
 30
0.0
 40
6.4999999999997513
210
0.0
220
-0.0000000000000002
230
-1.0
 50
0.0
 51
31.800948896599941
  0
ARC
  5
EF3C
  8
0
  6
CONTINUOUS
 62
     3
 10
27.5000000000000391
 20
136.3903074475090023
 30
0.0
 40
6.5000000000000444
210
0.0
220
-0.0000000000000002
230
-1.0
 50
148.1990511033951918
 51
179.999999999994003
  0
LINE
  5
EF3D
  8
0
  6
CONTINUOUS
 62
     3
 10
-26.0
 20
225.0
 30
-0.00000000000005
 11
26.0
 21
225.0
 31
-0.00000000000005
210
0.0
220
1.0
230
-0.0000000000000002
  0
LINE
  5
EF3E
  8
0
  6
CONTINUOUS
 62
     3
 10
21.4958352534599193
 20
210.5
 30
-0.0000000000000467
 11
-21.4958352534599193
 21
210.5
 31
-0.0000000000000467
210
0.0
220
1.0
230
-0.0000000000000002
  0
LINE
  5
EF3F
  8
0
  6
CONTINUOUS
 62
     3
 10
-26.0
 20
223.9999999999998863
 30
-0.0000000000000497
 11
26.0
 21
223.9999999999998863
 31
-0.0000000000000497
210
0.0
220
1.0
230
-0.0000000000000002
  0
ARC
  5
EF40
  8
0
  6
CONTINUOUS
 62
     3
 10
21.4958352534599015
 20
211.0
 30
0.0
 40
0.5
210
0.0
220
-0.0000000000000002
230
-1.0
 50
270.0
 51
354.4995885297951759
  0
ARC
  5
EF41
  8
0
  6
CONTINUOUS
 62
     3
 10
-21.4958352534598802
 20
211.0
 30
0.0
 40
0.5000000000000254
210
0.0
220
-0.0000000000000002
230
-1.0
 50
185.5004114702095137
 51
269.9999999999976126
  0
LINE
  5
EF42
  8
0
  6
CONTINUOUS
 62
     3
 10
-21.9935330084720597
 20
210.9520735495173085
 30
-0.0000000000000468
 11
-23.2500000000000213
 21
223.9999999999998863
 31
-0.0000000000000497
210
0.0
220
1.0
230
-0.0000000000000002
  0
LINE
  5
EF43
  8
0
  6
CONTINUOUS
 62
     3
 10
21.9935330084720491
 20
210.9520735495173085
 30
-0.0000000000000468
 11
23.2500000000000213
 21
223.9999999999998863
 31
-0.0000000000000497
210
0.0
220
1.0
230
-0.0000000000000002
  0
LINE
  5
EF44
  8
0
  6
CONTINUOUS
 62
     3
 10
26.0
 20
225.0
 30
-0.00000000000005
 11
26.0
 21
223.9999999999998863
 31
-0.0000000000000497
210
0.0
220
1.0
230
-0.0000000000000002
  0
LINE
  5
EF45
  8
0
  6
CONTINUOUS
 62
     3
 10
-26.0
 20
225.0
 30
-0.00000000000005
 11
-26.0
 21
223.9999999999998863
 31
-0.0000000000000497
210
0.0
220
1.0
230
-0.0000000000000002
  0
LINE
  5
EF46
  8
0
  6
VERDECKT
 62
     1
 10
-21.25
 20
293.4178204549040743
 30
-0.0000000000000652
 11
21.25
 21
293.4178204549040743
 31
-0.0000000000000652
210
0.0
220
1.0
230
-0.0000000000000002
  0
LINE
  5
EF47
  8
0
  6
VERDECKT
 62
     1
 10
23.5915063509460197
 20
284.7075317547304962
 30
-0.0000000000000632
 11
24.0000000000000107
 21
283.9999999999998863
 31
-0.0000000000000631
210
0.0
220
1.0
230
-0.0000000000000002
  0
LINE
  5
EF48
  8
0
  6
VERDECKT
 62
     1
 10
-23.5915063509459983
 20
284.7075317547304962
 30
-0.0000000000000632
 11
-24.0000000000000107
 21
283.9999999999998863
 31
-0.0000000000000631
210
0.0
220
1.0
230
-0.0000000000000002
  0
ARC
  5
EF49
  8
0
  6
VERDECKT
 62
     1
 10
23.0849364905387198
 20
284.4150635094608788
 30
0.0
 40
0.5849364905389705
210
0.0
220
-0.0000000000000002
230
-1.0
 50
30.0000000000021103
 51
89.9999999999947846
  0
ARC
  5
EF4A
  8
0
  6
VERDECKT
 62
     1
 10
23.0849364905387411
 20
284.4150635094609925
 30
0.0
 40
0.584936490538837
210
0.0
220
-0.0000000000000002
230
-1.0
 50
89.9999999999965326
 51
180.0000000000055138
  0
ARC
  5
EF4B
  8
0
  6
VERDECKT
 62
     1
 10
-23.0849364905387411
 20
284.4150635094609925
 30
0.0
 40
0.5849364905388584
210
0.0
220
-0.0000000000000002
230
-1.0
 50
359.9999999999944862
 51
90.0000000000034532
  0
ARC
  5
EF4C
  8
0
  6
VERDECKT
 62
     1
 10
-23.0849364905387304
 20
284.4150635094608788
 30
0.0
 40
0.5849364905389507
210
0.0
220
-0.0000000000000002
230
-1.0
 50
90.0000000000048601
 51
149.9999999999974989
  0
LINE
  5
EF4D
  8
0
  6
VERDECKT
 62
     1
 10
23.0849364905387802
 20
284.9999999999998863
 30
-0.0000000000000633
 11
-23.0849364905387802
 21
284.9999999999998863
 31
-0.0000000000000633
210
0.0
220
1.0
230
-0.0000000000000002
  0
LINE
  5
EF4E
  8
0
  6
VERDECKT
 62
     1
 10
22.4999999999998899
 20
284.4150635094609925
 30
-0.0000000000000632
 11
22.4999999999998899
 21
283.9999999999998863
 31
-0.0000000000000631
210
0.0
220
1.0
230
-0.0000000000000002
  0
LINE
  5
EF4F
  8
0
  6
VERDECKT
 62
     1
 10
-22.4999999999998899
 20
284.4150635094609925
 30
-0.0000000000000632
 11
-22.4999999999998899
 21
283.9999999999998863
 31
-0.0000000000000631
210
0.0
220
1.0
230
-0.0000000000000002
  0
ARC
  5
EF50
  8
0
  6
VERDECKT
 62
     1
 10
21.9999999999998899
 20
266.25
 30
0.0
 40
1.2500000000000171
210
0.0
220
-0.0000000000000002
230
-1.0
 50
143.1301023541566053
 51
269.9999999999997158
  0
ARC
  5
EF51
  8
0
  6
VERDECKT
 62
     1
 10
-21.9999999999998899
 20
266.25
 30
0.0
 40
1.25
210
0.0
220
-0.0000000000000002
230
-1.0
 50
270.0
 51
36.8698976458431318
  0
ARC
  5
EF52
  8
0
  6
VERDECKT
 62
     1
 10
19.9999999999995595
 20
267.7500000000001137
 30
0.0
 40
1.2500000000003151
210
0.0
220
-0.0000000000000002
230
-1.0
 50
323.1301023541602717
 51
359.9999999999948272
  0
ARC
  5
EF53
  8
0
  6
VERDECKT
 62
     1
 10
-19.9999999999995595
 20
267.7500000000001137
 30
0.0
 40
1.2500000000003231
210
0.0
220
-0.0000000000000002
230
-1.0
 50
180.0000000000050875
 51
216.8698976458395862
  0
LINE
  5
EF54
  8
0
  6
VERDECKT
 62
     1
 10
21.2499999999998899
 20
281.4019237886467977
 30
-0.0000000000000625
 11
21.2499999999998899
 21
267.7500000000001137
 31
-0.0000000000000595
210
0.0
220
1.0
230
-0.0000000000000002
  0
LINE
  5
EF55
  8
0
  6
VERDECKT
 62
     1
 10
-21.2499999999998899
 20
281.4019237886467977
 30
-0.0000000000000625
 11
-21.2499999999998899
 21
267.7500000000001137
 31
-0.0000000000000595
210
0.0
220
1.0
230
-0.0000000000000002
  0
ARC
  5
EF56
  8
0
  6
VERDECKT
 62
     1
 10
19.7499999999996909
 20
281.401923788646684
 30
0.0
 40
1.5000000000002369
210
0.0
220
-0.0000000000000002
230
-1.0
 50
0.000000000004351
 51
59.9999999999950901
  0
ARC
  5
EF57
  8
0
  6
VERDECKT
 62
     1
 10
-19.7499999999996909
 20
281.401923788646684
 30
0.0
 40
1.500000000000238
210
0.0
220
-0.0000000000000002
230
-1.0
 50
120.0000000000049027
 51
179.9999999999957083
  0
ARC
  5
EF58
  8
0
  6
VERDECKT
 62
     1
 10
21.2499999999999183
 20
284.0000000000001137
 30
0.0
 40
1.4999999999999269
210
0.0
220
-0.0000000000000002
230
-1.0
 50
131.8103148957775943
 51
239.9999999999984936
  0
ARC
  5
EF59
  8
0
  6
VERDECKT
 62
     1
 10
-21.2499999999999716
 20
284.0000000000001137
 30
0.0
 40
1.4999999999999449
210
0.0
220
-0.0000000000000002
230
-1.0
 50
300.000000000002899
 51
48.1896851042237415
  0
ARC
  5
EF5A
  8
0
  6
VERDECKT
 62
     1
 10
18.2499999999997407
 20
287.3541019662498002
 30
0.0
 40
3.0000000000001878
210
0.0
220
-0.0000000000000002
230
-1.0
 50
311.8103148957832218
 51
0.0000000000011055
  0
ARC
  5
EF5B
  8
0
  6
VERDECKT
 62
     1
 10
-18.2499999999999396
 20
287.3541019662496865
 30
0.0
 40
3.0000000000000031
210
0.0
220
-0.0000000000000002
230
-1.0
 50
179.9999999999978115
 51
228.1896851042203878
  0
LINE
  5
EF5C
  8
0
  6
VERDECKT
 62
     1
 10
21.25
 20
293.4178204549040743
 30
-0.0000000000000652
 11
21.25
 21
287.3541019662498002
 31
-0.0000000000000638
210
0.0
220
1.0
230
-0.0000000000000002
  0
LINE
  5
EF5D
  8
0
  6
VERDECKT
 62
     1
 10
-21.25
 20
293.4178204549040743
 30
-0.0000000000000652
 11
-21.25
 21
287.3541019662498002
 31
-0.0000000000000638
210
0.0
220
1.0
230
-0.0000000000000002
  0
LINE
  5
EF5E
  8
0
  6
VERDECKT
 62
     1
 10
-21.25
 20
293.4178204549040743
 30
-0.0000000000000652
 11
-21.9697983938965393
 21
297.4999999999997726
 31
-0.0000000000000661
210
0.0
220
1.0
230
-0.0000000000000002
  0
LINE
  5
EF5F
  8
0
  6
VERDECKT
 62
     1
 10
21.25
 20
293.4178204549040743
 30
-0.0000000000000652
 11
21.96979839389655
 21
297.4999999999998863
 31
-0.0000000000000661
210
0.0
220
1.0
230
-0.0000000000000002
  0
LINE
  5
EF60
  8
0
  6
VERDECKT
 62
     1
 10
19.5663619842787817
 20
337.5871557427474841
 30
-0.000000000000075
 11
-19.5663619842787817
 21
337.5871557427474841
 31
-0.000000000000075
210
0.0
220
1.0
230
-0.0000000000000002
  0
LINE
  5
EF61
  8
0
  6
VERDECKT
 62
     1
 10
-20.0
 20
342.5436609429069108
 30
-0.0000000000000761
 11
-20.0
 21
476.4999999999998863
 31
-0.0000000000001058
210
0.0
220
1.0
230
-0.0000000000000002
  0
LINE
  5
EF62
  8
0
  6
VERDECKT
 62
     1
 10
20.0
 20
342.5436609429069108
 30
-0.0000000000000761
 11
20.0
 21
516.5
 31
-0.0000000000001147
210
0.0
220
1.0
230
-0.0000000000000002
  0
LINE
  5
EF63
  8
0
  6
VERDECKT
 62
     1
 10
-19.5663619842787817
 20
337.5871557427474841
 30
-0.000000000000075
 11
-20.0
 21
342.5436609429069108
 31
-0.0000000000000761
210
0.0
220
1.0
230
-0.0000000000000002
  0
LINE
  5
EF64
  8
0
  6
VERDECKT
 62
     1
 10
19.5663619842787817
 20
337.5871557427474841
 30
-0.000000000000075
 11
20.0
 21
342.5436609429069108
 31
-0.0000000000000761
210
0.0
220
1.0
230
-0.0000000000000002
  0
LINE
  5
EF65
  8
0
  6
VERDECKT
 62
     1
 10
19.5663619842787817
 20
337.5871557427474841
 30
-0.000000000000075
 11
20.5625566823705412
 21
337.4999999999998863
 31
-0.0000000000000749
210
0.0
220
1.0
230
-0.0000000000000002
  0
LINE
  5
EF66
  8
0
  6
VERDECKT
 62
     1
 10
-19.5663619842787817
 20
337.5871557427474841
 30
-0.000000000000075
 11
-20.5625566823705412
 21
337.4999999999998863
 31
-0.0000000000000749
210
0.0
220
1.0
230
-0.0000000000000002
  0
LINE
  5
EF67
  8
0
  6
VERDECKT
 62
     1
 10
19.5663619842787817
 20
0.0871557427476546
 30
0.0
 11
-19.5663619842787817
 21
0.0871557427476546
 31
0.0
210
0.0
220
1.0
230
-0.0000000000000002
  0
LINE
  5
EF68
  8
0
  6
VERDECKT
 62
     1
 10
22.3999999999999702
 20
169.5638546453062077
 30
-0.0000000000000377
 11
-22.3999999999999702
 21
169.5638546453062077
 31
-0.0000000000000377
210
0.0
220
1.0
230
-0.0000000000000002
  0
LINE
  5
EF69
  8
0
  6
VERDECKT
 62
     1
 10
-20.0
 20
5.0436609429069961
 30
-0.0000000000000011
 11
-20.0
 21
136.3903074475095138
 31
-0.0000000000000303
210
0.0
220
1.0
230
-0.0000000000000002
  0
LINE
  5
EF6A
  8
0
  6
VERDECKT
 62
     1
 10
20.0
 20
5.0436609429069961
 30
-0.0000000000000011
 11
20.0
 21
136.3903074475095138
 31
-0.0000000000000303
210
0.0
220
1.0
230
-0.0000000000000002
  0
LINE
  5
EF6B
  8
0
  6
VERDECKT
 62
     1
 10
-19.5663619842787817
 20
0.0871557427476546
 30
0.0
 11
-20.0
 21
5.0436609429069961
 31
-0.0000000000000011
210
0.0
220
1.0
230
-0.0000000000000002
  0
LINE
  5
EF6C
  8
0
  6
VERDECKT
 62
     1
 10
19.5663619842787817
 20
0.0871557427476546
 30
0.0
 11
20.0
 21
5.0436609429069961
 31
-0.0000000000000011
210
0.0
220
1.0
230
-0.0000000000000002
  0
LINE
  5
EF6D
  8
0
  6
VERDECKT
 62
     1
 10
19.5663619842787817
 20
0.0871557427476546
 30
0.0
 11
20.5625566823705412
 21
0.0
 31
0.0
210
0.0
220
1.0
230
-0.0000000000000002
  0
LINE
  5
EF6E
  8
0
  6
VERDECKT
 62
     1
 10
-19.5663619842787817
 20
0.0871557427476546
 30
0.0
 11
-20.5625566823705412
 21
0.0
 31
0.0
210
0.0
220
1.0
230
-0.0000000000000002
  0
ARC
  5
EF6F
  8
0
  6
VERDECKT
 62
     1
 10
-8.9018565478337877
 20
163.0216743248990099
 30
0.0
 40
14.9999999999993108
210
0.0
220
-0.0000000000000002
230
-1.0
 50
154.141803008262201
 51
180.0000000000005969
  0
ARC
  5
EF70
  8
0
  6
VERDECKT
 62
     1
 10
8.9018565478337166
 20
163.0216743248990099
 30
0.0
 40
14.9999999999993907
210
0.0
220
-0.0000000000000002
230
-1.0
 50
359.9999999999993747
 51
25.8581969917377386
  0
LINE
  5
EF71
  8
0
  6
VERDECKT
 62
     1
 10
-22.3999999999999702
 20
169.5638546453062077
 30
-0.0000000000000377
 11
-23.2998762301444415
 21
170.0
 31
-0.0000000000000377
210
0.0
220
1.0
230
-0.0000000000000002
  0
LINE
  5
EF72
  8
0
  6
VERDECKT
 62
     1
 10
22.3999999999999702
 20
169.5638546453062077
 30
-0.0000000000000377
 11
23.2998762301444415
 21
170.0
 31
-0.0000000000000377
210
0.0
220
1.0
230
-0.0000000000000002
  0
ARC
  5
EF73
  8
0
  6
VERDECKT
 62
     1
 10
-27.4999999999999183
 20
136.3903074475095138
 30
0.0
 40
7.4999999999999138
210
0.0
220
-0.0000000000000002
230
-1.0
 50
0.0000000000004326
 51
31.800948896601561
  0
ARC
  5
EF74
  8
0
  6
VERDECKT
 62
     1
 10
27.4999999999999183
 20
136.3903074475095138
 30
0.0
 40
7.4999999999999094
210
0.0
220
-0.0000000000000002
230
-1.0
 50
148.1990511033984035
 51
179.9999999999996021
  0
ARC
  5
EF75
  8
0
  6
VERDECKT
 62
     1
 10
-13.9018565478327698
 20
144.821825380497188
 30
0.0
 40
8.5000000000004032
210
0.0
220
-0.0000000000000002
230
-1.0
 50
180.0000000000036948
 51
211.8009488966013976
  0
ARC
  5
EF76
  8
0
  6
VERDECKT
 62
     1
 10
13.9018565478327698
 20
144.821825380497188
 30
0.0
 40
8.5000000000004015
210
0.0
220
-0.0000000000000002
230
-1.0
 50
328.1990511033985172
 51
359.9999999999961915
  0
LINE
  5
EF77
  8
0
  6
VERDECKT
 62
     1
 10
-22.4018565478331801
 20
144.8218253804967048
 30
-0.0000000000000322
 11
-22.4018565478331801
 21
149.0000000000003126
 31
-0.0000000000000331
210
0.0
220
1.0
230
-0.0000000000000002
  0
LINE
  5
EF78
  8
0
  6
VERDECKT
 62
     1
 10
22.4018565478331801
 20
144.8218253804967048
 30
-0.0000000000000322
 11
22.4018565478331801
 21
149.0000000000003126
 31
-0.0000000000000331
210
0.0
220
1.0
230
-0.0000000000000002
  0
ARC
  5
EF79
  8
0
  6
VERDECKT
 62
     1
 10
-33.9018565478330487
 20
149.0000000000003126
 30
0.0
 40
11.4999999999998703
210
0.0
220
-0.0000000000000002
230
-1.0
 50
0.0000000000001399
 51
18.193970598382581
  0
ARC
  5
EF7A
  8
0
  6
VERDECKT
 62
     1
 10
33.9018565478330487
 20
149.0000000000003126
 30
0.0
 40
11.4999999999998703
210
0.0
220
-0.0000000000000002
230
-1.0
 50
161.8060294016173941
 51
179.9999999999998863
  0
ARC
  5
EF7B
  8
0
  6
VERDECKT
 62
     1
 10
-5.395840832752099
 20
158.3684604099950093
 30
0.0
 40
18.5060157727055099
210
0.0
220
-0.0000000000000002
230
-1.0
 50
180.0045215204708882
 51
198.1924506800025085
  0
ARC
  5
EF7C
  8
0
  6
VERDECKT
 62
     1
 10
5.3958408327519614
 20
158.3684604099950093
 30
0.0
 40
18.5060157727056485
210
0.0
220
-0.0000000000000002
230
-1.0
 50
341.8075493199975767
 51
359.9954784795290266
  0
LINE
  5
EF7D
  8
0
  6
VERDECKT
 62
     1
 10
-23.9018565478331801
 20
158.3670000000001039
 30
-0.0000000000000352
 11
-23.9018565478331801
 21
163.0216743248988962
 31
-0.0000000000000362
210
0.0
220
1.0
230
-0.0000000000000002
  0
LINE
  5
EF7E
  8
0
  6
VERDECKT
 62
     1
 10
23.9018565478331801
 20
158.3670000000001039
 30
-0.0000000000000352
 11
23.9018565478331801
 21
163.0216743248988962
 31
-0.0000000000000362
210
0.0
220
1.0
230
-0.0000000000000002
  0
LINE
  5
EF7F
  8
0
  6
VERDECKT
 62
     1
 10
-21.0416705069197789
 20
211.5
 30
-0.000000000000047
 11
21.0416705069197789
 21
211.5
 31
-0.000000000000047
210
0.0
220
1.0
230
-0.0000000000000002
  0
ARC
  5
EF80
  8
0
  6
VERDECKT
 62
     1
 10
22.795835253459849
 20
224.5
 30
0.0
 40
0.5
210
0.0
220
-0.0000000000000002
230
-1.0
 50
89.9999999999979678
 51
174.4995885297998939
  0
ARC
  5
EF81
  8
0
  6
VERDECKT
 62
     1
 10
-22.795835253459849
 20
224.5000000000001137
 30
0.0
 40
0.4999999999999793
210
0.0
220
-0.0000000000000002
230
-1.0
 50
5.5004114701969309
 51
90.0000000000020464
  0
LINE
  5
EF82
  8
0
  6
VERDECKT
 62
     1
 10
-21.0416705069197683
 20
211.5
 30
-0.000000000000047
 11
-22.2981374984477192
 21
224.5479264504826915
 31
-0.0000000000000499
210
0.0
220
1.0
230
-0.0000000000000002
  0
LINE
  5
EF83
  8
0
  6
VERDECKT
 62
     1
 10
21.0416705069197789
 20
211.5
 30
-0.000000000000047
 11
22.2981374984477192
 21
224.5479264504826915
 31
-0.0000000000000499
210
0.0
220
1.0
230
-0.0000000000000002
  0
ENDBLK
  5
EF85
  8
0
  0
BLOCK
  8
0
  2
A$CDE37EC6D
 70
     0
 10
0.0
 20
0.0
 30
0.0
  3
A$CDE37EC6D
  1

  0
LINE
  5
EF89
  8
0
  6
CONTINUOUS
 62
     3
 10
-25.0000000000000711
 20
287.5
 30
-0.0000000000000638
 11
24.9999999999999503
 21
287.5
 31
-0.0000000000000638
210
-0.0000000000000002
220
1.0
230
-0.0000000000000002
  0
LINE
  5
EF8A
  8
0
  6
CONTINUOUS
 62
     3
 10
-24.4000000000001087
 20
286.8999999999999773
 30
-0.0000000000000637
 11
24.3999999999999808
 21
286.8999999999999773
 31
-0.0000000000000637
210
-0.0000000000000002
220
1.0
230
-0.0000000000000002
  0
LINE
  5
EF8B
  8
0
  6
CONTINUOUS
 62
     3
 10
-24.4000000000001087
 20
285.3856406460550943
 30
-0.0000000000000634
 11
24.3999999999999808
 21
285.3856406460550943
 31
-0.0000000000000634
210
-0.0000000000000002
220
1.0
230
-0.0000000000000002
  0
LINE
  5
EF8C
  8
0
  6
CONTINUOUS
 62
     3
 10
-25.2000000000000597
 20
284.0
 30
-0.0000000000000631
 11
25.1999999999999282
 21
284.0
 31
-0.0000000000000631
210
-0.0000000000000002
220
1.0
230
-0.0000000000000002
  0
LINE
  5
EF8D
  8
0
  6
CONTINUOUS
 62
     3
 10
-21.9999999999999503
 20
265.0000000000001137
 30
-0.0000000000000588
 11
21.9999999999998295
 21
265.0000000000001137
 31
-0.0000000000000588
210
-0.0000000000000002
220
1.0
230
-0.0000000000000002
  0
LINE
  5
EF8E
  8
0
  6
CONTINUOUS
 62
     3
 10
-25.0000000000000817
 20
297.5
 30
-0.0000000000000661
 11
24.9999999999999396
 21
297.5
 31
-0.0000000000000661
210
-0.0000000000000002
220
1.0
230
-0.0000000000000002
  0
LINE
  5
EF8F
  8
0
  6
CONTINUOUS
 62
     3
 10
-26.0000000000000817
 20
293.0
 30
-0.0000000000000651
 11
25.9999999999999396
 21
293.0
 31
-0.0000000000000651
210
-0.0000000000000002
220
1.0
230
-0.0000000000000002
  0
LINE
  5
EF90
  8
0
  6
CONTINUOUS
 62
     3
 10
-24.4000000000001087
 20
289.42661971584198
 30
-0.0000000000000643
 11
24.3999999999999808
 21
289.42661971584198
 31
-0.0000000000000643
210
-0.0000000000000002
220
1.0
230
-0.0000000000000002
  0
LINE
  5
EF91
  8
0
  6
CONTINUOUS
 62
     3
 10
-24.4000000000001087
 20
289.1000000000000227
 30
-0.0000000000000642
 11
24.3999999999999808
 21
289.1000000000000227
 31
-0.0000000000000642
210
-0.0000000000000002
220
1.0
230
-0.0000000000000002
  0
LINE
  5
EF92
  8
0
  6
CONTINUOUS
 62
     3
 10
-25.0000000000001315
 20
288.5
 30
-0.0000000000000641
 11
25.0
 21
288.5
 31
-0.0000000000000641
210
-0.0000000000000002
220
1.0
230
-0.0000000000000002
  0
LINE
  5
EF93
  8
0
  6
CONTINUOUS
 62
     3
 10
-24.4000000000001407
 20
286.9000000000000909
 30
-0.0000000000000637
 11
-25.0000000000000711
 21
287.5
 31
-0.0000000000000638
210
-0.0000000000000002
220
1.0
230
-0.0000000000000002
  0
LINE
  5
EF94
  8
0
  6
CONTINUOUS
 62
     3
 10
24.4000000000000092
 20
286.9000000000000909
 30
-0.0000000000000637
 11
24.9999999999999503
 21
287.5
 31
-0.0000000000000638
210
-0.0000000000000002
220
1.0
230
-0.0000000000000002
  0
LINE
  5
EF95
  8
0
  6
CONTINUOUS
 62
     3
 10
24.3999999999999808
 20
286.9000000000000909
 30
-0.0000000000000637
 11
24.3999999999999808
 21
285.3856406460550943
 31
-0.0000000000000634
210
-0.0000000000000002
220
1.0
230
-0.0000000000000002
  0
LINE
  5
EF96
  8
0
  6
CONTINUOUS
 62
     3
 10
-24.4000000000001087
 20
286.9000000000000909
 30
-0.0000000000000637
 11
-24.4000000000001087
 21
285.3856406460550943
 31
-0.0000000000000634
210
-0.0000000000000002
220
1.0
230
-0.0000000000000002
  0
LINE
  5
EF97
  8
0
  6
CONTINUOUS
 62
     3
 10
24.3999999999999808
 20
285.3856406460550943
 30
-0.0000000000000634
 11
25.1999999999999282
 21
284.0
 31
-0.0000000000000631
210
-0.0000000000000002
220
1.0
230
-0.0000000000000002
  0
LINE
  5
EF98
  8
0
  6
CONTINUOUS
 62
     3
 10
-24.4000000000001087
 20
285.3856406460550943
 30
-0.0000000000000634
 11
-25.2000000000000597
 21
284.0
 31
-0.0000000000000631
210
-0.0000000000000002
220
1.0
230
-0.0000000000000002
  0
LINE
  5
EF99
  8
0
  6
CONTINUOUS
 62
     3
 10
22.4999999999998295
 20
284.0
 30
-0.0000000000000631
 11
22.4999999999998295
 21
271.0000000000002274
 31
-0.0000000000000602
210
-0.0000000000000002
220
1.0
230
-0.0000000000000002
  0
LINE
  5
EF9A
  8
0
  6
CONTINUOUS
 62
     3
 10
-22.4999999999999609
 20
283.9999999999998863
 30
-0.0000000000000631
 11
-22.4999999999999503
 21
271.0000000000002274
 31
-0.0000000000000602
210
-0.0000000000000002
220
1.0
230
-0.0000000000000002
  0
LINE
  5
EF9B
  8
0
  6
CONTINUOUS
 62
     3
 10
-21.9999999999999503
 20
265.0000000000001137
 30
-0.0000000000000588
 11
-22.4999999999999503
 21
271.0000000000001137
 31
-0.0000000000000602
210
-0.0000000000000002
220
1.0
230
-0.0000000000000002
  0
LINE
  5
EF9C
  8
0
  6
CONTINUOUS
 62
     3
 10
21.9999999999998295
 20
265.0000000000001137
 30
-0.0000000000000588
 11
22.4999999999998295
 21
271.0000000000001137
 31
-0.0000000000000602
210
-0.0000000000000002
220
1.0
230
-0.0000000000000002
  0
ARC
  5
EF9D
  8
0
  6
CONTINUOUS
 62
     3
 10
25.0000000000000817
 20
296.5
 30
0.0
 40
0.999999999999993
210
0.0
220
-0.0000000000000002
230
-1.0
 50
0.0
 51
90.0000000000003979
  0
ARC
  5
EF9E
  8
0
  6
CONTINUOUS
 62
     3
 10
-24.9999999999999503
 20
296.5
 30
0.0
 40
1.0
210
0.0
220
-0.0000000000000002
230
-1.0
 50
89.9999999999995737
 51
180.0
  0
LINE
  5
EF9F
  8
0
  6
CONTINUOUS
 62
     3
 10
25.9999999999999396
 20
296.5
 30
-0.0000000000000658
 11
25.9999999999999396
 21
293.0
 31
-0.0000000000000651
210
-0.0000000000000002
220
1.0
230
-0.0000000000000002
  0
LINE
  5
EFA0
  8
0
  6
CONTINUOUS
 62
     3
 10
-26.0000000000000817
 20
296.5
 30
-0.0000000000000658
 11
-26.0000000000000711
 21
293.0
 31
-0.0000000000000651
210
-0.0000000000000002
220
1.0
230
-0.0000000000000002
  0
ARC
  5
EFA1
  8
0
  6
CONTINUOUS
 62
     3
 10
23.3321397411752898
 20
292.5
 30
0.0
 40
0.5000000000000001
210
0.0
220
-0.0000000000000002
230
-1.0
 50
89.9999999999975415
 51
207.9999999999996021
  0
ARC
  5
EFA2
  8
0
  6
CONTINUOUS
 62
     3
 10
-23.3321397411751583
 20
292.5
 30
0.0
 40
0.4999999999999983
210
0.0
220
-0.0000000000000002
230
-1.0
 50
332.0000000000002842
 51
90.0000000000024443
  0
LINE
  5
EFA3
  8
0
  6
CONTINUOUS
 62
     3
 10
22.8906659447456988
 20
292.2652642186071148
 30
-0.0000000000000649
 11
24.3999999999999808
 21
289.42661971584198
 31
-0.0000000000000643
210
-0.0000000000000002
220
1.0
230
-0.0000000000000002
  0
LINE
  5
EFA4
  8
0
  6
CONTINUOUS
 62
     3
 10
-22.8906659447458303
 20
292.2652642186071148
 30
-0.0000000000000649
 11
-24.4000000000001087
 21
289.42661971584198
 31
-0.0000000000000643
210
-0.0000000000000002
220
1.0
230
-0.0000000000000002
  0
LINE
  5
EFA5
  8
0
  6
CONTINUOUS
 62
     3
 10
24.3999999999999808
 20
289.42661971584198
 30
-0.0000000000000643
 11
24.3999999999999808
 21
289.1000000000000227
 31
-0.0000000000000642
210
-0.0000000000000002
220
1.0
230
-0.0000000000000002
  0
LINE
  5
EFA6
  8
0
  6
CONTINUOUS
 62
     3
 10
-24.4000000000001087
 20
289.42661971584198
 30
-0.0000000000000643
 11
-24.4000000000001087
 21
289.1000000000000227
 31
-0.0000000000000642
210
-0.0000000000000002
220
1.0
230
-0.0000000000000002
  0
LINE
  5
EFA7
  8
0
  6
CONTINUOUS
 62
     3
 10
24.3999999999999808
 20
289.1000000000000227
 30
-0.0000000000000642
 11
25.0
 21
288.5
 31
-0.0000000000000641
210
-0.0000000000000002
220
1.0
230
-0.0000000000000002
  0
LINE
  5
EFA8
  8
0
  6
CONTINUOUS
 62
     3
 10
-24.4000000000001087
 20
289.1000000000000227
 30
-0.0000000000000642
 11
-25.0000000000001315
 21
288.5
 31
-0.0000000000000641
210
-0.0000000000000002
220
1.0
230
-0.0000000000000002
  0
LINE
  5
EFA9
  8
0
  6
CONTINUOUS
 62
     3
 10
24.9999999999999503
 20
288.5
 30
-0.0000000000000641
 11
24.9999999999999503
 21
287.5
 31
-0.0000000000000638
210
-0.0000000000000002
220
1.0
230
-0.0000000000000002
  0
LINE
  5
EFAA
  8
0
  6
CONTINUOUS
 62
     3
 10
-25.0000000000000711
 20
288.5
 30
-0.0000000000000641
 11
-25.0000000000000711
 21
287.5
 31
-0.0000000000000638
210
-0.0000000000000002
220
1.0
230
-0.0000000000000002
  0
CIRCLE
  5
EFAB
  8
0
  6
CONTINUOUS
 62
     3
 10
-0.0000000000001194
 20
496.5000000000001137
 30
-0.0000000000001102
 40
20.0000000000000107
  0
CIRCLE
  5
EFAC
  8
0
  6
CONTINUOUS
 62
     3
 10
0.0000000000001312
 20
496.5000000000001137
 30
0.0
 40
21.0
210
0.0
220
-0.0000000000000002
230
-1.0
  0
LINE
  5
EFAD
  8
0
  6
CONTINUOUS
 62
     3
 10
20.5625566823704595
 20
337.5
 30
-0.0000000000000749
 11
-20.5625566823706301
 21
337.5
 31
-0.0000000000000749
210
-0.0000000000000002
220
1.0
230
-0.0000000000000002
  0
LINE
  5
EFAE
  8
0
  6
CONTINUOUS
 62
     3
 10
-21.0000000000000888
 20
342.5000000000001137
 30
-0.0000000000000761
 11
-21.0000000000001315
 21
496.5000000000001137
 31
-0.0000000000001102
210
-0.0000000000000002
220
1.0
230
-0.0000000000000002
  0
LINE
  5
EFAF
  8
0
  6
CONTINUOUS
 62
     3
 10
20.9999999999999183
 20
342.5000000000001137
 30
-0.0000000000000761
 11
20.9999999999998685
 21
496.5000000000001137
 31
-0.0000000000001102
210
-0.0000000000000002
220
1.0
230
-0.0000000000000002
  0
LINE
  5
EFB0
  8
0
  6
CONTINUOUS
 62
     3
 10
-20.5625566823706301
 20
337.5
 30
-0.0000000000000749
 11
-21.0000000000000888
 21
342.5000000000001137
 31
-0.0000000000000761
210
-0.0000000000000002
220
1.0
230
-0.0000000000000002
  0
LINE
  5
EFB1
  8
0
  6
CONTINUOUS
 62
     3
 10
20.5625566823704595
 20
337.5
 30
-0.0000000000000749
 11
20.9999999999999183
 21
342.5000000000001137
 31
-0.0000000000000761
210
-0.0000000000000002
220
1.0
230
-0.0000000000000002
  0
LINE
  5
EFB2
  8
0
  6
CONTINUOUS
 62
     3
 10
20.5625566823705306
 20
0.0000000000000058
 30
0.0
 11
-20.562556682370559
 21
-0.0000000000000058
 31
0.0
210
-0.0000000000000002
220
1.0
230
-0.0000000000000002
  0
LINE
  5
EFB3
  8
0
  6
CONTINUOUS
 62
     3
 10
23.2998762301443811
 20
170.0000000000001137
 30
-0.0000000000000377
 11
-23.2998762301444984
 21
170.0000000000001137
 31
-0.0000000000000377
210
-0.0000000000000002
220
1.0
230
-0.0000000000000002
  0
LINE
  5
EFB4
  8
0
  6
CONTINUOUS
 62
     3
 10
-21.0000000000000107
 20
5.0000000000000249
 30
-0.0000000000000011
 11
-21.0000000000000497
 21
136.3903074475097128
 31
-0.0000000000000303
210
-0.0000000000000002
220
1.0
230
-0.0000000000000002
  0
LINE
  5
EFB5
  8
0
  6
CONTINUOUS
 62
     3
 10
20.9999999999999893
 20
5.0000000000000364
 30
-0.0000000000000011
 11
20.9999999999999609
 21
136.3903074475097128
 31
-0.0000000000000303
210
-0.0000000000000002
220
1.0
230
-0.0000000000000002
  0
LINE
  5
EFB6
  8
0
  6
CONTINUOUS
 62
     3
 10
-20.562556682370559
 20
-0.0000000000000059
 30
0.0
 11
-21.0000000000000107
 21
5.000000000000024
 31
-0.0000000000000011
210
-0.0000000000000002
220
1.0
230
-0.0000000000000002
  0
LINE
  5
EFB7
  8
0
  6
CONTINUOUS
 62
     3
 10
20.5625566823705306
 20
0.0000000000000059
 30
0.0
 11
20.9999999999999893
 21
5.0000000000000373
 31
-0.0000000000000011
210
-0.0000000000000002
220
1.0
230
-0.0000000000000002
  0
ARC
  5
EFB8
  8
0
  6
CONTINUOUS
 62
     3
 10
-8.9018565478335248
 20
163.0216743248990099
 30
0.0
 40
15.9999999999995399
210
0.0
220
-0.0000000000000002
230
-1.0
 50
154.1418030082622863
 51
180.0000000000003979
  0
ARC
  5
EFB9
  8
0
  6
CONTINUOUS
 62
     3
 10
8.9018565478335034
 20
163.0216743248990099
 30
0.0
 40
15.9999999999996803
210
0.0
220
-0.0000000000000002
230
-1.0
 50
359.9999999999997158
 51
25.8581969917375289
  0
LINE
  5
EFBA
  8
0
  6
CONTINUOUS
 62
     3
 10
-24.9018565478332405
 20
158.3670000000001039
 30
-0.0000000000000352
 11
-24.9018565478332405
 21
163.0216743248988962
 31
-0.0000000000000362
210
-0.0000000000000002
220
1.0
230
-0.0000000000000002
  0
LINE
  5
EFBB
  8
0
  6
CONTINUOUS
 62
     3
 10
24.9018565478331304
 20
158.3670000000001039
 30
-0.0000000000000352
 11
24.9018565478331304
 21
163.0216743248988962
 31
-0.0000000000000362
210
-0.0000000000000002
220
1.0
230
-0.0000000000000002
  0
ARC
  5
EFBC
  8
0
  6
CONTINUOUS
 62
     3
 10
-5.3958409343580671
 20
158.3684603853282908
 30
0.0
 40
19.5060156681434584
210
0.0
220
-0.0000000000000002
230
-1.0
 50
180.0042896467051889
 51
198.1925286248431064
  0
ARC
  5
EFBD
  8
0
  6
CONTINUOUS
 62
     3
 10
5.3958409343583122
 20
158.3684603853282056
 30
0.0
 40
19.5060156681433305
210
0.0
220
-0.0000000000000002
230
-1.0
 50
341.8074713751566946
 51
359.9957103532947826
  0
ARC
  5
EFBE
  8
0
  6
CONTINUOUS
 62
     3
 10
-33.9018565478351732
 20
148.9999999999998863
 30
0.0
 40
10.5000000000020393
210
0.0
220
-0.0000000000000002
230
-1.0
 50
0.0000000000023154
 51
18.1939705983812416
  0
ARC
  5
EFBF
  8
0
  6
CONTINUOUS
 62
     3
 10
33.9018565478352798
 20
148.9999999999998863
 30
0.0
 40
10.5000000000020393
210
0.0
220
-0.0000000000000002
230
-1.0
 50
161.8060294016187015
 51
179.9999999999976978
  0
LINE
  5
EFC0
  8
0
  6
CONTINUOUS
 62
     3
 10
-23.4018565478332299
 20
144.8218253804967048
 30
-0.0000000000000322
 11
-23.4018565478332299
 21
149.0000000000003126
 31
-0.0000000000000331
210
-0.0000000000000002
220
1.0
230
-0.0000000000000002
  0
LINE
  5
EFC1
  8
0
  6
CONTINUOUS
 62
     3
 10
23.4018565478331304
 20
144.8218253804967048
 30
-0.0000000000000322
 11
23.4018565478331304
 21
149.0000000000003126
 31
-0.0000000000000331
210
-0.0000000000000002
220
1.0
230
-0.0000000000000002
  0
ARC
  5
EFC2
  8
0
  6
CONTINUOUS
 62
     3
 10
-13.9018565478332299
 20
144.8218253804965912
 30
0.0
 40
9.4999999999998934
210
0.0
220
-0.0000000000000002
230
-1.0
 50
179.9999999999996021
 51
211.8009488965998912
  0
ARC
  5
EFC3
  8
0
  6
CONTINUOUS
 62
     3
 10
13.9018565478335105
 20
144.8218253804965912
 30
0.0
 40
9.4999999999997087
210
0.0
220
-0.0000000000000002
230
-1.0
 50
328.1990511033998246
 51
0.0000000000006857
  0
ARC
  5
EFC4
  8
0
  6
CONTINUOUS
 62
     3
 10
-27.4999999999997087
 20
136.3903074475090875
 30
0.0
 40
6.4999999999997531
210
0.0
220
-0.0000000000000002
230
-1.0
 50
0.0
 51
31.8009488965999303
  0
ARC
  5
EFC5
  8
0
  6
CONTINUOUS
 62
     3
 10
27.5000000000001101
 20
136.3903074475090023
 30
0.0
 40
6.5000000000000462
210
0.0
220
-0.0000000000000002
230
-1.0
 50
148.1990511033951066
 51
179.9999999999938893
  0
LINE
  5
EFC6
  8
0
  6
CONTINUOUS
 62
     3
 10
-26.0000000000000391
 20
225.0000000000001137
 30
-0.00000000000005
 11
-0.00000000000005
 21
225.0000000000001137
 31
-0.00000000000005
210
-0.0000000000000002
220
1.0
230
-0.0000000000000002
  0
LINE
  5
EFC7
  8
0
  6
CONTINUOUS
 62
     3
 10
-0.0000000000000422
 20
225.0000000000001137
 30
-0.00000000000005
 11
25.9999999999999609
 21
225.0000000000001137
 31
-0.00000000000005
210
-0.0000000000000002
220
1.0
230
-0.0000000000000002
  0
LINE
  5
EFC8
  8
0
  6
CONTINUOUS
 62
     3
 10
21.4958352534598802
 20
210.5
 30
-0.0000000000000467
 11
-0.0000000000000361
 21
210.5
 31
-0.0000000000000467
210
-0.0000000000000002
220
1.0
230
-0.0000000000000002
  0
LINE
  5
EFC9
  8
0
  6
CONTINUOUS
 62
     3
 10
-0.0000000000000409
 20
210.5
 30
-0.0000000000000467
 11
-21.4958352534599513
 21
210.5
 31
-0.0000000000000467
210
-0.0000000000000002
220
1.0
230
-0.0000000000000002
  0
LINE
  5
EFCA
  8
0
  6
CONTINUOUS
 62
     3
 10
-26.0000000000000391
 20
224.0
 30
-0.0000000000000497
 11
-0.0000000000000497
 21
224.0
 31
-0.0000000000000497
210
-0.0000000000000002
220
1.0
230
-0.0000000000000002
  0
LINE
  5
EFCB
  8
0
  6
CONTINUOUS
 62
     3
 10
-0.0000000000000417
 20
224.0
 30
-0.0000000000000497
 11
25.9999999999999609
 21
224.0
 31
-0.0000000000000497
210
-0.0000000000000002
220
1.0
230
-0.0000000000000002
  0
ARC
  5
EFCC
  8
0
  6
CONTINUOUS
 62
     3
 10
21.49583525345993
 20
211.0000000000001137
 30
0.0
 40
0.5000000000000285
210
0.0
220
-0.0000000000000002
230
-1.0
 50
270.0
 51
354.4995885297880136
  0
ARC
  5
EFCD
  8
0
  6
CONTINUOUS
 62
     3
 10
-21.4958352534598482
 20
211.0000000000001137
 30
0.0
 40
0.5000000000000256
210
0.0
220
-0.0000000000000002
230
-1.0
 50
185.5004114702095137
 51
269.9999999999974989
  0
LINE
  5
EFCE
  8
0
  6
CONTINUOUS
 62
     3
 10
-21.9935330084720917
 20
210.9520735495173085
 30
-0.0000000000000468
 11
-23.2500000000000817
 21
224.0
 31
-0.0000000000000497
210
-0.0000000000000002
220
1.0
230
-0.0000000000000002
  0
LINE
  5
EFCF
  8
0
  6
CONTINUOUS
 62
     3
 10
21.9935330084720206
 20
210.9520735495173085
 30
-0.0000000000000468
 11
23.2499999999999893
 21
224.0
 31
-0.0000000000000497
210
-0.0000000000000002
220
1.0
230
-0.0000000000000002
  0
LINE
  5
EFD0
  8
0
  6
CONTINUOUS
 62
     3
 10
25.9999999999999609
 20
225.0000000000001137
 30
-0.00000000000005
 11
25.9999999999999609
 21
224.0
 31
-0.0000000000000497
210
-0.0000000000000002
220
1.0
230
-0.0000000000000002
  0
LINE
  5
EFD1
  8
0
  6
CONTINUOUS
 62
     3
 10
-26.0000000000000497
 20
225.0000000000001137
 30
-0.00000000000005
 11
-26.0000000000000497
 21
224.0
 31
-0.0000000000000497
210
-0.0000000000000002
220
1.0
230
-0.0000000000000002
  0
LINE
  5
EFD2
  8
0
  6
VERDECKT
 62
     1
 10
-21.2500000000000711
 20
293.4178204549040743
 30
-0.0000000000000652
 11
21.2499999999999396
 21
293.4178204549040743
 31
-0.0000000000000652
210
-0.0000000000000002
220
1.0
230
-0.0000000000000002
  0
LINE
  5
EFD3
  8
0
  6
VERDECKT
 62
     1
 10
23.5915063509459415
 20
284.7075317547306099
 30
-0.0000000000000632
 11
23.9999999999999503
 21
284.0
 31
-0.0000000000000631
210
-0.0000000000000002
220
1.0
230
-0.0000000000000002
  0
LINE
  5
EFD4
  8
0
  6
VERDECKT
 62
     1
 10
-23.5915063509460694
 20
284.7075317547306099
 30
-0.0000000000000632
 11
-24.0000000000000817
 21
284.0
 31
-0.0000000000000631
210
-0.0000000000000002
220
1.0
230
-0.0000000000000002
  0
ARC
  5
EFD5
  8
0
  6
VERDECKT
 62
     1
 10
23.0849364905387908
 20
284.4150635094609925
 30
0.0
 40
0.5849364905389706
210
0.0
220
-0.0000000000000002
230
-1.0
 50
30.000000000002089
 51
89.9999999999947846
  0
ARC
  5
EFD6
  8
0
  6
VERDECKT
 62
     1
 10
23.0849364905388086
 20
284.4150635094611062
 30
0.0
 40
0.5849364905388371
210
0.0
220
-0.0000000000000002
230
-1.0
 50
89.9999999999965326
 51
180.0000000000055138
  0
ARC
  5
EFD7
  8
0
  6
VERDECKT
 62
     1
 10
-23.0849364905386807
 20
284.4150635094611062
 30
0.0
 40
0.5849364905388585
210
0.0
220
-0.0000000000000002
230
-1.0
 50
359.9999999999943725
 51
90.0000000000034532
  0
ARC
  5
EFD8
  8
0
  6
VERDECKT
 62
     1
 10
-23.08493649053867
 20
284.4150635094609925
 30
0.0
 40
0.5849364905389508
210
0.0
220
-0.0000000000000002
230
-1.0
 50
90.0000000000048601
 51
149.9999999999974989
  0
LINE
  5
EFD9
  8
0
  6
VERDECKT
 62
     1
 10
23.0849364905387198
 20
285.0
 30
-0.0000000000000633
 11
-23.0849364905388512
 21
285.0
 31
-0.0000000000000633
210
-0.0000000000000002
220
1.0
230
-0.0000000000000002
  0
LINE
  5
EFDA
  8
0
  6
VERDECKT
 62
     1
 10
22.4999999999998295
 20
284.4150635094609925
 30
-0.0000000000000632
 11
22.4999999999998295
 21
284.0
 31
-0.0000000000000631
210
-0.0000000000000002
220
1.0
230
-0.0000000000000002
  0
LINE
  5
EFDB
  8
0
  6
VERDECKT
 62
     1
 10
-22.4999999999999609
 20
284.4150635094609925
 30
-0.0000000000000632
 11
-22.4999999999999609
 21
283.9999999999998863
 31
-0.0000000000000631
210
-0.0000000000000002
220
1.0
230
-0.0000000000000002
  0
ARC
  5
EFDC
  8
0
  6
VERDECKT
 62
     1
 10
21.9999999999999609
 20
266.2500000000001137
 30
0.0
 40
1.2500000000000171
210
0.0
220
-0.0000000000000002
230
-1.0
 50
143.1301023541564916
 51
269.9999999999997158
  0
ARC
  5
EFDD
  8
0
  6
VERDECKT
 62
     1
 10
-21.9999999999998401
 20
266.2500000000001137
 30
0.0
 40
1.25
210
0.0
220
-0.0000000000000002
230
-1.0
 50
270.0
 51
36.8698976458431176
  0
ARC
  5
EFDE
  8
0
  6
VERDECKT
 62
     1
 10
19.9999999999996199
 20
267.7500000000002274
 30
0.0
 40
1.2500000000003151
210
0.0
220
-0.0000000000000002
230
-1.0
 50
323.1301023541602717
 51
359.9999999999948272
  0
ARC
  5
EFDF
  8
0
  6
VERDECKT
 62
     1
 10
-19.9999999999994991
 20
267.7500000000002274
 30
0.0
 40
1.2500000000003231
210
0.0
220
-0.0000000000000002
230
-1.0
 50
180.0000000000050875
 51
216.8698976458395862
  0
LINE
  5
EFE0
  8
0
  6
VERDECKT
 62
     1
 10
21.2499999999998295
 20
281.4019237886469114
 30
-0.0000000000000625
 11
21.2499999999998295
 21
267.7500000000001137
 31
-0.0000000000000595
210
-0.0000000000000002
220
1.0
230
-0.0000000000000002
  0
LINE
  5
EFE1
  8
0
  6
VERDECKT
 62
     1
 10
-21.2499999999999609
 20
281.4019237886469114
 30
-0.0000000000000625
 11
-21.2499999999999503
 21
267.7500000000001137
 31
-0.0000000000000595
210
-0.0000000000000002
220
1.0
230
-0.0000000000000002
  0
ARC
  5
EFE2
  8
0
  6
VERDECKT
 62
     1
 10
19.7499999999997584
 20
281.401923788646684
 30
0.0
 40
1.500000000000238
210
0.0
220
-0.0000000000000002
230
-1.0
 50
0.0000000000043383
 51
59.9999999999950688
  0
ARC
  5
EFE3
  8
0
  6
VERDECKT
 62
     1
 10
-19.7499999999996305
 20
281.401923788646684
 30
0.0
 40
1.5000000000002389
210
0.0
220
-0.0000000000000002
230
-1.0
 50
120.0000000000049027
 51
179.9999999999957083
  0
ARC
  5
EFE4
  8
0
  6
VERDECKT
 62
     1
 10
21.2499999999999893
 20
284.0000000000001137
 30
0.0
 40
1.4999999999999269
210
0.0
220
-0.0000000000000002
230
-1.0
 50
131.8103148957775943
 51
239.9999999999984936
  0
ARC
  5
EFE5
  8
0
  6
VERDECKT
 62
     1
 10
-21.2499999999998614
 20
284.0000000000001137
 30
0.0
 40
1.4999999999999221
210
0.0
220
-0.0000000000000002
230
-1.0
 50
300.0000000000014211
 51
48.1896851042223915
  0
ARC
  5
EFE6
  8
0
  6
VERDECKT
 62
     1
 10
18.249999999999801
 20
287.3541019662498002
 30
0.0
 40
3.0000000000001892
210
0.0
220
-0.0000000000000002
230
-1.0
 50
311.8103148957831081
 51
0.0000000000010928
  0
ARC
  5
EFE7
  8
0
  6
VERDECKT
 62
     1
 10
-18.2499999999996803
 20
287.3541019662498002
 30
0.0
 40
3.0000000000002061
210
0.0
220
-0.0000000000000002
230
-1.0
 50
179.9999999999988916
 51
228.1896851042168066
  0
LINE
  5
EFE8
  8
0
  6
VERDECKT
 62
     1
 10
21.2499999999999396
 20
293.4178204549040743
 30
-0.0000000000000652
 11
21.2499999999999396
 21
287.3541019662499139
 31
-0.0000000000000638
210
-0.0000000000000002
220
1.0
230
-0.0000000000000002
  0
LINE
  5
EFE9
  8
0
  6
VERDECKT
 62
     1
 10
-21.2500000000000711
 20
293.4178204549040743
 30
-0.0000000000000652
 11
-21.2500000000000711
 21
287.3541019662499139
 31
-0.0000000000000638
210
-0.0000000000000002
220
1.0
230
-0.0000000000000002
  0
LINE
  5
EFEA
  8
0
  6
VERDECKT
 62
     1
 10
-21.2500000000000604
 20
293.4178204549040743
 30
-0.0000000000000652
 11
-21.969798393896621
 21
297.4999999999998863
 31
-0.0000000000000661
210
-0.0000000000000002
220
1.0
230
-0.0000000000000002
  0
LINE
  5
EFEB
  8
0
  6
VERDECKT
 62
     1
 10
21.2499999999999289
 20
293.4178204549040743
 30
-0.0000000000000652
 11
21.9697983938964789
 21
297.4999999999998863
 31
-0.0000000000000661
210
-0.0000000000000002
220
1.0
230
-0.0000000000000002
  0
LINE
  5
EFEC
  8
0
  6
VERDECKT
 62
     1
 10
19.5663619842787
 20
337.5871557427477114
 30
-0.000000000000075
 11
-19.5663619842788705
 21
337.5871557427477114
 31
-0.000000000000075
210
-0.0000000000000002
220
1.0
230
-0.0000000000000002
  0
LINE
  5
EFED
  8
0
  6
VERDECKT
 62
     1
 10
-20.0000000000000888
 20
342.5436609429070245
 30
-0.0000000000000761
 11
-20.0000000000001315
 21
496.5000000000001137
 31
-0.0000000000001102
210
-0.0000000000000002
220
1.0
230
-0.0000000000000002
  0
LINE
  5
EFEE
  8
0
  6
VERDECKT
 62
     1
 10
19.9999999999999183
 20
342.5436609429070245
 30
-0.0000000000000761
 11
19.9999999999998792
 21
496.5000000000001137
 31
-0.0000000000001102
210
-0.0000000000000002
220
1.0
230
-0.0000000000000002
  0
LINE
  5
EFEF
  8
0
  6
VERDECKT
 62
     1
 10
-19.5663619842788705
 20
337.5871557427475977
 30
-0.000000000000075
 11
-20.0000000000000888
 21
342.5436609429070245
 31
-0.0000000000000761
210
-0.0000000000000002
220
1.0
230
-0.0000000000000002
  0
LINE
  5
EFF0
  8
0
  6
VERDECKT
 62
     1
 10
19.5663619842787
 20
337.5871557427475977
 30
-0.000000000000075
 11
19.9999999999999183
 21
342.5436609429070245
 31
-0.0000000000000761
210
-0.0000000000000002
220
1.0
230
-0.0000000000000002
  0
LINE
  5
EFF1
  8
0
  6
VERDECKT
 62
     1
 10
19.5663619842787
 20
337.5871557427477114
 30
-0.000000000000075
 11
20.5625566823704595
 21
337.5
 31
-0.0000000000000749
210
-0.0000000000000002
220
1.0
230
-0.0000000000000002
  0
LINE
  5
EFF2
  8
0
  6
VERDECKT
 62
     1
 10
-19.5663619842788705
 20
337.5871557427477114
 30
-0.000000000000075
 11
-20.5625566823706301
 21
337.5
 31
-0.0000000000000749
210
-0.0000000000000002
220
1.0
230
-0.0000000000000002
  0
LINE
  5
EFF3
  8
0
  6
VERDECKT
 62
     1
 10
19.5663619842787817
 20
0.0871557427476602
 30
0.0
 11
-19.5663619842787995
 21
0.0871557427476491
 31
0.0
210
-0.0000000000000002
220
1.0
230
-0.0000000000000002
  0
LINE
  5
EFF4
  8
0
  6
VERDECKT
 62
     1
 10
22.3999999999999204
 20
169.5638546453062077
 30
-0.0000000000000377
 11
-22.4000000000000412
 21
169.5638546453062077
 31
-0.0000000000000377
210
-0.0000000000000002
220
1.0
230
-0.0000000000000002
  0
LINE
  5
EFF5
  8
0
  6
VERDECKT
 62
     1
 10
-19.9999999999999609
 20
5.0436609429069934
 30
-0.0000000000000011
 11
-19.9999999999999893
 21
136.3903074475097128
 31
-0.0000000000000303
210
-0.0000000000000002
220
1.0
230
-0.0000000000000002
  0
LINE
  5
EFF6
  8
0
  6
VERDECKT
 62
     1
 10
20.0000000000000497
 20
5.0436609429070041
 30
-0.0000000000000011
 11
20.0000000000000213
 21
136.3903074475095991
 31
-0.0000000000000303
210
-0.0000000000000002
220
1.0
230
-0.0000000000000002
  0
LINE
  5
EFF7
  8
0
  6
VERDECKT
 62
     1
 10
-19.5663619842787995
 20
0.087155742747649
 30
0.0
 11
-20.0000000000000107
 21
5.0436609429069916
 31
-0.0000000000000011
210
-0.0000000000000002
220
1.0
230
-0.0000000000000002
  0
LINE
  5
EFF8
  8
0
  6
VERDECKT
 62
     1
 10
19.5663619842787817
 20
0.0871557427476603
 30
0.0
 11
19.9999999999999893
 21
5.0436609429070041
 31
-0.0000000000000011
210
-0.0000000000000002
220
1.0
230
-0.0000000000000002
  0
LINE
  5
EFF9
  8
0
  6
VERDECKT
 62
     1
 10
19.5663619842787817
 20
0.0871557427476602
 30
0.0
 11
20.5625566823705306
 21
0.0000000000000058
 31
0.0
210
-0.0000000000000002
220
1.0
230
-0.0000000000000002
  0
LINE
  5
EFFA
  8
0
  6
VERDECKT
 62
     1
 10
-19.5663619842787995
 20
0.0871557427476491
 30
0.0
 11
-20.562556682370559
 21
-0.0000000000000058
 31
0.0
210
-0.0000000000000002
220
1.0
230
-0.0000000000000002
  0
ARC
  5
EFFB
  8
0
  6
VERDECKT
 62
     1
 10
-8.9018565478337326
 20
163.0216743248990952
 30
0.0
 40
14.9999999999993197
210
0.0
220
-0.0000000000000002
230
-1.0
 50
154.141803008262201
 51
180.0000000000005969
  0
ARC
  5
EFFC
  8
0
  6
VERDECKT
 62
     1
 10
8.9018565478337752
 20
163.0216743248990952
 30
0.0
 40
14.9999999999993996
210
0.0
220
-0.0000000000000002
230
-1.0
 50
359.9999999999993747
 51
25.8581969917377315
  0
LINE
  5
EFFD
  8
0
  6
VERDECKT
 62
     1
 10
-22.4000000000000306
 20
169.5638546453062929
 30
-0.0000000000000377
 11
-23.2998762301444984
 21
170.0000000000001137
 31
-0.0000000000000377
210
-0.0000000000000002
220
1.0
230
-0.0000000000000002
  0
LINE
  5
EFFE
  8
0
  6
VERDECKT
 62
     1
 10
22.3999999999999098
 20
169.5638546453062929
 30
-0.0000000000000377
 11
23.2998762301443811
 21
170.0000000000001137
 31
-0.0000000000000377
210
-0.0000000000000002
220
1.0
230
-0.0000000000000002
  0
ARC
  5
EFFF
  8
0
  6
VERDECKT
 62
     1
 10
-27.4999999999998792
 20
136.3903074475095138
 30
0.0
 40
7.4999999999999156
210
0.0
220
-0.0000000000000002
230
-1.0
 50
0.0000000000004198
 51
31.8009488966015397
  0
ARC
  5
F000
  8
0
  6
VERDECKT
 62
     1
 10
27.4999999999999396
 20
136.3903074475095138
 30
0.0
 40
7.4999999999998721
210
0.0
220
-0.0000000000000002
230
-1.0
 50
148.1990511033982045
 51
179.9999999999986073
  0
ARC
  5
F001
  8
0
  6
VERDECKT
 62
     1
 10
-13.9018565478327201
 20
144.8218253804973017
 30
0.0
 40
8.500000000000405
210
0.0
220
-0.0000000000000002
230
-1.0
 50
180.0000000000036948
 51
211.8009488966013976
  0
ARC
  5
F002
  8
0
  6
VERDECKT
 62
     1
 10
13.9018565478327805
 20
144.8218253804973017
 30
0.0
 40
8.5000000000004565
210
0.0
220
-0.0000000000000002
230
-1.0
 50
328.1990511033985172
 51
359.999999999996021
  0
LINE
  5
F003
  8
0
  6
VERDECKT
 62
     1
 10
-22.4018565478332299
 20
144.8218253804967048
 30
-0.0000000000000322
 11
-22.4018565478332299
 21
149.0000000000003126
 31
-0.0000000000000331
210
-0.0000000000000002
220
1.0
230
-0.0000000000000002
  0
LINE
  5
F004
  8
0
  6
VERDECKT
 62
     1
 10
22.4018565478331304
 20
144.8218253804967048
 30
-0.0000000000000322
 11
22.4018565478331304
 21
149.0000000000003126
 31
-0.0000000000000331
210
-0.0000000000000002
220
1.0
230
-0.0000000000000002
  0
ARC
  5
F005
  8
0
  6
VERDECKT
 62
     1
 10
-33.9018565478330132
 20
149.0000000000003126
 30
0.0
 40
11.4999999999998792
210
0.0
220
-0.0000000000000002
230
-1.0
 50
0.0000000000001272
 51
18.1939705983825384
  0
ARC
  5
F006
  8
0
  6
VERDECKT
 62
     1
 10
33.9018565478331126
 20
149.0000000000003126
 30
0.0
 40
11.4999999999998703
210
0.0
220
-0.0000000000000002
230
-1.0
 50
161.8060294016173941
 51
179.9999999999998863
  0
ARC
  5
F007
  8
0
  6
VERDECKT
 62
     1
 10
-5.3958408327520431
 20
158.3684604099950093
 30
0.0
 40
18.5060157727055099
210
0.0
220
-0.0000000000000002
230
-1.0
 50
180.0045215204708882
 51
198.1924506800023948
  0
ARC
  5
F008
  8
0
  6
VERDECKT
 62
     1
 10
5.3958408327520191
 20
158.3684604099950093
 30
0.0
 40
18.5060157727056485
210
0.0
220
-0.0000000000000002
230
-1.0
 50
341.8075493199975767
 51
359.9954784795290266
  0
LINE
  5
F009
  8
0
  6
VERDECKT
 62
     1
 10
-23.9018565478332405
 20
158.3670000000001039
 30
-0.0000000000000352
 11
-23.9018565478332405
 21
163.0216743248988962
 31
-0.0000000000000362
210
-0.0000000000000002
220
1.0
230
-0.0000000000000002
  0
LINE
  5
F00A
  8
0
  6
VERDECKT
 62
     1
 10
23.9018565478331197
 20
158.3670000000001039
 30
-0.0000000000000352
 11
23.9018565478331197
 21
163.0216743248988962
 31
-0.0000000000000362
210
-0.0000000000000002
220
1.0
230
-0.0000000000000002
  0
LINE
  5
F00B
  8
0
  6
VERDECKT
 62
     1
 10
-21.0416705069198287
 20
211.5
 30
-0.000000000000047
 11
-0.0000000000000399
 21
211.5
 31
-0.000000000000047
210
-0.0000000000000002
220
1.0
230
-0.0000000000000002
  0
LINE
  5
F00C
  8
0
  6
VERDECKT
 62
     1
 10
-0.0000000000000385
 20
211.5
 30
-0.000000000000047
 11
21.0416705069197505
 21
211.5
 31
-0.000000000000047
210
-0.0000000000000002
220
1.0
230
-0.0000000000000002
  0
ARC
  5
F00D
  8
0
  6
VERDECKT
 62
     1
 10
22.7958352534598987
 20
224.5000000000001137
 30
0.0
 40
0.4999999999999717
210
0.0
220
-0.0000000000000002
230
-1.0
 50
89.9999999999983373
 51
174.4995885298029918
  0
ARC
  5
F00E
  8
0
  6
VERDECKT
 62
     1
 10
-22.7958352534598099
 20
224.5000000000001137
 30
0.0
 40
0.499999999999983
210
0.0
220
-0.0000000000000002
230
-1.0
 50
5.5004114701968803
 51
90.0000000000016058
  0
LINE
  5
F00F
  8
0
  6
VERDECKT
 62
     1
 10
-21.0416705069198215
 20
211.5
 30
-0.000000000000047
 11
-22.2981374984477583
 21
224.5479264504826915
 31
-0.0000000000000499
210
-0.0000000000000002
220
1.0
230
-0.0000000000000002
  0
LINE
  5
F010
  8
0
  6
VERDECKT
 62
     1
 10
21.0416705069197398
 20
211.5
 30
-0.000000000000047
 11
22.2981374984476695
 21
224.5479264504826915
 31
-0.0000000000000499
210
-0.0000000000000002
220
1.0
230
-0.0000000000000002
  0
ENDBLK
  5
F012
  8
0
  0
ENDSEC
  0
SECTION
  2
ENTITIES
  0
TEXT
  5
A55
  8
TEXT
 62
     1
 10
790.1294755517468502
 20
62.9470459695668723
 30
0.0
 40
7.0
  1

 41
0.8
  7
GREEKS
 72
     1
 11
790.1294755517468502
 21
62.9470459695668723
 31
0.0
  0
INSERT
  5
30AA
  8
ADSK_ASSOC_ENTITY_BACKUPS
  2
*S0
 10
0.0
 20
0.0
 30
0.0
  0
INSERT
  5
EF86
  8
STEMPEL
  2
A$C6459A63D
 10
-100.0
 20
0.0
 30
0.0
  0
INSERT
  5
F013
  8
STEMPEL
  2
A$CDE37EC6D
 10
0.0
 20
0.0
 30
0.0
  0
VIEWPORT
  5
2672
 67
     1
  8
0
 10
205.719010394999998
 20
145.4660656388541042
 30
0.0
 40
559.442566029603654
 41
298.8453452081565729
 68
     1
 69
     1
1001
ACAD
1000
MVIEW
1002
{
1070
    16
1010
0.0
1020
0.0
1030
0.0
1010
0.0
1020
0.0
1030
1.0
1040
0.0
1040
298.8453452081565729
1040
205.719010394999998
1040
145.4660656388541042
1040
50.0
1040
0.0
1040
0.0
1070
     0
1070
  1500
1070
     1
1070
     1
1070
     0
1070
     0
1070
     0
1070
     0
1040
0.0
1040
0.0
1040
0.0
1040
10.0
1040
10.0
1040
10.0
1040
10.0
1070
     0
1002
{
1002
}
1002
}
  0
INSERT
  5
E728
 67
     1
  8
BEM
 62
     2
  2
_NONE
 10
148.1348931849632038
 20
165.4797830451437051
 30
0.0
 41
3.0
 42
3.0
 43
3.0
 50
116.5650511770780042
  0
INSERT
  5
E72D
 67
     1
  8
BEM
 62
     2
  2
_NONE
 10
214.4397394612082905
 20
163.3797830451433128
 30
0.0
 41
3.0
 42
3.0
 43
3.0
 50
119.1903115182395965
  0
INSERT
  5
E732
 67
     1
  8
BEM
 62
     2
  2
_NONE
 10
274.439739461208319
 20
165.4797830451437051
 30
0.0
 41
3.0
 42
3.0
 43
3.0
 50
116.5650511770780042
  0
ENDSEC
  0
EOF
