  0
SECTION
  2
HEADER
  9
$ACADVER
  1
AC1009
  9
$INSBASE
 10
0.0
 20
0.0
 30
0.0
  9
$EXTMIN
 10
-150.017393692416789
 20
-150.0227033458913866
 30
-0.022887310505439
  9
$EXTMAX
 10
150.0032053585202902
 20
305.0438246380584246
 30
0.0000005238689482
  9
$LIMMIN
 10
0.0
 20
0.0
  9
$LIMMAX
 10
419.9999999999998863
 20
594.0
  9
$ORTHOMODE
 70
     1
  9
$REGENMODE
 70
     1
  9
$FILLMODE
 70
     1
  9
$QTEXTMODE
 70
     0
  9
$MIRRTEXT
 70
     1
  9
$DRAGMODE
 70
     2
  9
$LTSCALE
 40
10.0
  9
$OSMODE
 70
   511
  9
$ATTMODE
 70
     1
  9
$TEXTSIZE
 40
3.5
  9
$TRACEWID
 40
1.0
  9
$TEXTSTYLE
  7
STANDARD
  9
$CLAYER
  8
STEMPEL
  9
$CELTYPE
  6
BYLAYER
  9
$CECOLOR
 62
   256
  9
$DIMSCALE
 40
1.0
  9
$DIMASZ
 40
3.5
  9
$DIMEXO
 40
1.0
  9
$DIMDLI
 40
7.0
  9
$DIMRND
 40
0.0
  9
$DIMDLE
 40
0.0
  9
$DIMEXE
 40
1.0
  9
$DIMTP
 40
0.0
  9
$DIMTM
 40
0.2
  9
$DIMTXT
 40
3.5
  9
$DIMCEN
 40
1.5
  9
$DIMTSZ
 40
0.0
  9
$DIMTOL
 70
     0
  9
$DIMLIM
 70
     0
  9
$DIMTIH
 70
     0
  9
$DIMTOH
 70
     0
  9
$DIMSE1
 70
     0
  9
$DIMSE2
 70
     0
  9
$DIMTAD
 70
     1
  9
$DIMZIN
 70
     8
  9
$DIMBLK
  1

  9
$DIMASO
 70
     1
  9
$DIMSHO
 70
     0
  9
$DIMPOST
  1

  9
$DIMAPOST
  1

  9
$DIMALT
 70
     0
  9
$DIMALTD
 70
     2
  9
$DIMALTF
 40
25.3999999999999986
  9
$DIMLFAC
 40
2.0
  9
$DIMTOFL
 70
     1
  9
$DIMTVP
 40
0.0
  9
$DIMTIX
 70
     0
  9
$DIMSOXD
 70
     0
  9
$DIMSAH
 70
     0
  9
$DIMBLK1
  1

  9
$DIMBLK2
  1

  9
$DIMSTYLE
  2
STANDARD
  9
$DIMCLRD
 70
     0
  9
$DIMCLRE
 70
     0
  9
$DIMCLRT
 70
     1
  9
$DIMTFAC
 40
0.5
  9
$DIMGAP
 40
1.5
  9
$LUNITS
 70
     2
  9
$LUPREC
 70
     2
  9
$SKETCHINC
 40
1.0
  9
$FILLETRAD
 40
0.5
  9
$AUNITS
 70
     0
  9
$AUPREC
 70
     0
  9
$MENU
  1
ACAD
  9
$ELEVATION
 40
0.0
  9
$PELEVATION
 40
0.0
  9
$THICKNESS
 40
0.0
  9
$LIMCHECK
 70
     0
  9
$BLIPMODE
 70
     0
  9
$CHAMFERA
 40
0.0
  9
$CHAMFERB
 40
0.0
  9
$SKPOLY
 70
     0
  9
$TDCREATE
 40
2455397.867048610933125
  9
$TDUPDATE
 40
2459627.3476851847954094
  9
$TDINDWG
 40
0.9838712153
  9
$TDUSRTIMER
 40
0.9838712153
  9
$USRTIMER
 70
     1
  9
$ANGBASE
 50
0.0
  9
$ANGDIR
 70
     0
  9
$PDMODE
 70
     0
  9
$PDSIZE
 40
0.0
  9
$PLINEWID
 40
0.0
  9
$COORDS
 70
     1
  9
$SPLFRAME
 70
     0
  9
$SPLINETYPE
 70
     6
  9
$SPLINESEGS
 70
     8
  9
$ATTDIA
 70
     1
  9
$ATTREQ
 70
     1
  9
$HANDLING
 70
     1
  9
$HANDSEED
  5
68A3
  9
$SURFTAB1
 70
     6
  9
$SURFTAB2
 70
     6
  9
$SURFTYPE
 70
     6
  9
$SURFU
 70
     6
  9
$SURFV
 70
     6
  9
$UCSNAME
  2

  9
$UCSORG
 10
0.0
 20
0.0
 30
0.0
  9
$UCSXDIR
 10
1.0
 20
0.0
 30
0.0
  9
$UCSYDIR
 10
0.0
 20
1.0
 30
0.0
  9
$PUCSNAME
  2

  9
$PUCSORG
 10
0.0
 20
0.0
 30
0.0
  9
$PUCSXDIR
 10
1.0
 20
0.0
 30
0.0
  9
$PUCSYDIR
 10
0.0
 20
1.0
 30
0.0
  9
$USERI1
 70
     0
  9
$USERI2
 70
     0
  9
$USERI3
 70
     0
  9
$USERI4
 70
     0
  9
$USERI5
 70
     0
  9
$USERR1
 40
0.0
  9
$USERR2
 40
0.0
  9
$USERR3
 40
0.0
  9
$USERR4
 40
0.0
  9
$USERR5
 40
0.0
  9
$WORLDVIEW
 70
     1
  9
$SHADEDGE
 70
     3
  9
$SHADEDIF
 70
    70
  9
$TILEMODE
 70
     1
  9
$MAXACTVP
 70
    16
  9
$PLIMCHECK
 70
     0
  9
$PEXTMIN
 10
1.0000000000000000E+20
 20
1.0000000000000000E+20
 30
1.0000000000000000E+20
  9
$PEXTMAX
 10
-1.0000000000000000E+20
 20
-1.0000000000000000E+20
 30
-1.0000000000000000E+20
  9
$PLIMMIN
 10
-4.2680346425514131
 20
-3.0104163643874808
  9
$PLIMMAX
 10
415.7319653574485869
 20
293.9895836356125187
  9
$UNITMODE
 70
     0
  9
$VISRETAIN
 70
     0
  9
$PLINEGEN
 70
     0
  9
$PSLTSCALE
 70
     0
  0
ENDSEC
  0
SECTION
  2
TABLES
  0
TABLE
  2
VPORT
 70
     1
  0
VPORT
  2
*ACTIVE
 70
     0
 10
0.0
 20
0.0
 11
1.0
 21
1.0
 12
-0.0070941669482067
 22
77.510560646083519
 13
0.0
 23
0.0
 14
1.0
 24
1.0
 15
10.0
 25
10.0
 16
-0.0000000000002426
 26
0.0
 36
1092.7445218364910033
 17
0.0
 27
0.0
 37
0.0
 40
457.3970983901879208
 41
1.8720136518771331
 42
50.0
 43
0.0
 44
0.0
 50
0.0
 51
0.0
 71
     0
 72
  1500
 73
     1
 74
     1
 75
     0
 76
     0
 77
     0
 78
     0
  0
ENDTAB
  0
TABLE
  2
LTYPE
 70
     3
  0
LTYPE
  2
CONTINUOUS
 70
     0
  3
Solid line
 72
    65
 73
     0
 40
0.0
  0
LTYPE
  2
STRICHPUNKT
 70
     0
  3
__ . __ . __ . __ . __ . __ . __ . __ . __ . __
 72
    65
 73
     4
 40
1.0
 49
0.5
 49
-0.25
 49
0.0
 49
-0.25
  0
LTYPE
  2
VERDECKT
 70
     0
  3
Verdeckt __ __ __ __ __ __ __ __ __ __ __ __ __
 72
    65
 73
     2
 40
0.375
 49
0.25
 49
-0.125
  0
ENDTAB
  0
TABLE
  2
LAYER
 70
     8
  0
LAYER
  2
0
 70
     0
 62
     7
  6
CONTINUOUS
  0
LAYER
  2
VOLL
 70
     0
 62
     1
  6
CONTINUOUS
  0
LAYER
  2
BEM
 70
     0
 62
     7
  6
CONTINUOUS
  0
LAYER
  2
STEMPEL
 70
     0
 62
     3
  6
CONTINUOUS
  0
LAYER
  2
DEFPOINTS
 70
     0
 62
     7
  6
CONTINUOUS
  0
LAYER
  2
ADSK_ASSOC_ENTITY_BACKUPS
 70
     1
 62
    -7
  6
CONTINUOUS
  0
ENDTAB
  0
TABLE
  2
STYLE
 70
     3
  0
STYLE
  2
STANDARD
 70
     0
 40
0.0
 41
0.8
 50
0.0
 71
     0
 42
3.5
  3
simplex.shx
  4

  0
STYLE
  2
GREEKS
 70
     0
 40
0.0
 41
0.8
 50
0.0
 71
     0
 42
2.5
  3
SIMPLEX.shx
  4

  0
ENDTAB
  0
TABLE
  2
VIEW
 70
     0
  0
ENDTAB
  0
TABLE
  2
UCS
 70
     0
  0
ENDTAB
  0
TABLE
  2
APPID
 70
    26
  0
APPID
  2
ACAD
 70
     0
  0
APPID
  2
ACAECLAYERSTANDARD
 70
     0
  0
APPID
  2
ACCMTRANSPARENCY
 70
     0
  0
APPID
  2
ACAD_NAV_VCDISPLAY
 70
     0
  0
APPID
  2
ACAD_PSEXT
 70
     0
  0
APPID
  2
ACAD_EXEMPT_FROM_CAD_STANDARDS
 70
     0
  0
APPID
  2
ACSYNERGY
 70
     0
  0
APPID
  2
SYNERGY_BODY_TBR_ID
 70
     0
  0
APPID
  2
ACAD_VIEW_EDGE_ID
 70
     0
  0
APPID
  2
ACSYNERGYSKETCH
 70
     0
  0
APPID
  2
ACAD_MODELDOC_XFORM
 70
     0
  0
APPID
  2
ACAD_MLEADERVER
 70
     0
  0
APPID
  2
ACADANNOMONITORALERTICONDI
 70
     0
  0
APPID
  2
ACAD_DSTYLE_DIMJAG
 70
     0
  0
APPID
  2
ACAD_DSTYLE_DIMTALN
 70
     0
  0
APPID
  2
ACDBDYNAMICBLOCKGUID
 70
     0
  0
APPID
  2
ACAD_STEPID
 70
     0
  0
APPID
  2
PLOTTRANSPARENCY
 70
     0
  0
APPID
  2
ACADANNOPO
 70
     0
  0
APPID
  2
ACAD_DIMASSOC_CALC_DIMLFAC
 70
     0
  0
APPID
  2
ACAD_DIMASSOC_DIMLFAC
 70
     0
  0
APPID
  2
ACAD_DIMASSOC_OVERRIDDEN_D
 70
     0
  0
APPID
  2
ACAD_DSTYLE_DIMRADIAL_EXTENSION
 70
     0
  0
APPID
  2
ACAD_DSTYLE_DIMBREAK
 70
     0
  0
APPID
  2
ACAD_TC
 70
     0
  0
APPID
  2
ACAD_ASSOCPERSSUBENTMANAGER
 70
     0
  0
ENDTAB
  0
TABLE
  2
DIMSTYLE
 70
     1
  0
DIMSTYLE
  2
STANDARD
 70
     0
  3

  4

  5

  6

  7

 40
1.0
 41
0.18
 42
0.0625
 43
0.38
 44
0.18
 45
0.0
 46
0.0
 47
0.0
 48
0.0
140
0.18
141
0.09
142
0.0
143
25.3999999999999986
144
1.0
145
0.0
146
1.0
147
0.09
 71
     0
 72
     0
 73
     1
 74
     1
 75
     0
 76
     0
 77
     0
 78
     0
170
     0
171
     2
172
     0
173
     0
174
     0
175
     0
176
     0
177
     0
178
     0
  0
ENDTAB
  0
ENDSEC
  0
SECTION
  2
BLOCKS
  0
BLOCK
  8
0
  2
$MODEL_SPACE
 70
     0
 10
0.0
 20
0.0
 30
0.0
  3
$MODEL_SPACE
  1

  0
ENDBLK
  5
38
  8
0
  0
BLOCK
 67
     1
  8
0
  2
$PAPER_SPACE
 70
     0
 10
0.0
 20
0.0
 30
0.0
  3
$PAPER_SPACE
  1

  0
ENDBLK
  5
36
 67
     1
  8
0
  0
BLOCK
  8
0
  2
*S0
 70
     1
 10
0.0
 20
0.0
 30
0.0
  3
*S0
  1

  0
ENDBLK
  5
ACE
  8
0
  0
BLOCK
  8
0
  2
_NONE
 70
     0
 10
0.0
 20
0.0
 30
0.0
  3
_NONE
  1

  0
ENDBLK
  5
39BC
  8
0
  0
BLOCK
  8
0
  2
A$CA04DCD62
 70
     0
 10
0.0
 20
0.0
 30
0.0
  3
A$CA04DCD62
  1

  0
CIRCLE
  5
67DA
  8
0
  6
CONTINUOUS
 62
     3
 10
0.0
 20
-0.0000000000000006
 30
0.0
 40
38.5
210
0.0
220
-0.0000000000000002
230
-1.0
  0
CIRCLE
  5
67DB
  8
0
  6
CONTINUOUS
 62
     3
 10
130.0
 20
-130.0
 30
0.0
 40
2.9999999999999978
210
0.0
220
-0.0000000000000002
230
-1.0
  0
CIRCLE
  5
67DC
  8
0
  6
CONTINUOUS
 62
     3
 10
-130.0
 20
-130.0
 30
0.0
 40
3.0000000000000031
210
0.0
220
-0.0000000000000002
230
-1.0
  0
CIRCLE
  5
67DD
  8
0
  6
CONTINUOUS
 62
     3
 10
-130.0
 20
130.0
 30
0.0
 40
3.0
210
0.0
220
-0.0000000000000002
230
-1.0
  0
CIRCLE
  5
67DE
  8
0
  6
CONTINUOUS
 62
     3
 10
130.0
 20
130.0
 30
0.0
 40
3.000000000000008
210
0.0
220
-0.0000000000000002
230
-1.0
  0
ARC
  5
67DF
  8
0
  6
CONTINUOUS
 62
     3
 10
130.0
 20
-130.0
 30
0.0000000000000289
 40
20.0
 50
270.0
 51
0.0
  0
LINE
  5
67E0
  8
0
  6
CONTINUOUS
 62
     3
 10
150.0
 20
-130.0
 30
0.0000000000000289
 11
150.0
 21
130.0
 31
-0.0000000000000289
210
0.0
220
1.0
230
-0.0000000000000002
  0
ARC
  5
67E1
  8
0
  6
CONTINUOUS
 62
     3
 10
130.0
 20
130.0
 30
-0.0000000000000289
 40
20.0
 50
0.0
 51
90.0
  0
LINE
  5
67E2
  8
0
  6
CONTINUOUS
 62
     3
 10
130.0
 20
150.0
 30
-0.0000000000000333
 11
-130.0
 21
150.0
 31
-0.0000000000000333
210
0.0
220
1.0
230
-0.0000000000000002
  0
ARC
  5
67E3
  8
0
  6
CONTINUOUS
 62
     3
 10
-130.0
 20
130.0
 30
-0.0000000000000289
 40
20.0
 50
90.0
 51
180.0
  0
LINE
  5
67E4
  8
0
  6
CONTINUOUS
 62
     3
 10
-150.0
 20
130.0
 30
-0.0000000000000289
 11
-150.0
 21
-130.0
 31
0.0000000000000289
210
0.0
220
1.0
230
-0.0000000000000002
  0
ARC
  5
67E5
  8
0
  6
CONTINUOUS
 62
     3
 10
-130.0
 20
-130.0
 30
0.0000000000000289
 40
20.0
 50
180.0
 51
270.0
  0
LINE
  5
67E6
  8
0
  6
CONTINUOUS
 62
     3
 10
-130.0
 20
-150.0
 30
0.0000000000000333
 11
130.0
 21
-150.0
 31
0.0000000000000333
210
0.0
220
1.0
230
-0.0000000000000002
  0
CIRCLE
  5
67E7
  8
0
  6
CONTINUOUS
 62
     3
 10
0.0000000000001563
 20
0.0
 30
0.0
 40
32.0
  0
CIRCLE
  5
67E8
  8
0
  6
VERDECKT
 62
     1
 10
0.0
 20
-0.0000000000000006
 30
0.0
 40
39.2347321351080609
210
0.0
220
-0.0000000000000002
230
-1.0
  0
CIRCLE
  5
67E9
  8
0
  6
VERDECKT
 62
     1
 10
0.0000000000001563
 20
0.0
 30
0.0
 40
37.0
  0
CIRCLE
  5
67EA
  8
0
  6
VERDECKT
 62
     1
 10
0.0000000000001563
 20
0.0
 30
0.0
 40
42.3000000000000114
  0
CIRCLE
  5
67EB
  8
0
  6
VERDECKT
 62
     1
 10
0.0000000000001563
 20
0.0
 30
0.0
 40
41.900000000000027
  0
CIRCLE
  5
67EC
  8
0
  6
VERDECKT
 62
     1
 10
0.0000000000001563
 20
0.0
 30
0.0
 40
40.5000000000000568
  0
CIRCLE
  5
67ED
  8
0
  6
VERDECKT
 62
     1
 10
0.0000000000001563
 20
0.0
 30
0.0
 40
42.8000000000000114
  0
CIRCLE
  5
67EE
  8
0
  6
VERDECKT
 62
     1
 10
0.0000000000001563
 20
0.0
 30
0.0
 40
41.0
  0
CIRCLE
  5
67EF
  8
0
  6
VERDECKT
 62
     1
 10
0.0000000000001563
 20
0.0
 30
0.0
 40
38.7140740033711026
  0
ENDBLK
  5
67F1
  8
0
  0
BLOCK
  8
0
  2
A$CE01DFA5E
 70
     0
 10
0.0
 20
0.0
 30
0.0
  3
A$CE01DFA5E
  1

  0
LINE
  5
67F5
  8
0
  6
CONTINUOUS
 62
     3
 10
39.234732135108068
 20
10.0
 30
0.0000000000000087
 11
0.0000000000000142
 21
10.0
 31
0.0
  0
LINE
  5
67F6
  8
0
  6
CONTINUOUS
 62
     3
 10
-0.0000000000000022
 20
10.0
 30
0.0
 11
-39.2347321351080609
 21
10.0
 31
-0.0000000000000087
  0
LINE
  5
67F7
  8
0
  6
CONTINUOUS
 62
     3
 10
150.0
 20
0.000000000000008
 30
0.0000000000000284
 11
150.0
 21
1.0000000000000071
 31
0.0000000000000284
  0
LINE
  5
67F8
  8
0
  6
CONTINUOUS
 62
     3
 10
130.0
 20
0.0000000000000092
 30
0.0000000000000284
 11
150.0
 21
0.000000000000008
 31
0.0000000000000284
  0
LINE
  5
67F9
  8
0
  6
CONTINUOUS
 62
     3
 10
150.0
 20
1.0000000000000071
 30
0.0000000000000284
 11
130.0
 21
1.0000000000000091
 31
0.0000000000000284
  0
LINE
  5
67FA
  8
0
  6
CONTINUOUS
 62
     3
 10
130.0
 20
0.0000000000000092
 30
0.0000000000000284
 11
-130.0
 21
0.0000000000000092
 31
-0.0000000000000293
  0
LINE
  5
67FB
  8
0
  6
CONTINUOUS
 62
     3
 10
-130.0
 20
1.0000000000000091
 30
-0.0000000000000284
 11
130.0
 21
1.0000000000000091
 31
0.0000000000000293
  0
LINE
  5
67FC
  8
0
  6
CONTINUOUS
 62
     3
 10
-150.0
 20
0.000000000000008
 30
-0.0000000000000284
 11
-130.0
 21
0.0000000000000092
 31
-0.0000000000000284
  0
LINE
  5
67FD
  8
0
  6
CONTINUOUS
 62
     3
 10
-130.0
 20
1.0000000000000091
 30
-0.0000000000000284
 11
-150.0
 21
1.0000000000000071
 31
-0.0000000000000284
  0
LINE
  5
67FE
  8
0
  6
CONTINUOUS
 62
     3
 10
-150.0
 20
0.000000000000008
 30
-0.0000000000000284
 11
-150.0
 21
1.0000000000000071
 31
-0.0000000000000284
  0
ARC
  5
67FF
  8
0
  6
CONTINUOUS
 62
     3
 10
45.0
 20
4.0000000000000009
 30
0.00000000000001
 40
3.0000000000000022
 50
192.0
 51
270.0
  0
ARC
  5
6800
  8
0
  6
CONTINUOUS
 62
     3
 10
-45.0
 20
4.0000000000000027
 30
-0.00000000000001
 40
3.0000000000000071
 50
270.0000000000001137
 51
347.9999999999998863
  0
LINE
  5
6801
  8
0
  6
CONTINUOUS
 62
     3
 10
41.6497338161630566
 20
5.3325601290143343
 30
0.0000000000000092
 11
42.0655571977985829
 21
3.376264927546722
 31
0.0000000000000093
  0
LINE
  5
6802
  8
0
  6
CONTINUOUS
 62
     3
 10
-41.6497338161630566
 20
5.3325601290143343
 30
-0.0000000000000092
 11
-42.0655571977985829
 21
3.376264927546722
 31
-0.0000000000000093
  0
ARC
  5
6803
  8
0
  6
CONTINUOUS
 62
     3
 10
31.9452226668008699
 20
3.2698026064174881
 30
0.0000000000000071
 40
9.9213157013132545
 50
12.0000000000001208
 51
42.7154132829001014
  0
ARC
  5
6804
  8
0
  6
CONTINUOUS
 62
     3
 10
-31.9452226668008912
 20
3.2698026064174992
 30
-0.0000000000000071
 40
9.9213157013132367
 50
137.2845867170998133
 51
167.9999999999998863
  0
LINE
  5
6805
  8
0
  6
CONTINUOUS
 62
     3
 10
-42.2999999999998479
 20
100.0000000000000995
 30
-0.0000000000000094
 11
42.3000000000001677
 21
100.0000000000000995
 31
0.0000000000000094
  0
LINE
  5
6806
  8
0
  6
CONTINUOUS
 62
     3
 10
-40.4999999999998366
 20
94.5050451610909761
 30
-0.000000000000009
 11
40.5000000000001492
 21
94.5050451610909334
 31
0.000000000000009
  0
LINE
  5
6807
  8
0
  6
CONTINUOUS
 62
     3
 10
-40.4999999999998366
 20
93.4000000000001478
 30
-0.000000000000009
 11
40.5000000000001492
 21
93.4000000000001336
 31
0.000000000000009
  0
LINE
  5
6808
  8
0
  6
CONTINUOUS
 62
     3
 10
-41.8999999999998707
 20
92.0000000000001279
 30
-0.0000000000000093
 11
41.9000000000001904
 21
92.0000000000000853
 31
0.0000000000000093
  0
LINE
  5
6809
  8
0
  6
CONTINUOUS
 62
     3
 10
-41.8999999999998707
 20
91.0000000000001279
 30
-0.0000000000000093
 11
41.9000000000001904
 21
91.0000000000000995
 31
0.0000000000000093
  0
LINE
  5
680A
  8
0
  6
CONTINUOUS
 62
     3
 10
-40.4999999999998934
 20
89.6000000000001506
 30
-0.000000000000009
 11
40.5000000000002132
 21
89.6000000000001364
 31
0.000000000000009
  0
LINE
  5
680B
  8
0
  6
CONTINUOUS
 62
     3
 10
-40.4999999999998934
 20
89.0000000000001137
 30
-0.000000000000009
 11
40.5000000000002132
 21
89.0000000000001137
 31
0.000000000000009
  0
LINE
  5
680C
  8
0
  6
CONTINUOUS
 62
     3
 10
-42.7999999999998479
 20
85.0000000000001137
 30
-0.0000000000000095
 11
42.8000000000001606
 21
85.0000000000000995
 31
0.0000000000000095
  0
LINE
  5
680D
  8
0
  6
CONTINUOUS
 62
     3
 10
-34.4999999999998508
 20
82.5000000000001421
 30
-0.0000000000000077
 11
34.5000000000001634
 21
82.5000000000001137
 31
0.0000000000000077
  0
ARC
  5
680E
  8
0
  6
CONTINUOUS
 62
     3
 10
-38.8970615154278718
 20
104.0000000000000995
 30
-0.0000000000000086
 40
1.00000000000003
 50
90.0000000000011937
 51
150.588086334470205
  0
ARC
  5
680F
  8
0
  6
CONTINUOUS
 62
     3
 10
38.8970615154281916
 20
104.0000000000000995
 30
0.0000000000000086
 40
1.000000000000028
 50
29.4119136655298092
 51
89.9999999999987637
  0
LINE
  5
6810
  8
0
  6
CONTINUOUS
 62
     3
 10
38.8970615154282129
 20
105.0000000000000995
 30
0.0000000000000086
 11
-38.8970615154278931
 21
105.0000000000000995
 31
-0.0000000000000086
  0
LINE
  5
6811
  8
0
  6
CONTINUOUS
 62
     3
 10
39.7681732327774711
 20
104.4910848968324046
 30
0.0000000000000088
 11
42.3000000000001819
 21
100.0000000000000995
 31
0.0000000000000094
  0
LINE
  5
6812
  8
0
  6
CONTINUOUS
 62
     3
 10
-39.7681732327771584
 20
104.4910848968324046
 30
-0.0000000000000088
 11
-42.2999999999998693
 21
100.0000000000000995
 31
-0.0000000000000094
  0
ARC
  5
6813
  8
0
  6
CONTINUOUS
 62
     3
 10
-39.2140740033709534
 20
99.5000000000001847
 30
-0.0000000000000087
 40
0.5
 50
340.0000000000019895
 51
89.9999999999975557
  0
ARC
  5
6814
  8
0
  6
CONTINUOUS
 62
     3
 10
39.2140740033712518
 20
99.5000000000001705
 30
0.0000000000000087
 40
0.5000000000000023
 50
90.0000000000016058
 51
199.9999999999963904
  0
LINE
  5
6815
  8
0
  6
CONTINUOUS
 62
     3
 10
38.7442276929782921
 20
99.3289899283373501
 30
0.0000000000000086
 11
40.5000000000001634
 21
94.5050451610909334
 31
0.000000000000009
  0
LINE
  5
6816
  8
0
  6
CONTINUOUS
 62
     3
 10
-38.7442276929779794
 20
99.3289899283373643
 30
-0.0000000000000086
 11
-40.4999999999998508
 21
94.5050451610909761
 31
-0.000000000000009
  0
LINE
  5
6817
  8
0
  6
CONTINUOUS
 62
     3
 10
40.5000000000001492
 20
94.5050451610909334
 30
0.000000000000009
 11
40.5000000000001492
 21
93.4000000000001336
 31
0.000000000000009
  0
LINE
  5
6818
  8
0
  6
CONTINUOUS
 62
     3
 10
-40.4999999999998366
 20
94.5050451610909761
 30
-0.000000000000009
 11
-40.4999999999998366
 21
93.4000000000001478
 31
-0.000000000000009
  0
LINE
  5
6819
  8
0
  6
CONTINUOUS
 62
     3
 10
40.5000000000001492
 20
93.4000000000001336
 30
0.000000000000009
 11
41.9000000000001904
 21
92.0000000000000853
 31
0.0000000000000093
  0
LINE
  5
681A
  8
0
  6
CONTINUOUS
 62
     3
 10
-40.4999999999998366
 20
93.4000000000001478
 30
-0.000000000000009
 11
-41.8999999999998707
 21
92.0000000000001279
 31
-0.0000000000000093
  0
LINE
  5
681B
  8
0
  6
CONTINUOUS
 62
     3
 10
41.9000000000001904
 20
92.0000000000000853
 30
0.0000000000000093
 11
41.9000000000001904
 21
91.0000000000000995
 31
0.0000000000000093
  0
LINE
  5
681C
  8
0
  6
CONTINUOUS
 62
     3
 10
-41.8999999999998707
 20
92.0000000000001279
 30
-0.0000000000000093
 11
-41.8999999999998707
 21
91.0000000000001279
 31
-0.0000000000000093
  0
LINE
  5
681D
  8
0
  6
CONTINUOUS
 62
     3
 10
-40.4999999999999005
 20
89.6000000000001506
 30
-0.000000000000009
 11
-41.8999999999998707
 21
91.0000000000001279
 31
-0.0000000000000093
  0
LINE
  5
681E
  8
0
  6
CONTINUOUS
 62
     3
 10
40.5000000000002132
 20
89.6000000000001364
 30
0.000000000000009
 11
41.9000000000001904
 21
91.0000000000000995
 31
0.0000000000000093
  0
LINE
  5
681F
  8
0
  6
CONTINUOUS
 62
     3
 10
40.5000000000002132
 20
89.6000000000001364
 30
0.000000000000009
 11
40.5000000000002132
 21
89.0000000000001137
 31
0.000000000000009
  0
LINE
  5
6820
  8
0
  6
CONTINUOUS
 62
     3
 10
-40.4999999999999005
 20
89.6000000000001506
 30
-0.000000000000009
 11
-40.4999999999999005
 21
89.0000000000001137
 31
-0.000000000000009
  0
LINE
  5
6821
  8
0
  6
CONTINUOUS
 62
     3
 10
40.5000000000002132
 20
89.0000000000001137
 30
0.000000000000009
 11
42.8000000000001677
 21
85.0000000000000995
 31
0.0000000000000095
  0
LINE
  5
6822
  8
0
  6
CONTINUOUS
 62
     3
 10
-40.4999999999999005
 20
89.0000000000001137
 30
-0.000000000000009
 11
-42.7999999999998622
 21
85.0000000000001137
 31
-0.0000000000000095
  0
ARC
  5
6823
  8
0
  6
CONTINUOUS
 62
     3
 10
-34.4999999999998721
 20
86.5000000000001137
 30
-0.0000000000000077
 40
3.9999999999999711
 50
202.0243128370420038
 51
270.0
  0
ARC
  5
6824
  8
0
  6
CONTINUOUS
 62
     3
 10
34.5000000000001918
 20
86.5000000000000711
 30
0.0000000000000077
 40
3.9999999999999538
 50
269.9999999999996021
 51
337.9756871629583088
  0
LINE
  5
6825
  8
0
  6
VERDECKT
 62
     1
 10
38.5
 20
9.3216426534343775
 30
0.0000000000000085
 11
0.0000000000000142
 21
9.3216426534343793
 31
0.0
  0
LINE
  5
6826
  8
0
  6
VERDECKT
 62
     1
 10
-0.0000000000000024
 20
9.3216426534343793
 30
0.0
 11
-38.5
 21
9.3216426534343775
 31
-0.0000000000000085
  0
LINE
  5
6827
  8
0
  6
VERDECKT
 62
     1
 10
40.6715862154292509
 20
5.12464843819658
 30
0.000000000000009
 11
41.0874095970647772
 21
3.1683532367289602
 31
0.0000000000000091
  0
LINE
  5
6828
  8
0
  6
VERDECKT
 62
     1
 10
-40.6715862154292509
 20
5.12464843819658
 30
-0.000000000000009
 11
-41.0874095970647772
 21
3.1683532367289602
 31
-0.0000000000000091
  0
ARC
  5
6829
  8
0
  6
VERDECKT
 62
     1
 10
44.9999999999999929
 20
3.9999999999999929
 30
0.00000000000001
 40
3.9999999999999951
 50
191.9999999999998863
 51
270.0
  0
ARC
  5
682A
  8
0
  6
VERDECKT
 62
     1
 10
-45.0
 20
3.9999999999999951
 30
-0.00000000000001
 40
4.0
 50
270.0
 51
348.0
  0
LINE
  5
682B
  8
0
  6
VERDECKT
 62
     1
 10
-38.5
 20
9.3216426534343775
 30
-0.0000000000000085
 11
-39.2347321351080609
 21
10.0
 31
-0.0000000000000087
  0
LINE
  5
682C
  8
0
  6
VERDECKT
 62
     1
 10
38.5
 20
9.3216426534343775
 30
0.0000000000000085
 11
39.2347321351080609
 21
10.0
 31
0.0000000000000087
  0
ARC
  5
682D
  8
0
  6
VERDECKT
 62
     1
 10
31.9452226668009196
 20
3.2698026064175112
 30
0.0000000000000071
 40
8.9213157013132012
 50
12.0000000000001208
 51
42.7154132829000801
  0
ARC
  5
682E
  8
0
  6
VERDECKT
 62
     1
 10
-31.9452226668009196
 20
3.2698026064175112
 30
-0.0000000000000071
 40
8.9213157013132012
 50
137.2845867170998986
 51
167.9999999999998863
  0
LINE
  5
682F
  8
0
  6
VERDECKT
 62
     1
 10
127.0
 20
0.000000000000008
 30
0.0000000000000284
 11
127.0
 21
1.0000000000000071
 31
0.0000000000000284
  0
LINE
  5
6830
  8
0
  6
VERDECKT
 62
     1
 10
133.0
 20
0.000000000000008
 30
0.0000000000000284
 11
133.0
 21
1.0000000000000071
 31
0.0000000000000284
  0
LINE
  5
6831
  8
0
  6
VERDECKT
 62
     1
 10
-133.0
 20
0.000000000000008
 30
-0.0000000000000284
 11
-133.0
 21
1.0000000000000071
 31
-0.0000000000000284
  0
LINE
  5
6832
  8
0
  6
VERDECKT
 62
     1
 10
-127.0
 20
0.000000000000008
 30
-0.0000000000000284
 11
-127.0
 21
1.0000000000000071
 31
-0.0000000000000284
  0
LINE
  5
6833
  8
0
  6
VERDECKT
 62
     1
 10
-36.9999999999998508
 20
99.0000000000001137
 30
-0.0000000000000082
 11
37.0000000000001634
 21
99.0000000000001137
 31
0.0000000000000082
  0
LINE
  5
6834
  8
0
  6
VERDECKT
 62
     1
 10
-31.9999999999998508
 20
84.0000000000001137
 30
-0.0000000000000071
 11
32.0000000000001634
 21
84.0000000000001137
 31
0.0000000000000071
  0
LINE
  5
6835
  8
0
  6
VERDECKT
 62
     1
 10
37.0000000000001634
 20
99.0000000000001137
 30
0.0000000000000082
 11
37.0000000000001634
 21
89.0000000000001137
 31
0.0000000000000082
  0
LINE
  5
6836
  8
0
  6
VERDECKT
 62
     1
 10
-36.9999999999998508
 20
99.0000000000001137
 30
-0.0000000000000082
 11
-36.9999999999998508
 21
89.0000000000001137
 31
-0.0000000000000082
  0
LINE
  5
6837
  8
0
  6
VERDECKT
 62
     1
 10
-36.9999999999998508
 20
99.0000000000001137
 30
-0.0000000000000082
 11
-37.9122537624156877
 21
104.1736481776671042
 31
-0.0000000000000084
  0
LINE
  5
6838
  8
0
  6
VERDECKT
 62
     1
 10
37.0000000000001634
 20
99.0000000000001137
 30
0.0000000000000082
 11
37.9122537624160003
 21
104.1736481776670047
 31
0.0000000000000084
  0
ARC
  5
6839
  8
0
  6
VERDECKT
 62
     1
 10
-38.8970615154279074
 20
104.0000000000000995
 30
-0.0000000000000086
 40
1.000000000000014
 50
10.0000000000008509
 51
89.9999999999992042
  0
ARC
  5
683A
  8
0
  6
VERDECKT
 62
     1
 10
38.89706151542822
 20
104.0000000000000995
 30
0.0000000000000086
 40
1.000000000000014
 50
90.0000000000007958
 51
169.9999999999990905
  0
LINE
  5
683B
  8
0
  6
VERDECKT
 62
     1
 10
40.1756658041692134
 20
86.5274399525988969
 30
0.0000000000000089
 11
41.0000000000001492
 21
85.0000000000000995
 31
0.0000000000000091
  0
LINE
  5
683C
  8
0
  6
VERDECKT
 62
     1
 10
-40.1756658041689008
 20
86.5274399525989253
 30
-0.0000000000000089
 11
-40.9999999999998366
 21
85.0000000000001137
 31
-0.0000000000000091
  0
ARC
  5
683D
  8
0
  6
VERDECKT
 62
     1
 10
-39.3836461788297498
 20
86.1000000000001364
 30
-0.0000000000000087
 40
0.9000000000000195
 50
90.0000000000008953
 51
151.6449939715899973
  0
ARC
  5
683E
  8
0
  6
VERDECKT
 62
     1
 10
-39.3836461788297711
 20
86.1000000000001648
 30
-0.0000000000000087
 40
0.8999999999999914
 50
4.6824168622656757
 51
90.0
  0
ARC
  5
683F
  8
0
  6
VERDECKT
 62
     1
 10
39.3836461788300909
 20
86.100000000000108
 30
0.0000000000000087
 40
0.9000000000000166
 50
90.0000000000008953
 51
175.3175831377315887
  0
ARC
  5
6840
  8
0
  6
VERDECKT
 62
     1
 10
39.3836461788300625
 20
86.100000000000108
 30
0.0000000000000087
 40
0.9000000000000198
 50
28.3550060284099494
 51
89.9999999999991047
  0
LINE
  5
6841
  8
0
  6
VERDECKT
 62
     1
 10
39.3836461788300767
 20
87.0000000000001279
 30
0.0000000000000087
 11
-39.3836461788297711
 21
87.0000000000001563
 31
-0.0000000000000087
  0
ARC
  5
6842
  8
0
  6
VERDECKT
 62
     1
 10
-34.4999999999996803
 20
86.5000000000001563
 30
-0.0000000000000077
 40
4.0000000000001572
 50
184.6824168622702018
 51
202.0243128370418049
  0
ARC
  5
6843
  8
0
  6
VERDECKT
 62
     1
 10
34.4999999999999005
 20
86.5000000000001563
 30
0.0000000000000077
 40
4.0000000000002496
 50
337.975687162958593
 51
355.3175831377296845
  0
LINE
  5
6844
  8
0
  6
VERDECKT
 62
     1
 10
32.0000000000001634
 20
84.0000000000001137
 30
0.0000000000000071
 11
32.0000000000001634
 21
82.5000000000000995
 31
0.0000000000000071
  0
LINE
  5
6845
  8
0
  6
VERDECKT
 62
     1
 10
-31.9999999999998508
 20
84.0000000000001137
 30
-0.0000000000000071
 11
-31.9999999999998508
 21
82.5000000000001137
 31
-0.0000000000000071
  0
ARC
  5
6846
  8
0
  6
VERDECKT
 62
     1
 10
-31.9999999999998508
 20
89.0000000000001137
 30
-0.0000000000000071
 40
5.0
 50
180.0
 51
270.0
  0
ARC
  5
6847
  8
0
  6
VERDECKT
 62
     1
 10
32.0000000000001634
 20
89.0000000000001137
 30
0.0000000000000071
 40
5.0
 50
270.0
 51
0.0
  0
ENDBLK
  5
6849
  8
0
  0
ENDSEC
  0
SECTION
  2
ENTITIES
  0
TEXT
  5
3D7
  8
VOLL
 10
78.076754716981128
 20
31.025947764705851
 30
0.0
 40
1.8
  1

  7
GREEKS
  0
INSERT
  5
AD0
  8
ADSK_ASSOC_ENTITY_BACKUPS
  2
*S0
 10
0.0
 20
0.0
 30
0.0
  0
INSERT
  5
67F2
  8
STEMPEL
  2
A$CA04DCD62
 10
0.0
 20
0.0
 30
0.0
  0
INSERT
  5
684A
  8
STEMPEL
  2
A$CE01DFA5E
 10
0.0
 20
200.0
 30
-0.0000000000000329
  0
VIEWPORT
  5
AAD
 67
     1
  8
0
 10
205.7319653574485869
 20
145.4895836356124903
 30
0.0
 40
558.8319832755776133
 41
298.5191815856778135
 68
     1
 69
     1
1001
ACAD
1000
MVIEW
1002
{
1070
    16
1010
0.0
1020
0.0
1030
0.0
1010
0.0
1020
0.0
1030
1.0
1040
0.0
1040
298.5191815856778135
1040
205.7319653574485869
1040
145.4895836356124903
1040
50.0
1040
0.0
1040
0.0
1070
     0
1070
  1500
1070
     1
1070
     1
1070
     0
1070
     0
1070
     0
1070
     0
1040
0.0
1040
0.0
1040
0.0
1040
10.0
1040
10.0
1040
10.0
1040
10.0
1070
     0
1002
{
1002
}
1002
}
  0
TEXT
  5
CB0
 67
     1
  8
VOLL
 10
625.5592565604117681
 20
227.4217200880700887
 30
0.0
 40
3.6000000000000001
  1

  7
GREEKS
  0
INSERT
  5
548D
 67
     1
  8
BEM
 62
     2
  2
_NONE
 10
23.4398745320330413
 20
119.8769473413416051
 30
0.0
 41
3.0
 42
3.0
 43
3.0
 50
45.0
  0
ENDSEC
  0
EOF
