  0
SECTION
  2
HEADER
  9
$ACADVER
  1
AC1009
  9
$INSBASE
 10
0.0
 20
0.0
 30
0.0
  9
$EXTMIN
 10
-150.017393692416789
 20
-150.0227033458913866
 30
-0.022887310505439
  9
$EXTMAX
 10
150.0032053585202902
 20
300.502809007771873
 30
0.0000005238689482
  9
$LIMMIN
 10
0.0
 20
0.0
  9
$LIMMAX
 10
419.9999999999998863
 20
594.0
  9
$ORTHOMODE
 70
     1
  9
$REGENMODE
 70
     1
  9
$FILLMODE
 70
     1
  9
$QTEXTMODE
 70
     0
  9
$MIRRTEXT
 70
     1
  9
$DRAGMODE
 70
     2
  9
$LTSCALE
 40
10.0
  9
$OSMODE
 70
   511
  9
$ATTMODE
 70
     1
  9
$TEXTSIZE
 40
3.5
  9
$TRACEWID
 40
1.0
  9
$TEXTSTYLE
  7
STANDARD
  9
$CLAYER
  8
STEMPEL
  9
$CELTYPE
  6
BYLAYER
  9
$CECOLOR
 62
   256
  9
$DIMSCALE
 40
1.0
  9
$DIMASZ
 40
3.5
  9
$DIMEXO
 40
1.0
  9
$DIMDLI
 40
7.0
  9
$DIMRND
 40
0.0
  9
$DIMDLE
 40
0.0
  9
$DIMEXE
 40
1.0
  9
$DIMTP
 40
0.5
  9
$DIMTM
 40
0.0
  9
$DIMTXT
 40
3.5
  9
$DIMCEN
 40
1.5
  9
$DIMTSZ
 40
0.0
  9
$DIMTOL
 70
     0
  9
$DIMLIM
 70
     0
  9
$DIMTIH
 70
     0
  9
$DIMTOH
 70
     0
  9
$DIMSE1
 70
     0
  9
$DIMSE2
 70
     0
  9
$DIMTAD
 70
     1
  9
$DIMZIN
 70
     8
  9
$DIMBLK
  1

  9
$DIMASO
 70
     1
  9
$DIMSHO
 70
     0
  9
$DIMPOST
  1

  9
$DIMAPOST
  1

  9
$DIMALT
 70
     0
  9
$DIMALTD
 70
     2
  9
$DIMALTF
 40
25.3999999999999986
  9
$DIMLFAC
 40
2.0
  9
$DIMTOFL
 70
     1
  9
$DIMTVP
 40
0.0
  9
$DIMTIX
 70
     0
  9
$DIMSOXD
 70
     0
  9
$DIMSAH
 70
     0
  9
$DIMBLK1
  1

  9
$DIMBLK2
  1

  9
$DIMSTYLE
  2
STANDARD
  9
$DIMCLRD
 70
     0
  9
$DIMCLRE
 70
     0
  9
$DIMCLRT
 70
     1
  9
$DIMTFAC
 40
0.5
  9
$DIMGAP
 40
1.5
  9
$LUNITS
 70
     2
  9
$LUPREC
 70
     2
  9
$SKETCHINC
 40
1.0
  9
$FILLETRAD
 40
1.5
  9
$AUNITS
 70
     0
  9
$AUPREC
 70
     0
  9
$MENU
  1
ACAD
  9
$ELEVATION
 40
0.0
  9
$PELEVATION
 40
0.0
  9
$THICKNESS
 40
0.0
  9
$LIMCHECK
 70
     0
  9
$BLIPMODE
 70
     0
  9
$CHAMFERA
 40
0.0
  9
$CHAMFERB
 40
0.0
  9
$SKPOLY
 70
     0
  9
$TDCREATE
 40
2455397.867048610933125
  9
$TDUPDATE
 40
2459627.3477430557832122
  9
$TDINDWG
 40
0.9956189005
  9
$TDUSRTIMER
 40
0.9956189005
  9
$USRTIMER
 70
     1
  9
$ANGBASE
 50
0.0
  9
$ANGDIR
 70
     0
  9
$PDMODE
 70
     0
  9
$PDSIZE
 40
0.0
  9
$PLINEWID
 40
0.0
  9
$COORDS
 70
     1
  9
$SPLFRAME
 70
     0
  9
$SPLINETYPE
 70
     6
  9
$SPLINESEGS
 70
     8
  9
$ATTDIA
 70
     1
  9
$ATTREQ
 70
     1
  9
$HANDLING
 70
     1
  9
$HANDSEED
  5
6BAA
  9
$SURFTAB1
 70
     6
  9
$SURFTAB2
 70
     6
  9
$SURFTYPE
 70
     6
  9
$SURFU
 70
     6
  9
$SURFV
 70
     6
  9
$UCSNAME
  2

  9
$UCSORG
 10
0.0
 20
0.0
 30
0.0
  9
$UCSXDIR
 10
1.0
 20
0.0
 30
0.0
  9
$UCSYDIR
 10
0.0
 20
1.0
 30
0.0
  9
$PUCSNAME
  2

  9
$PUCSORG
 10
0.0
 20
0.0
 30
0.0
  9
$PUCSXDIR
 10
1.0
 20
0.0
 30
0.0
  9
$PUCSYDIR
 10
0.0
 20
1.0
 30
0.0
  9
$USERI1
 70
     0
  9
$USERI2
 70
     0
  9
$USERI3
 70
     0
  9
$USERI4
 70
     0
  9
$USERI5
 70
     0
  9
$USERR1
 40
0.0
  9
$USERR2
 40
0.0
  9
$USERR3
 40
0.0
  9
$USERR4
 40
0.0
  9
$USERR5
 40
0.0
  9
$WORLDVIEW
 70
     1
  9
$SHADEDGE
 70
     3
  9
$SHADEDIF
 70
    70
  9
$TILEMODE
 70
     1
  9
$MAXACTVP
 70
    16
  9
$PLIMCHECK
 70
     0
  9
$PEXTMIN
 10
1.0000000000000000E+20
 20
1.0000000000000000E+20
 30
1.0000000000000000E+20
  9
$PEXTMAX
 10
-1.0000000000000000E+20
 20
-1.0000000000000000E+20
 30
-1.0000000000000000E+20
  9
$PLIMMIN
 10
-4.2704573348815984
 20
-3.0028448982426421
  9
$PLIMMAX
 10
415.7295426651184016
 20
293.9971551017574143
  9
$UNITMODE
 70
     0
  9
$VISRETAIN
 70
     0
  9
$PLINEGEN
 70
     0
  9
$PSLTSCALE
 70
     0
  0
ENDSEC
  0
SECTION
  2
TABLES
  0
TABLE
  2
VPORT
 70
     1
  0
VPORT
  2
*ACTIVE
 70
     0
 10
0.0
 20
0.0
 11
1.0
 21
1.0
 12
-0.0070941669482636
 22
75.2400528309402716
 13
0.0
 23
0.0
 14
1.0
 24
1.0
 15
10.0
 25
10.0
 16
-0.0000000000002426
 26
0.0
 36
1092.7445218364910033
 17
0.0
 27
0.0
 37
0.0
 40
452.831881207533911
 41
1.8720136518771331
 42
50.0
 43
0.0
 44
0.0
 50
0.0
 51
0.0
 71
     0
 72
  1500
 73
     1
 74
     1
 75
     0
 76
     0
 77
     0
 78
     0
  0
ENDTAB
  0
TABLE
  2
LTYPE
 70
     3
  0
LTYPE
  2
CONTINUOUS
 70
     0
  3
Solid line
 72
    65
 73
     0
 40
0.0
  0
LTYPE
  2
STRICHPUNKT
 70
     0
  3
__ . __ . __ . __ . __ . __ . __ . __ . __ . __
 72
    65
 73
     4
 40
1.0
 49
0.5
 49
-0.25
 49
0.0
 49
-0.25
  0
LTYPE
  2
VERDECKT
 70
     0
  3
Verdeckt __ __ __ __ __ __ __ __ __ __ __ __ __
 72
    65
 73
     2
 40
0.375
 49
0.25
 49
-0.125
  0
ENDTAB
  0
TABLE
  2
LAYER
 70
     8
  0
LAYER
  2
0
 70
     0
 62
     7
  6
CONTINUOUS
  0
LAYER
  2
VOLL
 70
     0
 62
     1
  6
CONTINUOUS
  0
LAYER
  2
BEM
 70
     0
 62
     7
  6
CONTINUOUS
  0
LAYER
  2
STEMPEL
 70
     0
 62
     3
  6
CONTINUOUS
  0
LAYER
  2
DEFPOINTS
 70
     0
 62
     7
  6
CONTINUOUS
  0
LAYER
  2
ADSK_ASSOC_ENTITY_BACKUPS
 70
     1
 62
    -7
  6
CONTINUOUS
  0
ENDTAB
  0
TABLE
  2
STYLE
 70
     3
  0
STYLE
  2
STANDARD
 70
     0
 40
0.0
 41
0.8
 50
0.0
 71
     0
 42
3.5
  3
simplex.shx
  4

  0
STYLE
  2
GREEKS
 70
     0
 40
0.0
 41
0.8
 50
0.0
 71
     0
 42
2.5
  3
SIMPLEX.shx
  4

  0
ENDTAB
  0
TABLE
  2
VIEW
 70
     0
  0
ENDTAB
  0
TABLE
  2
UCS
 70
     0
  0
ENDTAB
  0
TABLE
  2
APPID
 70
    26
  0
APPID
  2
ACAD
 70
     0
  0
APPID
  2
ACAECLAYERSTANDARD
 70
     0
  0
APPID
  2
ACCMTRANSPARENCY
 70
     0
  0
APPID
  2
ACAD_NAV_VCDISPLAY
 70
     0
  0
APPID
  2
ACAD_PSEXT
 70
     0
  0
APPID
  2
ACAD_EXEMPT_FROM_CAD_STANDARDS
 70
     0
  0
APPID
  2
ACSYNERGY
 70
     0
  0
APPID
  2
SYNERGY_BODY_TBR_ID
 70
     0
  0
APPID
  2
ACAD_VIEW_EDGE_ID
 70
     0
  0
APPID
  2
ACSYNERGYSKETCH
 70
     0
  0
APPID
  2
ACAD_MODELDOC_XFORM
 70
     0
  0
APPID
  2
ACAD_MLEADERVER
 70
     0
  0
APPID
  2
ACADANNOMONITORALERTICONDI
 70
     0
  0
APPID
  2
ACAD_DSTYLE_DIMJAG
 70
     0
  0
APPID
  2
ACAD_DSTYLE_DIMTALN
 70
     0
  0
APPID
  2
ACDBDYNAMICBLOCKGUID
 70
     0
  0
APPID
  2
ACAD_STEPID
 70
     0
  0
APPID
  2
PLOTTRANSPARENCY
 70
     0
  0
APPID
  2
ACADANNOPO
 70
     0
  0
APPID
  2
ACAD_DIMASSOC_CALC_DIMLFAC
 70
     0
  0
APPID
  2
ACAD_DIMASSOC_DIMLFAC
 70
     0
  0
APPID
  2
ACAD_DIMASSOC_OVERRIDDEN_D
 70
     0
  0
APPID
  2
ACAD_DSTYLE_DIMRADIAL_EXTENSION
 70
     0
  0
APPID
  2
ACAD_DSTYLE_DIMBREAK
 70
     0
  0
APPID
  2
ACAD_TC
 70
     0
  0
APPID
  2
ACAD_ASSOCPERSSUBENTMANAGER
 70
     0
  0
ENDTAB
  0
TABLE
  2
DIMSTYLE
 70
     1
  0
DIMSTYLE
  2
STANDARD
 70
     0
  3

  4

  5

  6

  7

 40
1.0
 41
0.18
 42
0.0625
 43
0.38
 44
0.18
 45
0.0
 46
0.0
 47
0.0
 48
0.0
140
0.18
141
0.09
142
0.0
143
25.3999999999999986
144
1.0
145
0.0
146
1.0
147
0.09
 71
     0
 72
     0
 73
     1
 74
     1
 75
     0
 76
     0
 77
     0
 78
     0
170
     0
171
     2
172
     0
173
     0
174
     0
175
     0
176
     0
177
     0
178
     0
  0
ENDTAB
  0
ENDSEC
  0
SECTION
  2
BLOCKS
  0
BLOCK
  8
0
  2
$MODEL_SPACE
 70
     0
 10
0.0
 20
0.0
 30
0.0
  3
$MODEL_SPACE
  1

  0
ENDBLK
  5
38
  8
0
  0
BLOCK
 67
     1
  8
0
  2
$PAPER_SPACE
 70
     0
 10
0.0
 20
0.0
 30
0.0
  3
$PAPER_SPACE
  1

  0
ENDBLK
  5
36
 67
     1
  8
0
  0
BLOCK
  8
0
  2
*S0
 70
     1
 10
0.0
 20
0.0
 30
0.0
  3
*S0
  1

  0
ENDBLK
  5
ACE
  8
0
  0
BLOCK
  8
0
  2
_NONE
 70
     0
 10
0.0
 20
0.0
 30
0.0
  3
_NONE
  1

  0
ENDBLK
  5
39BC
  8
0
  0
BLOCK
  8
0
  2
A$C612C1CA0
 70
     0
 10
0.0
 20
0.0
 30
0.0
  3
A$C612C1CA0
  1

  0
CIRCLE
  5
6AE4
  8
0
  6
CONTINUOUS
 62
     3
 10
0.0
 20
-0.0000000000000006
 30
0.0
 40
28.0000000000000107
210
0.0
220
-0.0000000000000002
230
-1.0
  0
CIRCLE
  5
6AE5
  8
0
  6
CONTINUOUS
 62
     3
 10
130.0
 20
-130.0
 30
0.0
 40
2.9999999999999978
210
0.0
220
-0.0000000000000002
230
-1.0
  0
CIRCLE
  5
6AE6
  8
0
  6
CONTINUOUS
 62
     3
 10
-130.0
 20
-130.0
 30
0.0
 40
3.0000000000000031
210
0.0
220
-0.0000000000000002
230
-1.0
  0
CIRCLE
  5
6AE7
  8
0
  6
CONTINUOUS
 62
     3
 10
-130.0
 20
130.0
 30
0.0
 40
3.0
210
0.0
220
-0.0000000000000002
230
-1.0
  0
CIRCLE
  5
6AE8
  8
0
  6
CONTINUOUS
 62
     3
 10
130.0
 20
130.0
 30
0.0
 40
3.000000000000008
210
0.0
220
-0.0000000000000002
230
-1.0
  0
ARC
  5
6AE9
  8
0
  6
CONTINUOUS
 62
     3
 10
130.0
 20
-130.0
 30
0.0000000000000289
 40
20.0
 50
270.0
 51
0.0
  0
LINE
  5
6AEA
  8
0
  6
CONTINUOUS
 62
     3
 10
150.0
 20
-130.0
 30
0.0000000000000289
 11
150.0
 21
130.0
 31
-0.0000000000000289
210
0.0
220
1.0
230
-0.0000000000000002
  0
ARC
  5
6AEB
  8
0
  6
CONTINUOUS
 62
     3
 10
130.0
 20
130.0
 30
-0.0000000000000289
 40
20.0
 50
0.0
 51
90.0
  0
LINE
  5
6AEC
  8
0
  6
CONTINUOUS
 62
     3
 10
130.0
 20
150.0
 30
-0.0000000000000333
 11
-130.0
 21
150.0
 31
-0.0000000000000333
210
0.0
220
1.0
230
-0.0000000000000002
  0
ARC
  5
6AED
  8
0
  6
CONTINUOUS
 62
     3
 10
-130.0
 20
130.0
 30
-0.0000000000000289
 40
20.0
 50
90.0
 51
180.0
  0
LINE
  5
6AEE
  8
0
  6
CONTINUOUS
 62
     3
 10
-150.0
 20
130.0
 30
-0.0000000000000289
 11
-150.0
 21
-130.0
 31
0.0000000000000289
210
0.0
220
1.0
230
-0.0000000000000002
  0
ARC
  5
6AEF
  8
0
  6
CONTINUOUS
 62
     3
 10
-130.0
 20
-130.0
 30
0.0000000000000289
 40
20.0
 50
180.0
 51
270.0
  0
LINE
  5
6AF0
  8
0
  6
CONTINUOUS
 62
     3
 10
-130.0
 20
-150.0
 30
0.0000000000000333
 11
130.0
 21
-150.0
 31
0.0000000000000333
210
0.0
220
1.0
230
-0.0000000000000002
  0
CIRCLE
  5
6AF1
  8
0
  6
CONTINUOUS
 62
     3
 10
-0.0000000000000711
 20
0.0
 30
0.0
 40
24.0
  0
CIRCLE
  5
6AF2
  8
0
  6
VERDECKT
 62
     1
 10
0.0
 20
-0.0000000000000006
 30
0.0
 40
28.57936652115119
210
0.0
220
-0.0000000000000002
230
-1.0
  0
CIRCLE
  5
6AF3
  8
0
  6
VERDECKT
 62
     1
 10
-0.0000000000000711
 20
0.0
 30
0.0
 40
30.8499999999999694
  0
CIRCLE
  5
6AF4
  8
0
  6
VERDECKT
 62
     1
 10
-0.0000000000000711
 20
0.0
 30
0.0
 40
30.2499999999999716
  0
CIRCLE
  5
6AF5
  8
0
  6
VERDECKT
 62
     1
 10
-0.0000000000000711
 20
0.0
 30
0.0
 40
31.9999999999999716
  0
CIRCLE
  5
6AF6
  8
0
  6
VERDECKT
 62
     1
 10
-0.0000000000000711
 20
0.0
 30
0.0
 40
29.9999999999999716
  0
CIRCLE
  5
6AF7
  8
0
  6
VERDECKT
 62
     1
 10
-0.0000000000000711
 20
0.0
 30
0.0
 40
27.0
  0
CIRCLE
  5
6AF8
  8
0
  6
VERDECKT
 62
     1
 10
-0.0000000000000711
 20
0.0
 30
0.0
 40
28.0579618842507692
  0
CIRCLE
  5
6AF9
  8
0
  6
VERDECKT
 62
     1
 10
-0.0000000000000711
 20
0.0
 30
0.0
 40
28.8140740033710188
  0
ENDBLK
  5
6AFB
  8
0
  0
BLOCK
  8
0
  2
A$C8659A8B5
 70
     0
 10
0.0
 20
0.0
 30
0.0
  3
A$C8659A8B5
  1

  0
LINE
  5
6AFF
  8
0
  6
CONTINUOUS
 62
     3
 10
28.57936652115119
 20
10.4999999999999396
 30
0.0000000000000063
 11
0.0000000000000071
 21
10.4999999999999396
 31
0.0
  0
LINE
  5
6B00
  8
0
  6
CONTINUOUS
 62
     3
 10
0.0000000000000006
 20
10.4999999999999396
 30
0.0
 11
-28.57936652115119
 21
10.4999999999999396
 31
-0.0000000000000063
  0
LINE
  5
6B01
  8
0
  6
CONTINUOUS
 62
     3
 10
150.0
 20
-0.0000000000000489
 30
0.0000000000000284
 11
150.0
 21
0.9999999999999512
 31
0.0000000000000284
  0
LINE
  5
6B02
  8
0
  6
CONTINUOUS
 62
     3
 10
130.0
 20
-0.0000000000000477
 30
0.0000000000000284
 11
150.0
 21
-0.0000000000000489
 31
0.0000000000000284
  0
LINE
  5
6B03
  8
0
  6
CONTINUOUS
 62
     3
 10
150.0
 20
0.9999999999999512
 30
0.0000000000000284
 11
130.0
 21
0.9999999999999523
 31
0.0000000000000284
  0
LINE
  5
6B04
  8
0
  6
CONTINUOUS
 62
     3
 10
130.0
 20
-0.0000000000000477
 30
0.0000000000000284
 11
-130.0
 21
-0.0000000000000477
 31
-0.0000000000000293
  0
LINE
  5
6B05
  8
0
  6
CONTINUOUS
 62
     3
 10
-130.0
 20
0.9999999999999521
 30
-0.0000000000000284
 11
130.0
 21
0.9999999999999521
 31
0.0000000000000293
  0
LINE
  5
6B06
  8
0
  6
CONTINUOUS
 62
     3
 10
-150.0
 20
-0.0000000000000489
 30
-0.0000000000000284
 11
-130.0
 21
-0.0000000000000477
 31
-0.0000000000000284
  0
LINE
  5
6B07
  8
0
  6
CONTINUOUS
 62
     3
 10
-130.0
 20
0.9999999999999523
 30
-0.0000000000000284
 11
-150.0
 21
0.9999999999999512
 31
-0.0000000000000284
  0
LINE
  5
6B08
  8
0
  6
CONTINUOUS
 62
     3
 10
-150.0
 20
-0.0000000000000489
 30
-0.0000000000000284
 11
-150.0
 21
0.9999999999999512
 31
-0.0000000000000284
  0
ARC
  5
6B09
  8
0
  6
CONTINUOUS
 62
     3
 10
34.0000000000000071
 20
3.2499999999999472
 30
0.0000000000000075
 40
2.250000000000004
 50
184.0000000000001137
 51
269.9999999999997726
  0
ARC
  5
6B0A
  8
0
  6
CONTINUOUS
 62
     3
 10
-34.0000000000000071
 20
3.249999999999948
 30
-0.0000000000000075
 40
2.2500000000000062
 50
270.0000000000002274
 51
355.9999999999997726
  0
LINE
  5
6B0B
  8
0
  6
CONTINUOUS
 62
     3
 10
31.61596793942714
 20
5.0881760345953104
 30
0.000000000000007
 11
31.7554808869154002
 21
3.0930479340756589
 31
0.0000000000000071
  0
LINE
  5
6B0C
  8
0
  6
CONTINUOUS
 62
     3
 10
-31.61596793942714
 20
5.0881760345953104
 30
-0.000000000000007
 11
-31.7554808869154002
 21
3.0930479340756589
 31
-0.0000000000000071
  0
ARC
  5
6B0D
  8
0
  6
CONTINUOUS
 62
     3
 10
24.3724903983315997
 20
4.5816627427620844
 30
0.0000000000000054
 40
7.2611653750041567
 50
3.9999999999999538
 51
54.5940005622422078
  0
ARC
  5
6B0E
  8
0
  6
CONTINUOUS
 62
     3
 10
-24.372490398331621
 20
4.5816627427620888
 30
-0.0000000000000054
 40
7.261165375004146
 50
125.4059994377576999
 51
176.0
  0
LINE
  5
6B0F
  8
0
  6
CONTINUOUS
 62
     3
 10
-30.2500000000000284
 20
90.9666622578999267
 30
-0.0000000000000067
 11
30.2499999999998899
 21
90.9666622578999267
 31
0.0000000000000067
  0
LINE
  5
6B10
  8
0
  6
CONTINUOUS
 62
     3
 10
-30.2500000000000284
 20
90.1000000000000796
 30
-0.0000000000000067
 11
30.2499999999998899
 21
90.1000000000000796
 31
0.0000000000000067
  0
LINE
  5
6B11
  8
0
  6
CONTINUOUS
 62
     3
 10
-30.8500000000000192
 20
89.5000000000000853
 30
-0.0000000000000069
 11
30.8499999999999091
 21
89.5000000000000853
 31
0.0000000000000069
  0
LINE
  5
6B12
  8
0
  6
CONTINUOUS
 62
     3
 10
-30.8500000000000192
 20
88.5000000000000853
 30
-0.0000000000000069
 11
30.8499999999999091
 21
88.5000000000000853
 31
0.0000000000000069
  0
LINE
  5
6B13
  8
0
  6
CONTINUOUS
 62
     3
 10
-30.2500000000000284
 20
87.9000000000000909
 30
-0.0000000000000067
 11
30.2499999999998899
 21
87.9000000000000909
 31
0.0000000000000067
  0
LINE
  5
6B14
  8
0
  6
CONTINUOUS
 62
     3
 10
-30.2500000000000284
 20
87.2528871108918338
 30
-0.0000000000000067
 11
30.2499999999998899
 21
87.2528871108918338
 31
0.0000000000000067
  0
LINE
  5
6B15
  8
0
  6
CONTINUOUS
 62
     3
 10
-32.0000000000000284
 20
83.5000000000001137
 30
-0.0000000000000071
 11
31.9999999999998899
 21
83.5000000000001137
 31
0.0000000000000071
  0
LINE
  5
6B16
  8
0
  6
CONTINUOUS
 62
     3
 10
-25.5000000000000604
 20
82.5000000000001137
 30
-0.0000000000000057
 11
25.4999999999999396
 21
82.5000000000001137
 31
0.0000000000000057
  0
LINE
  5
6B17
  8
0
  6
CONTINUOUS
 62
     3
 10
-28.2472232502674387
 20
100.5000000000000995
 30
-0.0000000000000063
 11
28.2472232502673286
 21
100.5000000000000995
 31
0.0000000000000063
  0
LINE
  5
6B18
  8
0
  6
CONTINUOUS
 62
     3
 10
-32.0000000000000284
 20
95.5000000000000853
 30
-0.0000000000000071
 11
31.9999999999998899
 21
95.5000000000000853
 31
0.0000000000000071
  0
ARC
  5
6B19
  8
0
  6
CONTINUOUS
 62
     3
 10
-29.3140740033710898
 20
95.0000000000000853
 30
-0.0000000000000065
 40
0.5
 50
339.9999999999998863
 51
90.0
  0
ARC
  5
6B1A
  8
0
  6
CONTINUOUS
 62
     3
 10
29.3140740033709513
 20
95.0000000000000853
 30
0.0000000000000065
 40
0.4999999999999987
 50
90.0
 51
200.0
  0
LINE
  5
6B1B
  8
0
  6
CONTINUOUS
 62
     3
 10
28.8442276929779915
 20
94.8289899283372506
 30
0.0000000000000064
 11
30.2499999999999005
 21
90.9666622578999267
 31
0.0000000000000067
  0
LINE
  5
6B1C
  8
0
  6
CONTINUOUS
 62
     3
 10
-28.8442276929781301
 20
94.8289899283372506
 30
-0.0000000000000064
 11
-30.2500000000000391
 21
90.9666622578999267
 31
-0.0000000000000067
  0
LINE
  5
6B1D
  8
0
  6
CONTINUOUS
 62
     3
 10
30.2499999999999005
 20
90.9666622578999267
 30
0.0000000000000067
 11
30.2499999999999005
 21
90.1000000000000796
 31
0.0000000000000067
  0
LINE
  5
6B1E
  8
0
  6
CONTINUOUS
 62
     3
 10
-30.2500000000000391
 20
90.9666622578999267
 30
-0.0000000000000067
 11
-30.2500000000000391
 21
90.1000000000000796
 31
-0.0000000000000067
  0
LINE
  5
6B1F
  8
0
  6
CONTINUOUS
 62
     3
 10
30.2499999999999005
 20
90.1000000000000796
 30
0.0000000000000067
 11
30.8499999999998984
 21
89.5000000000000853
 31
0.0000000000000069
  0
LINE
  5
6B20
  8
0
  6
CONTINUOUS
 62
     3
 10
-30.2500000000000391
 20
90.1000000000000796
 30
-0.0000000000000067
 11
-30.8500000000000405
 21
89.5000000000000853
 31
-0.0000000000000069
  0
LINE
  5
6B21
  8
0
  6
CONTINUOUS
 62
     3
 10
30.8499999999998984
 20
89.5000000000000853
 30
0.0000000000000069
 11
30.8499999999998984
 21
88.5000000000000853
 31
0.0000000000000069
  0
LINE
  5
6B22
  8
0
  6
CONTINUOUS
 62
     3
 10
-30.8500000000000405
 20
89.5000000000000853
 30
-0.0000000000000069
 11
-30.8500000000000405
 21
88.5000000000000853
 31
-0.0000000000000069
  0
LINE
  5
6B23
  8
0
  6
CONTINUOUS
 62
     3
 10
-30.2500000000000391
 20
87.9000000000000909
 30
-0.0000000000000067
 11
-30.8500000000000405
 21
88.5000000000000853
 31
-0.0000000000000069
  0
LINE
  5
6B24
  8
0
  6
CONTINUOUS
 62
     3
 10
30.2499999999999005
 20
87.9000000000000909
 30
0.0000000000000067
 11
30.8499999999998984
 21
88.5000000000000853
 31
0.0000000000000069
  0
LINE
  5
6B25
  8
0
  6
CONTINUOUS
 62
     3
 10
30.2499999999999005
 20
87.9000000000000909
 30
0.0000000000000067
 11
30.2499999999999005
 21
87.2528871108918338
 31
0.0000000000000067
  0
LINE
  5
6B26
  8
0
  6
CONTINUOUS
 62
     3
 10
-30.2500000000000391
 20
87.9000000000000909
 30
-0.0000000000000067
 11
-30.2500000000000391
 21
87.2528871108918338
 31
-0.0000000000000067
  0
LINE
  5
6B27
  8
0
  6
CONTINUOUS
 62
     3
 10
30.2499999999999005
 20
87.2528871108918338
 30
0.0000000000000067
 11
31.9999999999999005
 21
83.5000000000001137
 31
0.0000000000000071
  0
LINE
  5
6B28
  8
0
  6
CONTINUOUS
 62
     3
 10
-30.2500000000000391
 20
87.2528871108918338
 30
-0.0000000000000067
 11
-32.0000000000000497
 21
83.5000000000001137
 31
-0.0000000000000071
  0
ARC
  5
6B29
  8
0
  6
CONTINUOUS
 62
     3
 10
-25.5000000000002593
 20
85.5000000000002842
 30
-0.0000000000000057
 40
3.0000000000001701
 50
221.8103148957764859
 51
270.0
  0
ARC
  5
6B2A
  8
0
  6
CONTINUOUS
 62
     3
 10
25.5000000000001101
 20
85.5000000000002842
 30
0.0000000000000057
 40
3.0000000000001741
 50
269.9999999999964757
 51
318.1896851042200183
  0
ARC
  5
6B2B
  8
0
  6
CONTINUOUS
 62
     3
 10
-28.2472232502674316
 20
99.0000000000000853
 30
-0.0000000000000063
 40
1.5000000000000391
 50
90.00000000000081
 51
150.0000000000009095
  0
ARC
  5
6B2C
  8
0
  6
CONTINUOUS
 62
     3
 10
28.2472232502672504
 20
99.0000000000000284
 30
0.0000000000000063
 40
1.500000000000099
 50
30.0000000000001705
 51
89.9999999999975557
  0
LINE
  5
6B2D
  8
0
  6
CONTINUOUS
 62
     3
 10
29.5462613559440008
 20
99.7500000000000853
 30
0.0000000000000066
 11
31.9999999999999005
 21
95.5000000000000853
 31
0.0000000000000071
  0
LINE
  5
6B2E
  8
0
  6
CONTINUOUS
 62
     3
 10
-29.5462613559441394
 20
99.7500000000000853
 30
-0.0000000000000066
 11
-32.0000000000000497
 21
95.5000000000000853
 31
-0.0000000000000071
  0
LINE
  5
6B2F
  8
0
  6
VERDECKT
 62
     1
 10
28.0000000000000107
 20
9.6849328652379185
 30
0.0000000000000062
 11
0.0000000000000071
 21
9.6849328652379203
 31
0.0
  0
LINE
  5
6B30
  8
0
  6
VERDECKT
 62
     1
 10
-0.0000000000000007
 20
9.6849328652379203
 30
0.0
 11
-28.0
 21
9.6849328652379185
 31
-0.0000000000000062
  0
LINE
  5
6B31
  8
0
  6
VERDECKT
 62
     1
 10
30.6184038891673396
 20
5.018419560851183
 30
0.0000000000000068
 11
30.7579168366555784
 21
3.0232914603315342
 31
0.0000000000000068
  0
LINE
  5
6B32
  8
0
  6
VERDECKT
 62
     1
 10
-30.6184038891673396
 20
5.018419560851183
 30
-0.0000000000000068
 11
-30.7579168366555784
 21
3.0232914603315342
 31
-0.0000000000000068
  0
ARC
  5
6B33
  8
0
  6
VERDECKT
 62
     1
 10
34.0
 20
3.2499999999999432
 30
0.0000000000000075
 40
3.25
 50
184.0000000000001137
 51
270.0
  0
ARC
  5
6B34
  8
0
  6
VERDECKT
 62
     1
 10
-34.0
 20
3.2499999999999449
 30
-0.0000000000000075
 40
3.25
 50
270.0
 51
355.9999999999998863
  0
LINE
  5
6B35
  8
0
  6
VERDECKT
 62
     1
 10
-28.0
 20
9.6849328652379203
 30
-0.0000000000000062
 11
-28.57936652115119
 21
10.4999999999999396
 31
-0.0000000000000063
  0
LINE
  5
6B36
  8
0
  6
VERDECKT
 62
     1
 10
28.0
 20
9.6849328652379203
 30
0.0000000000000062
 11
28.57936652115119
 21
10.4999999999999396
 31
0.0000000000000063
  0
ARC
  5
6B37
  8
0
  6
VERDECKT
 62
     1
 10
24.3724903983315784
 20
4.5816627427620711
 30
0.0000000000000054
 40
6.2611653750041807
 50
4.000000000000056
 51
54.5940005622420728
  0
ARC
  5
6B38
  8
0
  6
VERDECKT
 62
     1
 10
-24.3724903983315784
 20
4.5816627427620711
 30
-0.0000000000000054
 40
6.2611653750041816
 50
125.4059994377578988
 51
175.9999999999998863
  0
LINE
  5
6B39
  8
0
  6
VERDECKT
 62
     1
 10
127.0
 20
-0.0000000000000489
 30
0.0000000000000284
 11
127.0
 21
0.9999999999999512
 31
0.0000000000000284
  0
LINE
  5
6B3A
  8
0
  6
VERDECKT
 62
     1
 10
133.0
 20
-0.0000000000000489
 30
0.0000000000000284
 11
133.0
 21
0.9999999999999512
 31
0.0000000000000284
  0
LINE
  5
6B3B
  8
0
  6
VERDECKT
 62
     1
 10
-133.0
 20
-0.0000000000000489
 30
-0.0000000000000284
 11
-133.0
 21
0.9999999999999512
 31
-0.0000000000000284
  0
LINE
  5
6B3C
  8
0
  6
VERDECKT
 62
     1
 10
-127.0
 20
-0.0000000000000489
 30
-0.0000000000000284
 11
-127.0
 21
0.9999999999999512
 31
-0.0000000000000284
  0
LINE
  5
6B3D
  8
0
  6
VERDECKT
 62
     1
 10
-29.2500000000000284
 20
85.5000000000001137
 30
-0.0000000000000065
 11
29.2499999999998899
 21
85.5000000000001137
 31
0.0000000000000065
  0
LINE
  5
6B3E
  8
0
  6
VERDECKT
 62
     1
 10
-27.0000000000000604
 20
94.5000000000000853
 30
-0.000000000000006
 11
26.9999999999999396
 21
94.5000000000000853
 31
0.000000000000006
  0
LINE
  5
6B3F
  8
0
  6
VERDECKT
 62
     1
 10
29.9999999999999005
 20
84.7500000000001137
 30
0.0000000000000067
 11
29.9999999999999005
 21
83.5000000000000853
 31
0.0000000000000067
  0
LINE
  5
6B40
  8
0
  6
VERDECKT
 62
     1
 10
-30.0000000000000391
 20
84.7500000000001137
 30
-0.0000000000000067
 11
-30.0000000000000391
 21
83.5000000000000853
 31
-0.0000000000000067
  0
ARC
  5
6B41
  8
0
  6
VERDECKT
 62
     1
 10
-29.2500000000000604
 20
84.7500000000001279
 30
-0.0000000000000065
 40
0.7499999999999895
 50
89.9999999999991758
 51
180.0000000000009948
  0
ARC
  5
6B42
  8
0
  6
VERDECKT
 62
     1
 10
29.2499999999999112
 20
84.7500000000001279
 30
0.0000000000000065
 40
0.7499999999999858
 50
359.9999999999988063
 51
90.00000000000081
  0
ARC
  5
6B43
  8
0
  6
VERDECKT
 62
     1
 10
-29.1742346141751909
 20
84.7500000000000568
 30
-0.0000000000000065
 40
0.750000000000057
 50
11.5369590328163003
 51
89.9999999999972857
  0
ARC
  5
6B44
  8
0
  6
VERDECKT
 62
     1
 10
29.1742346141750417
 20
84.7500000000000568
 30
0.0000000000000065
 40
0.7500000000000467
 50
90.0000000000027001
 51
168.4630409671837015
  0
ARC
  5
6B45
  8
0
  6
VERDECKT
 62
     1
 10
-25.5000000000002593
 20
85.50000000000027
 30
-0.0000000000000057
 40
3.0000000000001572
 50
191.5369590328186007
 51
221.8103148957798965
  0
ARC
  5
6B46
  8
0
  6
VERDECKT
 62
     1
 10
25.5000000000000817
 20
85.5000000000002842
 30
0.0000000000000057
 40
3.0000000000001972
 50
318.1896851042204162
 51
348.4630409671809161
  0
LINE
  5
6B47
  8
0
  6
VERDECKT
 62
     1
 10
23.9999999999999289
 20
83.5000000000000568
 30
0.0000000000000053
 11
23.9999999999999289
 21
82.5000000000001137
 31
0.0000000000000053
  0
LINE
  5
6B48
  8
0
  6
VERDECKT
 62
     1
 10
-24.0000000000000711
 20
83.5000000000000568
 30
-0.0000000000000053
 11
-24.0000000000000711
 21
82.5000000000001137
 31
-0.0000000000000053
  0
ARC
  5
6B49
  8
0
  6
VERDECKT
 62
     1
 10
-24.0000000000000604
 20
86.5000000000000711
 30
-0.0000000000000053
 40
3.0000000000000142
 50
179.9999999999998863
 51
270.0
  0
ARC
  5
6B4A
  8
0
  6
VERDECKT
 62
     1
 10
23.9999999999999183
 20
86.5000000000000711
 30
0.0000000000000053
 40
3.0000000000000102
 50
270.0000000000002274
 51
0.0000000000003053
  0
LINE
  5
6B4B
  8
0
  6
VERDECKT
 62
     1
 10
26.9999999999999289
 20
94.5000000000000853
 30
0.000000000000006
 11
26.9999999999999289
 21
86.5000000000000853
 31
0.000000000000006
  0
LINE
  5
6B4C
  8
0
  6
VERDECKT
 62
     1
 10
-27.0000000000000711
 20
94.5000000000000853
 30
-0.000000000000006
 11
-27.0000000000000711
 21
86.5000000000000853
 31
-0.000000000000006
  0
LINE
  5
6B4D
  8
0
  6
VERDECKT
 62
     1
 10
-27.0000000000000711
 20
94.5000000000000853
 30
-0.000000000000006
 11
-28.0579618842508403
 21
100.5000000000000995
 31
-0.0000000000000062
  0
LINE
  5
6B4E
  8
0
  6
VERDECKT
 62
     1
 10
26.9999999999999289
 20
94.5000000000000853
 30
0.000000000000006
 11
28.0579618842507017
 21
100.5000000000000995
 31
0.0000000000000062
  0
ENDBLK
  5
6B50
  8
0
  0
ENDSEC
  0
SECTION
  2
ENTITIES
  0
TEXT
  5
3D7
  8
VOLL
 10
78.076754716981128
 20
31.025947764705851
 30
0.0
 40
1.8
  1

  7
GREEKS
  0
INSERT
  5
AD0
  8
ADSK_ASSOC_ENTITY_BACKUPS
  2
*S0
 10
0.0
 20
0.0
 30
0.0
  0
INSERT
  5
6AFC
  8
STEMPEL
  2
A$C612C1CA0
 10
0.0
 20
0.0
 30
0.0
  0
INSERT
  5
6B51
  8
STEMPEL
  2
A$C8659A8B5
 10
0.0
 20
200.0000000000001137
 30
-0.0000000000000329
  0
VIEWPORT
  5
AAD
 67
     1
  8
0
 10
205.7295426651184016
 20
145.4971551017573006
 30
0.0
 40
558.8319832755776133
 41
298.5191815856778135
 68
     1
 69
     1
1001
ACAD
1000
MVIEW
1002
{
1070
    16
1010
0.0
1020
0.0
1030
0.0
1010
0.0
1020
0.0
1030
1.0
1040
0.0
1040
298.5191815856778135
1040
205.7295426651184016
1040
145.4971551017573006
1040
50.0
1040
0.0
1040
0.0
1070
     0
1070
  1500
1070
     1
1070
     1
1070
     0
1070
     0
1070
     0
1070
     0
1040
0.0
1040
0.0
1040
0.0
1040
10.0
1040
10.0
1040
10.0
1040
10.0
1070
     0
1002
{
1002
}
1002
}
  0
TEXT
  5
CB0
 67
     1
  8
VOLL
 10
625.5592565604117681
 20
227.4217200880700887
 30
0.0
 40
3.6000000000000001
  1

  7
GREEKS
  0
INSERT
  5
548D
 67
     1
  8
BEM
 62
     2
  2
_NONE
 10
23.4398745320330413
 20
119.8769473413416051
 30
0.0
 41
3.0
 42
3.0
 43
3.0
 50
45.0
  0
ENDSEC
  0
EOF
