  0
SECTION
  2
HEADER
  9
$ACADVER
  1
AC1009
  9
$INSBASE
 10
0.0
 20
0.0
 30
0.0
  9
$EXTMIN
 10
-199.999999999999801
 20
-500.0000000000003979
 30
-0.0000000000001776
  9
$EXTMAX
 10
200.0000000000003126
 20
800.0
 30
0.0000000000001199
  9
$LIMMIN
 10
0.0
 20
0.0
  9
$LIMMAX
 10
840.0
 20
594.0
  9
$ORTHOMODE
 70
     1
  9
$REGENMODE
 70
     1
  9
$FILLMODE
 70
     1
  9
$QTEXTMODE
 70
     0
  9
$MIRRTEXT
 70
     1
  9
$DRAGMODE
 70
     2
  9
$LTSCALE
 40
20.0
  9
$OSMODE
 70
   511
  9
$ATTMODE
 70
     1
  9
$TEXTSIZE
 40
3.5
  9
$TRACEWID
 40
1.0
  9
$TEXTSTYLE
  7
STANDARD
  9
$CLAYER
  8
STEMPEL
  9
$CELTYPE
  6
BYLAYER
  9
$CECOLOR
 62
   256
  9
$DIMSCALE
 40
2.0
  9
$DIMASZ
 40
3.5
  9
$DIMEXO
 40
1.0
  9
$DIMDLI
 40
7.0
  9
$DIMRND
 40
0.0
  9
$DIMDLE
 40
0.0
  9
$DIMEXE
 40
1.0
  9
$DIMTP
 40
0.8
  9
$DIMTM
 40
0.000000001
  9
$DIMTXT
 40
3.5
  9
$DIMCEN
 40
1.5
  9
$DIMTSZ
 40
0.0
  9
$DIMTOL
 70
     0
  9
$DIMLIM
 70
     0
  9
$DIMTIH
 70
     0
  9
$DIMTOH
 70
     0
  9
$DIMSE1
 70
     0
  9
$DIMSE2
 70
     0
  9
$DIMTAD
 70
     1
  9
$DIMZIN
 70
     8
  9
$DIMBLK
  1

  9
$DIMASO
 70
     1
  9
$DIMSHO
 70
     0
  9
$DIMPOST
  1

  9
$DIMAPOST
  1

  9
$DIMALT
 70
     0
  9
$DIMALTD
 70
     2
  9
$DIMALTF
 40
25.3999999999999986
  9
$DIMLFAC
 40
1.0
  9
$DIMTOFL
 70
     1
  9
$DIMTVP
 40
0.0
  9
$DIMTIX
 70
     0
  9
$DIMSOXD
 70
     0
  9
$DIMSAH
 70
     0
  9
$DIMBLK1
  1

  9
$DIMBLK2
  1

  9
$DIMSTYLE
  2
STANDARD
  9
$DIMCLRD
 70
     0
  9
$DIMCLRE
 70
     0
  9
$DIMCLRT
 70
     1
  9
$DIMTFAC
 40
0.5
  9
$DIMGAP
 40
1.5
  9
$LUNITS
 70
     2
  9
$LUPREC
 70
     2
  9
$SKETCHINC
 40
1.0
  9
$FILLETRAD
 40
2.0
  9
$AUNITS
 70
     0
  9
$AUPREC
 70
     0
  9
$MENU
  1
ACAD
  9
$ELEVATION
 40
0.0
  9
$PELEVATION
 40
0.0
  9
$THICKNESS
 40
0.0
  9
$LIMCHECK
 70
     0
  9
$BLIPMODE
 70
     0
  9
$CHAMFERA
 40
0.0
  9
$CHAMFERB
 40
0.0
  9
$SKPOLY
 70
     0
  9
$TDCREATE
 40
2455397.867048610933125
  9
$TDUPDATE
 40
2459886.4570254632271826
  9
$TDINDWG
 40
0.5908983333
  9
$TDUSRTIMER
 40
0.5908983333
  9
$USRTIMER
 70
     1
  9
$ANGBASE
 50
0.0
  9
$ANGDIR
 70
     0
  9
$PDMODE
 70
     0
  9
$PDSIZE
 40
0.0
  9
$PLINEWID
 40
0.0
  9
$COORDS
 70
     1
  9
$SPLFRAME
 70
     0
  9
$SPLINETYPE
 70
     6
  9
$SPLINESEGS
 70
     8
  9
$ATTDIA
 70
     1
  9
$ATTREQ
 70
     1
  9
$HANDLING
 70
     1
  9
$HANDSEED
  5
63F4
  9
$SURFTAB1
 70
     6
  9
$SURFTAB2
 70
     6
  9
$SURFTYPE
 70
     6
  9
$SURFU
 70
     6
  9
$SURFV
 70
     6
  9
$UCSNAME
  2

  9
$UCSORG
 10
0.0
 20
0.0
 30
0.0
  9
$UCSXDIR
 10
1.0
 20
0.0
 30
0.0
  9
$UCSYDIR
 10
0.0
 20
1.0
 30
0.0
  9
$PUCSNAME
  2

  9
$PUCSORG
 10
0.0
 20
0.0
 30
0.0
  9
$PUCSXDIR
 10
1.0
 20
0.0
 30
0.0
  9
$PUCSYDIR
 10
0.0
 20
1.0
 30
0.0
  9
$USERI1
 70
     0
  9
$USERI2
 70
     0
  9
$USERI3
 70
     0
  9
$USERI4
 70
     0
  9
$USERI5
 70
     0
  9
$USERR1
 40
0.0
  9
$USERR2
 40
0.0
  9
$USERR3
 40
0.0
  9
$USERR4
 40
0.0
  9
$USERR5
 40
0.0
  9
$WORLDVIEW
 70
     1
  9
$SHADEDGE
 70
     3
  9
$SHADEDIF
 70
    70
  9
$TILEMODE
 70
     1
  9
$MAXACTVP
 70
    16
  9
$PLIMCHECK
 70
     0
  9
$PEXTMIN
 10
1.0000000000000000E+20
 20
1.0000000000000000E+20
 30
1.0000000000000000E+20
  9
$PEXTMAX
 10
-1.0000000000000000E+20
 20
-1.0000000000000000E+20
 30
-1.0000000000000000E+20
  9
$PLIMMIN
 10
-2.9993188512768292
 20
-2.0720927761547858
  9
$PLIMMAX
 10
596.9406811487232289
 20
422.1279072238452272
  9
$UNITMODE
 70
     0
  9
$VISRETAIN
 70
     0
  9
$PLINEGEN
 70
     0
  9
$PSLTSCALE
 70
     0
  0
ENDSEC
  0
SECTION
  2
TABLES
  0
TABLE
  2
VPORT
 70
     1
  0
VPORT
  2
*ACTIVE
 70
     0
 10
0.0
 20
0.0
 11
1.0
 21
1.0
 12
0.0000000000003411
 22
-150.000000000000199
 13
0.0
 23
0.0
 14
1.0
 24
1.0
 15
10.0
 25
10.0
 16
-0.000000000000616
 26
0.0
 36
2774.0314469941558855
 17
0.0
 27
300.0
 37
-0.0000000000000488
 40
1306.6496163682870701
 41
1.8720136518771331
 42
50.0
 43
0.0
 44
0.0
 50
0.0
 51
0.0
 71
     0
 72
  1500
 73
     1
 74
     0
 75
     0
 76
     0
 77
     0
 78
     0
  0
ENDTAB
  0
TABLE
  2
LTYPE
 70
     4
  0
LTYPE
  2
CONTINUOUS
 70
     0
  3
Solid line
 72
    65
 73
     0
 40
0.0
  0
LTYPE
  2
STRICHPUNKT
 70
     0
  3
__ . __ . __ . __ . __ . __ . __ . __ . __ . __
 72
    65
 73
     4
 40
1.0
 49
0.5
 49
-0.25
 49
0.0
 49
-0.25
  0
LTYPE
  2
PHANTOM2
 70
     0
  3
Phantom (.5x) ___ _ _ ___ _ _ ___ _ _ ___ _ _
 72
    65
 73
     6
 40
1.25
 49
0.625
 49
-0.125
 49
0.125
 49
-0.125
 49
0.125
 49
-0.125
  0
LTYPE
  2
VERDECKT
 70
     0
  3
Verdeckt __ __ __ __ __ __ __ __ __ __ __ __ __
 72
    65
 73
     2
 40
0.375
 49
0.25
 49
-0.125
  0
ENDTAB
  0
TABLE
  2
LAYER
 70
     5
  0
LAYER
  2
0
 70
     0
 62
     7
  6
CONTINUOUS
  0
LAYER
  2
VOLL
 70
     0
 62
     1
  6
CONTINUOUS
  0
LAYER
  2
STEMPEL
 70
     0
 62
     3
  6
CONTINUOUS
  0
LAYER
  2
ADSK_ASSOC_ENTITY_BACKUPS
 70
     1
 62
    -7
  6
CONTINUOUS
  0
ENDTAB
  0
TABLE
  2
STYLE
 70
     3
  0
STYLE
  2
STANDARD
 70
     0
 40
0.0
 41
0.8
 50
0.0
 71
     0
 42
3.5
  3
simplex.shx
  4

  0
STYLE
  2
GREEKS
 70
     0
 40
0.0
 41
0.8
 50
0.0
 71
     0
 42
2.5
  3
SIMPLEX.shx
  4

  0
ENDTAB
  0
TABLE
  2
VIEW
 70
     0
  0
ENDTAB
  0
TABLE
  2
UCS
 70
     0
  0
ENDTAB
  0
TABLE
  2
APPID
 70
    35
  0
APPID
  2
ACAD
 70
     0
  0
APPID
  2
ACAD_NAV_VCDISPLAY
 70
     0
  0
APPID
  2
GRADIENTCOLOR1ACI
 70
     0
  0
APPID
  2
GRADIENTCOLOR2ACI
 70
     0
  0
APPID
  2
ACAD_DSTYLE_DIMRADIAL_EXTENSION
 70
     0
  0
APPID
  2
ACADANNOMONITORALERTICONDI
 70
     0
  0
APPID
  2
ACAD_EXEMPT_FROM_CAD_STANDARDS
 70
     0
  0
APPID
  2
ACAD_MLEADERVER
 70
     0
  0
APPID
  2
ACAD_PSEXT
 70
     0
  0
APPID
  2
ACAECLAYERSTANDARD
 70
     0
  0
APPID
  2
ACAD_DSTYLE_DIMJAG
 70
     0
  0
APPID
  2
ACAD_DSTYLE_DIMTALN
 70
     0
  0
APPID
  2
ACCMTRANSPARENCY
 70
     0
  0
APPID
  2
ACAD_OBJECT_CHANGE_GUID
 70
     0
  0
APPID
  2
MCAD_NO_VIS
 70
     0
  0
APPID
  2
ACAD_TEMP_GRAPHIC
 70
     0
  0
APPID
  2
ACATTRIBSERVICES
 70
     0
  0
APPID
  2
DESIGNERASSEMBLIES
 70
     0
  0
APPID
  2
ACAD_DSTYLE_DIMBREAK
 70
     0
  0
APPID
  2
GENIUS_GENSCREG_15
 70
     0
  0
APPID
  2
GENIUS_GENODEF_13
 70
     0
  0
APPID
  2
GENIUS_GENOBJ-N-SDF_13
 70
     0
  0
APPID
  2
ACAD_DSTYLE_DIMINSPECT
 70
     0
  0
APPID
  2
GENIUS_GENDTOL_13
 70
     0
  0
APPID
  2
ACDBDYNAMICBLOCKGUID
 70
     0
  0
APPID
  2
ACAD_STEPID
 70
     0
  0
APPID
  2
ACSYNERGY
 70
     0
  0
APPID
  2
SYNERGY_BODY_TBR_ID
 70
     0
  0
APPID
  2
ACAD_VIEW_EDGE_ID
 70
     0
  0
APPID
  2
ACSYNERGYSKETCH
 70
     0
  0
APPID
  2
ACAD_MODELDOC_XFORM
 70
     0
  0
APPID
  2
ACAD_DIMASSOC_CALC_DIMLFAC
 70
     0
  0
APPID
  2
ACAD_DIMASSOC_DIMLFAC
 70
     0
  0
APPID
  2
ACAD_DIMASSOC_OVERRIDDEN_D
 70
     0
  0
APPID
  2
ACADANNOPO
 70
     0
  0
ENDTAB
  0
TABLE
  2
DIMSTYLE
 70
     1
  0
DIMSTYLE
  2
STANDARD
 70
     0
  3

  4

  5

  6

  7

 40
1.0
 41
0.18
 42
0.0625
 43
0.38
 44
0.18
 45
0.0
 46
0.0
 47
0.0
 48
0.0
140
0.18
141
0.09
142
0.0
143
25.3999999999999986
144
1.0
145
0.0
146
1.0
147
0.09
 71
     0
 72
     0
 73
     1
 74
     1
 75
     0
 76
     0
 77
     0
 78
     0
170
     0
171
     2
172
     0
173
     0
174
     0
175
     0
176
     0
177
     0
178
     0
  0
ENDTAB
  0
ENDSEC
  0
SECTION
  2
BLOCKS
  0
BLOCK
  8
0
  2
$MODEL_SPACE
 70
     0
 10
0.0
 20
0.0
 30
0.0
  3
$MODEL_SPACE
  1

  0
ENDBLK
  5
38
  8
0
  0
BLOCK
 67
     1
  8
0
  2
$PAPER_SPACE
 70
     0
 10
0.0
 20
0.0
 30
0.0
  3
$PAPER_SPACE
  1

  0
ENDBLK
  5
36
 67
     1
  8
0
  0
BLOCK
  8
0
  2
*S0
 70
     1
 10
0.0
 20
0.0
 30
0.0
  3
*S0
  1

  0
ENDBLK
  5
54E5
  8
0
  0
BLOCK
  8
0
  2
A$CE668A8BA
 70
     0
 10
0.0
 20
0.0
 30
0.0
  3
A$CE668A8BA
  1

  0
CIRCLE
  5
6334
  8
0
  6
CONTINUOUS
 62
     3
 10
0.0000000000004017
 20
0.0000000000001705
 30
0.0
 40
57.9995501064835324
  0
CIRCLE
  5
6335
  8
0
  6
CONTINUOUS
 62
     3
 10
-179.9999999999996021
 20
-179.999999999999801
 30
0.0
 40
3.0
  0
CIRCLE
  5
6336
  8
0
  6
CONTINUOUS
 62
     3
 10
180.0000000000003979
 20
-179.999999999999801
 30
0.0
 40
3.0
  0
CIRCLE
  5
6337
  8
0
  6
CONTINUOUS
 62
     3
 10
180.0000000000003979
 20
180.000000000000199
 30
0.0
 40
3.0
  0
CIRCLE
  5
6338
  8
0
  6
CONTINUOUS
 62
     3
 10
-179.9999999999996021
 20
180.000000000000199
 30
0.0
 40
3.0
  0
LINE
  5
6339
  8
0
  6
CONTINUOUS
 62
     3
 10
200.0000000000003979
 20
-179.999999999999801
 30
0.0
 11
200.0000000000003979
 21
180.000000000000199
 31
0.0
  0
ARC
  5
633A
  8
0
  6
CONTINUOUS
 62
     3
 10
179.9999999999998863
 20
-179.9999999999992895
 30
0.0
 40
20.0000000000004583
 50
270.0
 51
359.9999999999973852
  0
LINE
  5
633B
  8
0
  6
CONTINUOUS
 62
     3
 10
-179.9999999999996021
 20
-199.999999999999801
 30
0.0
 11
180.0000000000003979
 21
-199.999999999999801
 31
0.0000000000000799
  0
ARC
  5
633C
  8
0
  6
CONTINUOUS
 62
     3
 10
-179.999999999999801
 20
-180.0000000000001137
 30
0.0
 40
19.9999999999997691
 50
179.9999999999990052
 51
270.0000000000006821
  0
LINE
  5
633D
  8
0
  6
CONTINUOUS
 62
     3
 10
-199.9999999999996021
 20
180.000000000000199
 30
0.0
 11
-199.9999999999996021
 21
-179.999999999999801
 31
0.0
  0
ARC
  5
633E
  8
0
  6
CONTINUOUS
 62
     3
 10
-179.999999999999801
 20
180.0000000000003979
 30
0.0
 40
19.9999999999997691
 50
89.9999999999993605
 51
180.0000000000005969
  0
LINE
  5
633F
  8
0
  6
CONTINUOUS
 62
     3
 10
180.0000000000003979
 20
200.000000000000199
 30
0.0
 11
-179.9999999999996021
 21
200.000000000000199
 31
-0.0000000000000799
  0
ARC
  5
6340
  8
0
  6
CONTINUOUS
 62
     3
 10
180.0000000000007958
 20
180.0000000000007105
 30
0.0
 40
19.9999999999995417
 50
359.9999999999986926
 51
90.0000000000013358
  0
CIRCLE
  5
6341
  8
0
  6
CONTINUOUS
 62
     3
 10
0.0000000000001747
 20
0.0000000000000072
 30
0.0
 40
57.9000000000003183
  0
CIRCLE
  5
6342
  8
0
  6
CONTINUOUS
 62
     3
 10
0.0000000000001776
 20
0.000000000000008
 30
0.0
 40
54.287569344444357
  0
CIRCLE
  5
6343
  8
0
  6
CONTINUOUS
 62
     3
 10
0.0000000000001775
 20
0.000000000000008
 30
0.0
 40
53.2000000000002728
  0
CIRCLE
  5
6344
  8
0
  6
CONTINUOUS
 62
     3
 10
0.0000000000001678
 20
0.0000000000000053
 30
0.0
 40
52.7000000000000384
  0
CIRCLE
  5
6345
  8
0
  6
CONTINUOUS
 62
     3
 10
-0.0000000000000663
 20
-0.0000000000001705
 30
0.0
 40
49.6000000000002004
  0
CIRCLE
  5
6346
  8
0
  6
CONTINUOUS
 62
     3
 10
-0.0000000000002274
 20
-0.0000000000002543
 30
0.0
 40
48.7296797270312396
  0
CIRCLE
  5
6347
  8
0
  6
VERDECKT
 62
     1
 10
0.0000000000004017
 20
0.0000000000001705
 30
0.0
 40
58.9887892867770987
  0
CIRCLE
  5
6348
  8
0
  6
VERDECKT
 62
     1
 10
0.0000000000001678
 20
0.0000000000000053
 30
0.0
 40
53.9000000000000909
  0
CIRCLE
  5
6349
  8
0
  6
VERDECKT
 62
     1
 10
0.0000000000001747
 20
0.0000000000000072
 30
0.0
 40
56.7000000000000526
  0
CIRCLE
  5
634A
  8
0
  6
VERDECKT
 62
     1
 10
-0.0000000000000663
 20
-0.0000000000002274
 30
0.0
 40
50.7999999999999687
  0
CIRCLE
  5
634B
  8
0
  6
VERDECKT
 62
     1
 10
-0.0000000000002274
 20
-0.0000000000002543
 30
0.0
 40
49.925113364741037
  0
ENDBLK
  5
634D
  8
0
  0
BLOCK
  8
0
  2
A$CC6DD3ADB
 70
     0
 10
0.0
 20
0.0
 30
0.0
  3
A$CC6DD3ADB
  1

  0
LINE
  5
6351
  8
0
  6
CONTINUOUS
 62
     3
 10
-58.9887892867768571
 20
785.0040351136342451
 30
-0.0000000000001743
 11
58.9887892867773118
 21
785.0040351136342451
 31
-0.0000000000001743
210
0.0
220
1.0
230
-0.0000000000000002
  0
LINE
  5
6352
  8
0
  6
CONTINUOUS
 62
     3
 10
200.000000000000199
 20
797.0000000000001137
 30
-0.000000000000177
 11
200.000000000000199
 21
798.0000000000001137
 31
-0.0000000000001772
210
0.0
220
1.0
230
-0.0000000000000002
  0
LINE
  5
6353
  8
0
  6
CONTINUOUS
 62
     3
 10
200.000000000000199
 20
797.0000000000001137
 30
-0.000000000000177
 11
180.000000000000199
 21
797.0000000000001137
 31
-0.000000000000177
210
0.0
220
1.0
230
-0.0000000000000002
  0
LINE
  5
6354
  8
0
  6
CONTINUOUS
 62
     3
 10
200.000000000000199
 20
798.0000000000001137
 30
-0.0000000000001772
 11
180.000000000000199
 21
798.0000000000001137
 31
-0.0000000000001772
210
0.0
220
1.0
230
-0.0000000000000002
  0
LINE
  5
6355
  8
0
  6
CONTINUOUS
 62
     3
 10
-179.999999999999801
 20
797.0000000000002274
 30
-0.000000000000177
 11
180.000000000000199
 21
797.0000000000001137
 31
-0.000000000000177
210
0.0
220
1.0
230
-0.0000000000000002
  0
LINE
  5
6356
  8
0
  6
CONTINUOUS
 62
     3
 10
-179.999999999999801
 20
798.0000000000002274
 30
-0.0000000000001772
 11
180.000000000000199
 21
798.0000000000001137
 31
-0.0000000000001772
210
0.0
220
1.0
230
-0.0000000000000002
  0
LINE
  5
6357
  8
0
  6
CONTINUOUS
 62
     3
 10
-179.999999999999801
 20
797.0000000000002274
 30
-0.000000000000177
 11
-199.999999999999801
 21
797.0000000000002274
 31
-0.000000000000177
210
0.0
220
1.0
230
-0.0000000000000002
  0
LINE
  5
6358
  8
0
  6
CONTINUOUS
 62
     3
 10
-179.999999999999801
 20
798.0000000000002274
 30
-0.0000000000001772
 11
-199.999999999999801
 21
798.0000000000002274
 31
-0.0000000000001772
210
0.0
220
1.0
230
-0.0000000000000002
  0
LINE
  5
6359
  8
0
  6
CONTINUOUS
 62
     3
 10
-199.999999999999801
 20
797.0000000000002274
 30
-0.000000000000177
 11
-199.999999999999801
 21
798.0000000000002274
 31
-0.0000000000001772
210
0.0
220
1.0
230
-0.0000000000000002
  0
LINE
  5
635A
  8
0
  6
CONTINUOUS
 62
     3
 10
-58.9887892867768713
 20
785.0040351136342451
 30
-0.0000000000001743
 11
-60.6367188185753321
 21
796.1463073619887609
 31
-0.0000000000001768
210
0.0
220
1.0
230
-0.0000000000000002
  0
LINE
  5
635B
  8
0
  6
CONTINUOUS
 62
     3
 10
58.9887892867773118
 20
785.0040351136342451
 30
-0.0000000000001743
 11
60.6367188185757868
 21
796.1463073619887609
 31
-0.0000000000001768
210
0.0
220
1.0
230
-0.0000000000000002
  0
ARC
  5
635C
  8
0
  6
CONTINUOUS
 62
     3
 10
61.6259579988689694
 20
796.0
 30
0.0
 40
1.0
210
0.0
220
-0.0000000000000002
230
-1.0
 50
90.0000000000040643
 51
171.587007042019394
  0
ARC
  5
635D
  8
0
  6
CONTINUOUS
 62
     3
 10
-61.6259579988694171
 20
796.0
 30
0.0
 40
1.0000000000000679
210
0.0
220
-0.0000000000000002
230
-1.0
 50
8.4129929579805367
 51
89.9999999999959357
  0
LINE
  5
635E
  8
0
  6
CONTINUOUS
 62
     3
 10
-54.287569344444357
 20
800.0
 30
-0.0000000000001776
 11
54.287569344444357
 21
800.0
 31
-0.0000000000001776
210
0.0
220
1.0
230
-0.0000000000000002
  0
LINE
  5
635F
  8
0
  6
CONTINUOUS
 62
     3
 10
-49.9251133647412786
 20
-0.0000000000003575
 30
0.0
 11
49.9251133647408025
 21
-0.0000000000003814
 31
0.0
210
0.0
220
1.0
230
-0.0000000000000002
  0
LINE
  5
6360
  8
0
  6
CONTINUOUS
 62
     3
 10
53.8999999999998565
 20
755.4997994693183045
 30
-0.0000000000001678
 11
53.8999999999998565
 21
736.9274888769474501
 31
-0.0000000000001636
210
0.0
220
1.0
230
-0.0000000000000002
  0
LINE
  5
6361
  8
0
  6
CONTINUOUS
 62
     3
 10
-53.8999999999998565
 20
755.4997994693183045
 30
-0.0000000000001678
 11
-53.8999999999998565
 21
736.9274888769474501
 31
-0.0000000000001636
210
0.0
220
1.0
230
-0.0000000000000002
  0
ARC
  5
6362
  8
0
  6
CONTINUOUS
 62
     3
 10
66.700000000002305
 20
755.4997994693183045
 30
0.0
 40
12.8000000000022194
210
0.0
220
-0.0000000000000002
230
-1.0
 50
153.111952382281487
 51
180.0
  0
ARC
  5
6363
  8
0
  6
CONTINUOUS
 62
     3
 10
-66.7000000000011823
 20
755.4997994693185319
 30
0.0
 40
12.8000000000010896
210
0.0
220
-0.0000000000000002
230
-1.0
 50
359.9999999999989768
 51
26.8880476177203818
  0
ARC
  5
6364
  8
0
  6
CONTINUOUS
 62
     3
 10
33.6999999999986031
 20
772.2330000000002883
 30
0.0
 40
24.2000000000012605
210
0.0
220
-0.0000000000000002
230
-1.0
 50
333.1119523822761721
 51
359.99999999999892
  0
ARC
  5
6365
  8
0
  6
CONTINUOUS
 62
     3
 10
-33.6999999999993278
 20
772.2329999999999472
 30
0.0
 40
24.2000000000005393
210
0.0
220
-0.0000000000000002
230
-1.0
 50
180.0000000000003979
 51
206.8880476177236858
  0
LINE
  5
6366
  8
0
  6
CONTINUOUS
 62
     3
 10
57.9000000000000909
 20
785.0040351136342451
 30
-0.0000000000001743
 11
57.9000000000000909
 21
772.2329999999998336
 31
-0.0000000000001715
210
0.0
220
1.0
230
-0.0000000000000002
  0
LINE
  5
6367
  8
0
  6
CONTINUOUS
 62
     3
 10
-57.9000000000000909
 20
785.0040351136343588
 30
-0.0000000000001743
 11
-57.9000000000000909
 21
772.2329999999997199
 31
-0.0000000000001715
210
0.0
220
1.0
230
-0.0000000000000002
  0
LINE
  5
6368
  8
0
  6
CONTINUOUS
 62
     3
 10
54.2875693444442433
 20
800.0
 30
-0.0000000000001776
 11
55.2201846607541569
 21
798.0000000000001137
 31
-0.0000000000001772
210
0.0
220
1.0
230
-0.0000000000000002
  0
LINE
  5
6369
  8
0
  6
CONTINUOUS
 62
     3
 10
-54.2875693444442433
 20
800.0
 30
-0.0000000000001776
 11
-55.2201846607541711
 21
798.0000000000001137
 31
-0.0000000000001772
210
0.0
220
1.0
230
-0.0000000000000002
  0
ARC
  5
636A
  8
0
  6
CONTINUOUS
 62
     3
 10
58.7999999999973681
 20
725.6124546304199612
 30
0.0
 40
7.9999999999974021
210
0.0
220
-0.0000000000000002
230
-1.0
 50
149.3570682370454108
 51
180.0000000000121076
  0
ARC
  5
636B
  8
0
  6
CONTINUOUS
 62
     3
 10
-58.7999999999980005
 20
725.6124546304198475
 30
0.0
 40
7.999999999998038
210
0.0
220
-0.0000000000000002
230
-1.0
 50
359.9999999999885745
 51
30.6429317629539106
  0
ARC
  5
636C
  8
0
  6
CONTINUOUS
 62
     3
 10
39.7000000000012392
 20
736.9274888769423342
 30
0.0
 40
14.1999999999986208
210
0.0
220
-0.0000000000000002
230
-1.0
 50
329.3570682370685176
 51
0.0000000000206482
  0
ARC
  5
636D
  8
0
  6
CONTINUOUS
 62
     3
 10
-39.7000000000010473
 20
736.9274888769423342
 30
0.0
 40
14.1999999999988091
210
0.0
220
-0.0000000000000002
230
-1.0
 50
179.999999999979309
 51
210.6429317629304876
  0
LINE
  5
636E
  8
0
  6
CONTINUOUS
 62
     3
 10
50.7999999999999119
 20
725.6124546304182559
 30
-0.0000000000001611
 11
50.7999999999997414
 21
9.9999999999993197
 31
-0.0000000000000022
210
0.0
220
1.0
230
-0.0000000000000002
  0
LINE
  5
636F
  8
0
  6
CONTINUOUS
 62
     3
 10
-50.8000000000000185
 20
725.6124546304182559
 30
-0.0000000000001611
 11
-50.800000000000189
 21
9.9999999999993197
 31
-0.0000000000000022
210
0.0
220
1.0
230
-0.0000000000000002
  0
LINE
  5
6370
  8
0
  6
CONTINUOUS
 62
     3
 10
-49.9251133647416196
 20
-0.000000000000389
 30
0.0
 11
-50.8000000000003098
 21
9.9999999999993516
 31
-0.0000000000000022
210
0.0
220
1.0
230
-0.0000000000000002
  0
LINE
  5
6371
  8
0
  6
CONTINUOUS
 62
     3
 10
49.9251133647411578
 20
-0.0000000000004157
 30
0.0
 11
50.7999999999998479
 21
9.9999999999993232
 31
-0.0000000000000022
210
0.0
220
1.0
230
-0.0000000000000002
  0
LINE
  5
6372
  8
0
  6
VERDECKT
 62
     1
 10
-57.9995501064834116
 20
785.1503424756232334
 30
-0.0000000000001743
 11
57.9995501064838592
 21
785.1503424756232334
 31
-0.0000000000001743
210
0.0
220
1.0
230
-0.0000000000000002
  0
LINE
  5
6373
  8
0
  6
VERDECKT
 62
     1
 10
57.9995501064837597
 20
785.1503424756232334
 30
-0.0000000000001743
 11
58.9887892867773189
 21
785.0040351136342451
 31
-0.0000000000001743
210
0.0
220
1.0
230
-0.0000000000000002
  0
LINE
  5
6374
  8
0
  6
VERDECKT
 62
     1
 10
-57.9995501064832979
 20
785.1503424756232334
 30
-0.0000000000001743
 11
-58.9887892867768713
 21
785.0040351136342451
 31
-0.0000000000001743
210
0.0
220
1.0
230
-0.0000000000000002
  0
LINE
  5
6375
  8
0
  6
VERDECKT
 62
     1
 10
-57.9995501064832979
 20
785.1503424756232334
 30
-0.0000000000001743
 11
-59.6474796382817587
 21
796.2926147239770671
 31
-0.0000000000001768
210
0.0
220
1.0
230
-0.0000000000000002
  0
LINE
  5
6376
  8
0
  6
VERDECKT
 62
     1
 10
57.9995501064837526
 20
785.1503424756232334
 30
-0.0000000000001743
 11
59.6474796382822205
 21
796.2926147239770671
 31
-0.0000000000001768
210
0.0
220
1.0
230
-0.0000000000000002
  0
ARC
  5
6377
  8
0
  6
VERDECKT
 62
     1
 10
61.6259579988688628
 20
796.0
 30
0.0
 40
1.9999999999998861
210
0.0
220
-0.0000000000000002
230
-1.0
 50
89.9999999999987637
 51
171.5870070420282048
  0
ARC
  5
6378
  8
0
  6
VERDECKT
 62
     1
 10
-61.6259579988693105
 20
796.0
 30
0.0
 40
1.9999999999998841
210
0.0
220
-0.0000000000000002
230
-1.0
 50
8.4129929579717366
 51
90.0000000000012363
  0
LINE
  5
6379
  8
0
  6
VERDECKT
 62
     1
 10
-182.999999999999801
 20
797.0000000000002274
 30
-0.000000000000177
 11
-182.999999999999801
 21
798.0000000000002274
 31
-0.0000000000001772
210
0.0
220
1.0
230
-0.0000000000000002
  0
LINE
  5
637A
  8
0
  6
VERDECKT
 62
     1
 10
-176.9999999999996874
 20
797.0000000000002274
 30
-0.000000000000177
 11
-176.9999999999996874
 21
798.0000000000002274
 31
-0.0000000000001772
210
0.0
220
1.0
230
-0.0000000000000002
  0
LINE
  5
637B
  8
0
  6
VERDECKT
 62
     1
 10
177.000000000000199
 20
797.0000000000001137
 30
-0.000000000000177
 11
177.000000000000199
 21
798.0000000000001137
 31
-0.0000000000001772
210
0.0
220
1.0
230
-0.0000000000000002
  0
LINE
  5
637C
  8
0
  6
VERDECKT
 62
     1
 10
183.000000000000199
 20
797.0000000000001137
 30
-0.000000000000177
 11
183.000000000000199
 21
798.0000000000001137
 31
-0.0000000000001772
210
0.0
220
1.0
230
-0.0000000000000002
  0
LINE
  5
637D
  8
0
  6
VERDECKT
 62
     1
 10
-53.2000000000002728
 20
799.4928580859110525
 30
-0.0000000000001775
 11
53.2000000000002728
 21
799.4928580859110525
 31
-0.0000000000001775
210
0.0
220
1.0
230
-0.0000000000000002
  0
LINE
  5
637E
  8
0
  6
VERDECKT
 62
     1
 10
-48.7296797270314599
 20
0.1045868912968305
 30
0.0
 11
48.7296797270309909
 21
0.1045868912968072
 31
0.0
210
0.0
220
1.0
230
-0.0000000000000002
  0
LINE
  5
637F
  8
0
  6
VERDECKT
 62
     1
 10
57.9000000000000909
 20
786.8881066233400361
 30
-0.0000000000001747
 11
57.9000000000000909
 21
785.0040351136342451
 31
-0.0000000000001743
210
0.0
220
1.0
230
-0.0000000000000002
  0
LINE
  5
6380
  8
0
  6
VERDECKT
 62
     1
 10
-57.9000000000000909
 20
786.8881066233400361
 30
-0.0000000000001747
 11
-57.9000000000000909
 21
785.0040351136343588
 31
-0.0000000000001743
210
0.0
220
1.0
230
-0.0000000000000002
  0
ARC
  5
6381
  8
0
  6
VERDECKT
 62
     1
 10
33.7000000000001023
 20
786.8881066233401498
 30
0.0
 40
24.2000000000002302
210
0.0
220
-0.0000000000000002
230
-1.0
 50
0.0
 51
25.0000000000000711
  0
ARC
  5
6382
  8
0
  6
VERDECKT
 62
     1
 10
-33.6999999999993278
 20
786.8881066233399224
 30
0.0
 40
24.2000000000009798
210
0.0
220
-0.0000000000000002
230
-1.0
 50
155.0000000000007958
 51
179.9999999999996874
  0
LINE
  5
6383
  8
0
  6
VERDECKT
 62
     1
 10
55.2201846607541569
 20
798.0000000000001137
 30
-0.0000000000001772
 11
55.6326484462871775
 21
797.1154685574648511
 31
-0.000000000000177
210
0.0
220
1.0
230
-0.0000000000000002
  0
LINE
  5
6384
  8
0
  6
VERDECKT
 62
     1
 10
-55.2201846607541711
 20
798.0000000000001137
 30
-0.0000000000001772
 11
-55.632648446287142
 21
797.1154685574649648
 31
-0.000000000000177
210
0.0
220
1.0
230
-0.0000000000000002
  0
LINE
  5
6385
  8
0
  6
VERDECKT
 62
     1
 10
-53.2000000000002728
 20
799.4928580859110525
 30
-0.0000000000001775
 11
-54.287569344444357
 21
800.0
 31
-0.0000000000001776
210
0.0
220
1.0
230
-0.0000000000000002
  0
LINE
  5
6386
  8
0
  6
VERDECKT
 62
     1
 10
53.2000000000002728
 20
799.4928580859110525
 30
-0.0000000000001775
 11
54.287569344444357
 21
800.0
 31
-0.0000000000001776
210
0.0
220
1.0
230
-0.0000000000000002
  0
LINE
  5
6387
  8
0
  6
VERDECKT
 62
     1
 10
53.2000000000001734
 20
799.4928580859110525
 30
-0.0000000000001775
 11
54.5450791018430721
 21
796.608326643376131
 31
-0.0000000000001769
210
0.0
220
1.0
230
-0.0000000000000002
  0
LINE
  5
6388
  8
0
  6
VERDECKT
 62
     1
 10
-53.2000000000001734
 20
799.4928580859110525
 30
-0.0000000000001775
 11
-54.5450791018430365
 21
796.6083266433762446
 31
-0.0000000000001769
210
0.0
220
1.0
230
-0.0000000000000002
  0
ARC
  5
6389
  8
0
  6
VERDECKT
 62
     1
 10
33.7000000000009905
 20
786.8881066233406045
 30
0.0
 40
22.9999999999990692
210
0.0
220
-0.0000000000000002
230
-1.0
 50
359.9999999999985789
 51
24.9999999999998614
  0
ARC
  5
638A
  8
0
  6
VERDECKT
 62
     1
 10
-33.70000000000109
 20
786.8881066233406045
 30
0.0
 40
22.9999999999989804
210
0.0
220
-0.0000000000000002
230
-1.0
 50
155.0000000000003126
 51
180.0000000000013074
  0
LINE
  5
638B
  8
0
  6
VERDECKT
 62
     1
 10
56.7000000000000526
 20
786.8881066233400361
 30
-0.0000000000001747
 11
56.7000000000000526
 21
772.2329999999998336
 31
-0.0000000000001715
210
0.0
220
1.0
230
-0.0000000000000002
  0
LINE
  5
638C
  8
0
  6
VERDECKT
 62
     1
 10
-56.7000000000000526
 20
786.8881066233400361
 30
-0.0000000000001747
 11
-56.7000000000000526
 21
772.2329999999997199
 31
-0.0000000000001715
210
0.0
220
1.0
230
-0.0000000000000002
  0
ARC
  5
638D
  8
0
  6
VERDECKT
 62
     1
 10
33.7000000000039321
 20
772.2329999999984693
 30
0.0
 40
22.9999999999958895
210
0.0
220
-0.0000000000000002
230
-1.0
 50
333.1119523822756037
 51
0.0000000000036894
  0
ARC
  5
638E
  8
0
  6
VERDECKT
 62
     1
 10
-33.7000000000041098
 20
772.2329999999984693
 30
0.0
 40
22.9999999999957012
210
0.0
220
-0.0000000000000002
230
-1.0
 50
179.9999999999965894
 51
206.8880476177249079
  0
ARC
  5
638F
  8
0
  6
VERDECKT
 62
     1
 10
66.6999999999988376
 20
755.4997994693185319
 30
0.0
 40
13.9999999999988205
210
0.0
220
-0.0000000000000002
230
-1.0
 50
153.1119523822733015
 51
180.0000000000013074
  0
ARC
  5
6390
  8
0
  6
VERDECKT
 62
     1
 10
-66.6999999999992639
 20
755.4997994693184182
 30
0.0
 40
13.9999999999992504
210
0.0
220
-0.0000000000000002
230
-1.0
 50
359.9999999999996021
 51
26.8880476177257215
  0
LINE
  5
6391
  8
0
  6
VERDECKT
 62
     1
 10
52.7000000000000384
 20
755.4997994693183045
 30
-0.0000000000001678
 11
52.7000000000000384
 21
736.9274888769474501
 31
-0.0000000000001636
210
0.0
220
1.0
230
-0.0000000000000002
  0
LINE
  5
6392
  8
0
  6
VERDECKT
 62
     1
 10
-52.7000000000000384
 20
755.4997994693183045
 30
-0.0000000000001678
 11
-52.7000000000000384
 21
736.9274888769474501
 31
-0.0000000000001636
210
0.0
220
1.0
230
-0.0000000000000002
  0
ARC
  5
6393
  8
0
  6
VERDECKT
 62
     1
 10
39.7000000000001521
 20
736.9274888769461995
 30
0.0
 40
12.9999999999999094
210
0.0
220
-0.0000000000000002
230
-1.0
 50
329.3570682370669829
 51
0.0000000000055087
  0
ARC
  5
6394
  8
0
  6
VERDECKT
 62
     1
 10
-39.6999999999996334
 20
736.9274888769463132
 30
0.0
 40
13.0000000000004103
210
0.0
220
-0.0000000000000002
230
-1.0
 50
179.9999999999949978
 51
210.6429317629317097
  0
ARC
  5
6395
  8
0
  6
VERDECKT
 62
     1
 10
58.7999999999989527
 20
725.6124546304237128
 30
0.0
 40
9.1999999999985693
210
0.0
220
-0.0000000000000002
230
-1.0
 50
149.3570682370578879
 51
180.0000000000331966
  0
ARC
  5
6396
  8
0
  6
VERDECKT
 62
     1
 10
-58.7999999999995424
 20
725.6124546304234855
 30
0.0
 40
9.1999999999991715
210
0.0
220
-0.0000000000000002
230
-1.0
 50
0.0
 51
30.6429317629429185
  0
LINE
  5
6397
  8
0
  6
VERDECKT
 62
     1
 10
49.6000000000001009
 20
725.6124546304232581
 30
-0.0000000000001611
 11
49.5999999999999304
 21
10.0522934456477095
 31
-0.0000000000000022
210
0.0
220
1.0
230
-0.0000000000000002
  0
LINE
  5
6398
  8
0
  6
VERDECKT
 62
     1
 10
-49.6000000000002217
 20
725.6124546304182559
 30
-0.0000000000001611
 11
-49.6000000000003922
 21
10.0522934456477095
 31
-0.0000000000000022
210
0.0
220
1.0
230
-0.0000000000000002
  0
LINE
  5
6399
  8
0
  6
VERDECKT
 62
     1
 10
-49.9251133647412715
 20
-0.0000000000003411
 30
0.0
 11
-48.7296797270316802
 21
0.1045868912968047
 31
0.0
210
0.0
220
1.0
230
-0.0000000000000002
  0
LINE
  5
639A
  8
0
  6
VERDECKT
 62
     1
 10
48.7296797270312183
 20
0.1045868912967762
 30
0.0
 11
49.9251133647408025
 21
-0.0000000000003695
 31
0.0
210
0.0
220
1.0
230
-0.0000000000000002
  0
LINE
  5
639B
  8
0
  6
VERDECKT
 62
     1
 10
-48.7296797270313604
 20
0.1045868912968393
 30
0.0
 11
-49.6000000000004988
 21
10.0522934456477095
 31
-0.0000000000000022
210
0.0
220
1.0
230
-0.0000000000000002
  0
LINE
  5
639C
  8
0
  6
VERDECKT
 62
     1
 10
48.7296797270308986
 20
0.1045868912968127
 30
0.0
 11
49.6000000000000369
 21
10.0522934456476793
 31
-0.0000000000000022
210
0.0
220
1.0
230
-0.0000000000000002
  0
ENDBLK
  5
639E
  8
0
  0
ENDSEC
  0
SECTION
  2
ENTITIES
  0
TEXT
  5
89E
  8
VOLL
 10
317.7656175248495174
 20
455.7049816962950217
 30
0.0
 40
1.8
  1

 50
90.0
  7
GREEKS
  0
TEXT
  5
2BD3
  8
VOLL
 10
333.8522159904711089
 20
268.3218684374514851
 30
0.0
 40
1.8
  1

  7
GREEKS
  0
TEXT
  5
355A
  8
VOLL
 10
-120.9219728865112984
 20
345.9499166738007716
 30
0.0
 40
1.8
  1

 50
90.0
  7
GREEKS
  0
TEXT
  5
3BF1
  8
VOLL
 10
-122.8634729379836017
 20
396.6201741962007077
 30
0.0
 40
1.8
  1

 50
90.0
  7
GREEKS
  0
INSERT
  5
54E7
  8
ADSK_ASSOC_ENTITY_BACKUPS
  2
*S0
 10
0.0
 20
0.0
 30
0.0
  0
INSERT
  5
634E
  8
STEMPEL
  2
A$CE668A8BA
 10
-0.0000000000000478
 20
-300.0000000000006253
 30
0.00000000000004
  0
INSERT
  5
639F
  8
STEMPEL
  2
A$CC6DD3ADB
 10
0.0
 20
0.0
 30
0.0
  0
VIEWPORT
  5
12A3
 67
     1
  8
0
 10
296.9706811487232017
 20
210.0279072238452045
 30
0.0
 40
798.1701256077442395
 41
426.3698209718668863
 68
     1
 69
     1
1001
ACAD
1000
MVIEW
1002
{
1070
    16
1010
0.0
1020
0.0
1030
0.0
1010
0.0
1020
0.0
1030
1.0
1040
0.0
1040
426.3698209718668863
1040
296.9706811487232017
1040
210.0279072238452045
1040
50.0
1040
0.0
1040
0.0
1070
     0
1070
  1500
1070
     1
1070
     1
1070
     0
1070
     0
1070
     0
1070
     0
1040
0.0
1040
0.0
1040
0.0
1040
10.0
1040
10.0
1040
10.0
1040
10.0
1070
     0
1002
{
1002
}
1002
}
1001
GENIUS_GENODEF_13
1002
{
1000
HIER
1070
     0
1002
}
1002
{
1000
MANEDIT
1070
     0
1002
}
1002
{
1000
NOSEL
1070
     0
1002
}
1002
{
1000
BEHIND
1070
     0
1002
}
1002
{
1000
OTHER
1070
     0
1002
}
1002
{
1000
REACTOR
1002
}
1001
GENIUS_GENOBJ-N-SDF_13
1002
{
1000
OWNER
1000
GEN
1002
}
1001
GENIUS_GENSCREG_15
1000
PF
1040
1.0
1000
DF
1040
1.0
1000
MIN
1011
-0.5585912071301209
1021
0.0
1031
0.0
1021
9.9874579825443561
1031
0.0
1000
MAX
1011
1147.4812028906519572
1021
0.0
1031
0.0
1021
584.0073550314357362
1031
0.0
1000
FLAGS
1070
     4
  0
ENDSEC
  0
EOF
