  0
SECTION
  2
HEADER
  9
$ACADVER
  1
AC1009
  9
$INSBASE
 10
0.0
 20
0.0
 30
0.0
  9
$EXTMIN
 10
-0.1318744126401725
 20
-0.0181260584133725
 30
-0.0047213034822846
  9
$EXTMAX
 10
1307.1729752925200501
 20
300.0363474763422005
 30
0.0181665308921595
  9
$LIMMIN
 10
0.0
 20
0.0
  9
$LIMMAX
 10
840.0
 20
594.0
  9
$ORTHOMODE
 70
     1
  9
$REGENMODE
 70
     1
  9
$FILLMODE
 70
     1
  9
$QTEXTMODE
 70
     0
  9
$MIRRTEXT
 70
     1
  9
$DRAGMODE
 70
     2
  9
$LTSCALE
 40
20.0
  9
$OSMODE
 70
    39
  9
$ATTMODE
 70
     1
  9
$TEXTSIZE
 40
3.5
  9
$TRACEWID
 40
1.0
  9
$TEXTSTYLE
  7
STANDARD
  9
$CLAYER
  8
ROHR
  9
$CELTYPE
  6
BYLAYER
  9
$CECOLOR
 62
   256
  9
$DIMSCALE
 40
2.0
  9
$DIMASZ
 40
3.5
  9
$DIMEXO
 40
1.0
  9
$DIMDLI
 40
7.0
  9
$DIMRND
 40
0.0
  9
$DIMDLE
 40
0.0
  9
$DIMEXE
 40
1.0
  9
$DIMTP
 40
0.0
  9
$DIMTM
 40
0.0
  9
$DIMTXT
 40
3.5
  9
$DIMCEN
 40
1.5
  9
$DIMTSZ
 40
0.0
  9
$DIMTOL
 70
     0
  9
$DIMLIM
 70
     0
  9
$DIMTIH
 70
     0
  9
$DIMTOH
 70
     0
  9
$DIMSE1
 70
     0
  9
$DIMSE2
 70
     0
  9
$DIMTAD
 70
     1
  9
$DIMZIN
 70
     8
  9
$DIMBLK
  1

  9
$DIMASO
 70
     1
  9
$DIMSHO
 70
     0
  9
$DIMPOST
  1

  9
$DIMAPOST
  1

  9
$DIMALT
 70
     0
  9
$DIMALTD
 70
     2
  9
$DIMALTF
 40
25.3999999999999986
  9
$DIMLFAC
 40
1.0
  9
$DIMTOFL
 70
     1
  9
$DIMTVP
 40
0.0
  9
$DIMTIX
 70
     0
  9
$DIMSOXD
 70
     0
  9
$DIMSAH
 70
     0
  9
$DIMBLK1
  1

  9
$DIMBLK2
  1

  9
$DIMSTYLE
  2
STANDARD
  9
$DIMCLRD
 70
     0
  9
$DIMCLRE
 70
     0
  9
$DIMCLRT
 70
     1
  9
$DIMTFAC
 40
0.5142857142857143
  9
$DIMGAP
 40
1.5
  9
$LUNITS
 70
     2
  9
$LUPREC
 70
     2
  9
$SKETCHINC
 40
1.0
  9
$FILLETRAD
 40
20.0
  9
$AUNITS
 70
     0
  9
$AUPREC
 70
     0
  9
$MENU
  1
ACAD
  9
$ELEVATION
 40
0.0
  9
$PELEVATION
 40
0.0
  9
$THICKNESS
 40
0.0
  9
$LIMCHECK
 70
     0
  9
$BLIPMODE
 70
     0
  9
$CHAMFERA
 40
0.0
  9
$CHAMFERB
 40
0.0
  9
$SKPOLY
 70
     0
  9
$TDCREATE
 40
2455397.867048610933125
  9
$TDUPDATE
 40
2458418.2681018519215286
  9
$TDINDWG
 40
0.3897477199
  9
$TDUSRTIMER
 40
0.3897477199
  9
$USRTIMER
 70
     1
  9
$ANGBASE
 50
0.0
  9
$ANGDIR
 70
     0
  9
$PDMODE
 70
     0
  9
$PDSIZE
 40
0.0
  9
$PLINEWID
 40
0.0
  9
$COORDS
 70
     1
  9
$SPLFRAME
 70
     0
  9
$SPLINETYPE
 70
     6
  9
$SPLINESEGS
 70
     8
  9
$ATTDIA
 70
     1
  9
$ATTREQ
 70
     1
  9
$HANDLING
 70
     1
  9
$HANDSEED
  5
2F48
  9
$SURFTAB1
 70
     6
  9
$SURFTAB2
 70
     6
  9
$SURFTYPE
 70
     6
  9
$SURFU
 70
     6
  9
$SURFV
 70
     6
  9
$UCSNAME
  2

  9
$UCSORG
 10
0.0
 20
0.0
 30
0.0
  9
$UCSXDIR
 10
1.0
 20
0.0
 30
0.0
  9
$UCSYDIR
 10
0.0
 20
1.0
 30
0.0
  9
$PUCSNAME
  2

  9
$PUCSORG
 10
0.0
 20
0.0
 30
0.0
  9
$PUCSXDIR
 10
1.0
 20
0.0
 30
0.0
  9
$PUCSYDIR
 10
0.0
 20
1.0
 30
0.0
  9
$USERI1
 70
     0
  9
$USERI2
 70
     0
  9
$USERI3
 70
     0
  9
$USERI4
 70
     0
  9
$USERI5
 70
     0
  9
$USERR1
 40
0.0
  9
$USERR2
 40
0.0
  9
$USERR3
 40
0.0
  9
$USERR4
 40
0.0
  9
$USERR5
 40
0.0
  9
$WORLDVIEW
 70
     1
  9
$SHADEDGE
 70
     3
  9
$SHADEDIF
 70
    70
  9
$TILEMODE
 70
     1
  9
$MAXACTVP
 70
    16
  9
$PLIMCHECK
 70
     0
  9
$PEXTMIN
 10
-0.0541873018130446
 20
-0.0184672973775833
 30
-0.0000000349181948
  9
$PEXTMAX
 10
840.0207833355378853
 20
594.0132803113574482
 30
0.0000000814935746
  9
$PLIMMIN
 10
-9.3308496757390689
 20
-6.5303090205616563
  9
$PLIMMAX
 10
849.362954849097946
 20
600.5251192077198539
  9
$UNITMODE
 70
     0
  9
$VISRETAIN
 70
     0
  9
$PLINEGEN
 70
     0
  9
$PSLTSCALE
 70
     0
  0
ENDSEC
  0
SECTION
  2
TABLES
  0
TABLE
  2
VPORT
 70
     1
  0
VPORT
  2
*ACTIVE
 70
     0
 10
0.0
 20
0.0
 11
1.0
 21
1.0
 12
653.5205504399399388
 22
150.009110708964414
 13
0.0
 23
0.0
 14
1.0
 24
1.0
 15
10.0
 25
10.0
 16
-0.0000000000000012
 26
0.0
 36
5.5852494427615742
 17
0.0
 27
0.0
 37
0.0
 40
630.9260817694465686
 41
2.0800000000000001
 42
50.0
 43
0.0
 44
0.0
 50
0.0
 51
0.0
 71
     0
 72
  1500
 73
     1
 74
     0
 75
     0
 76
     0
 77
     0
 78
     0
  0
ENDTAB
  0
TABLE
  2
LTYPE
 70
     4
  0
LTYPE
  2
CONTINUOUS
 70
     0
  3
Solid line
 72
    65
 73
     0
 40
0.0
  0
LTYPE
  2
AUSGEZOGEN
 70
     0
  3
Ausgezogene Linie
 72
    65
 73
     0
 40
0.0
  0
LTYPE
  2
PHANTOM2
 70
     0
  3
Phantom (.5x) ___ _ _ ___ _ _ ___ _ _ ___ _ _
 72
    65
 73
     6
 40
1.25
 49
0.625
 49
-0.125
 49
0.125
 49
-0.125
 49
0.125
 49
-0.125
  0
LTYPE
  2
VERDECKT
 70
     0
  3
Verdeckt __ __ __ __ __ __ __ __ __ __ __ __ __
 72
    65
 73
     2
 40
0.375
 49
0.25
 49
-0.125
  0
ENDTAB
  0
TABLE
  2
LAYER
 70
     4
  0
LAYER
  2
0
 70
     0
 62
     7
  6
CONTINUOUS
  0
LAYER
  2
ROHR
 70
     0
 62
   254
  6
CONTINUOUS
  0
LAYER
  2
VOLL
 70
     0
 62
     1
  6
CONTINUOUS
  0
LAYER
  2
DEFPOINTS
 70
     0
 62
     7
  6
AUSGEZOGEN
  0
ENDTAB
  0
TABLE
  2
STYLE
 70
     3
  0
STYLE
  2
STANDARD
 70
     0
 40
0.0
 41
0.8
 50
0.0
 71
     0
 42
3.5
  3
simplex.shx
  4

  0
STYLE
  2
ANNOTATIVE
 70
     0
 40
0.0
 41
1.0
 50
0.0
 71
     0
 42
0.2
  3
txt
  4

  0
STYLE
  2
GREEKS
 70
     0
 40
0.0
 41
0.8
 50
0.0
 71
     0
 42
2.5
  3
SIMPLEX.shx
  4

  0
ENDTAB
  0
TABLE
  2
VIEW
 70
     0
  0
ENDTAB
  0
TABLE
  2
UCS
 70
     0
  0
ENDTAB
  0
TABLE
  2
APPID
 70
    27
  0
APPID
  2
ACAD
 70
     0
  0
APPID
  2
ACADANNOTATIVE
 70
     0
  0
APPID
  2
ACAD_NAV_VCDISPLAY
 70
     0
  0
APPID
  2
GRADIENTCOLOR1ACI
 70
     0
  0
APPID
  2
GRADIENTCOLOR2ACI
 70
     0
  0
APPID
  2
ACAD_DSTYLE_DIMRADIAL_EXTENSION
 70
     0
  0
APPID
  2
ACADANNOMONITORALERTICONDI
 70
     0
  0
APPID
  2
ACAD_EXEMPT_FROM_CAD_STANDARDS
 70
     0
  0
APPID
  2
ACAD_MLEADERVER
 70
     0
  0
APPID
  2
ACAD_PSEXT
 70
     0
  0
APPID
  2
ACAECLAYERSTANDARD
 70
     0
  0
APPID
  2
ACAD_DSTYLE_DIMJAG
 70
     0
  0
APPID
  2
ACAD_DSTYLE_DIMTALN
 70
     0
  0
APPID
  2
ACCMTRANSPARENCY
 70
     0
  0
APPID
  2
ACAD_OBJECT_CHANGE_GUID
 70
     0
  0
APPID
  2
MCAD_NO_VIS
 70
     0
  0
APPID
  2
ACAD_TEMP_GRAPHIC
 70
     0
  0
APPID
  2
ACATTRIBSERVICES
 70
     0
  0
APPID
  2
DESIGNERASSEMBLIES
 70
     0
  0
APPID
  2
ACAD_DSTYLE_DIMBREAK
 70
     0
  0
APPID
  2
GENIUS_GENSCREG_15
 70
     0
  0
APPID
  2
GENIUS_GENODEF_13
 70
     0
  0
APPID
  2
GENIUS_GENOBJ-N-SDF_13
 70
     0
  0
APPID
  2
ACAD_DSTYLE_DIMINSPECT
 70
     0
  0
APPID
  2
GENIUS_GENDTOL_13
 70
     0
  0
APPID
  2
ACDBDYNAMICBLOCKGUID
 70
     0
  0
APPID
  2
ACAD_STEPID
 70
     0
  0
ENDTAB
  0
TABLE
  2
DIMSTYLE
 70
     2
  0
DIMSTYLE
  2
STANDARD
 70
     0
  3

  4

  5

  6

  7

 40
1.0
 41
0.18
 42
0.0625
 43
0.38
 44
0.18
 45
0.0
 46
0.0
 47
0.0
 48
0.0
140
0.18
141
0.09
142
0.0
143
25.3999999999999986
144
1.0
145
0.0
146
1.0
147
0.09
 71
     0
 72
     0
 73
     1
 74
     1
 75
     0
 76
     0
 77
     0
 78
     0
170
     0
171
     2
172
     0
173
     0
174
     0
175
     0
176
     0
177
     0
178
     0
  0
DIMSTYLE
  2
ANNOTATIVE
 70
     0
  3

  4

  5

  6

  7

 40
1.0
 41
0.18
 42
0.0625
 43
0.38
 44
0.18
 45
0.0
 46
0.0
 47
0.0
 48
0.0
140
0.18
141
0.09
142
0.0
143
25.3999999999999986
144
1.0
145
0.0
146
1.0
147
0.09
 71
     0
 72
     0
 73
     1
 74
     1
 75
     0
 76
     0
 77
     0
 78
     0
170
     0
171
     2
172
     0
173
     0
174
     0
175
     0
176
     0
177
     0
178
     0
  0
ENDTAB
  0
ENDSEC
  0
SECTION
  2
BLOCKS
  0
BLOCK
  8
0
  2
$MODEL_SPACE
 70
     0
 10
0.0
 20
0.0
 30
0.0
  3
$MODEL_SPACE
  1

  0
ENDBLK
  5
2EAB
  8
0
  0
BLOCK
 67
     1
  8
0
  2
$PAPER_SPACE
 70
     0
 10
0.0
 20
0.0
 30
0.0
  3
$PAPER_SPACE
  1

  0
ENDBLK
  5
2EA7
 67
     1
  8
0
  0
BLOCK
  8
0
  2
A$C04872A8E
 70
     0
 10
0.0
 20
0.0
 30
0.0
  3
A$C04872A8E
  1

  0
LINE
  5
2D4F
  8
0
  6
CONTINUOUS
 62
     3
 10
994.8883425545666341
 20
763.8192147954174516
 30
0.0
 11
993.8883425545666341
 21
763.8192147954174516
 31
0.0
210
0.0
220
1.0
230
0.0
  0
LINE
  5
2D50
  8
0
  6
CONTINUOUS
 62
     3
 10
993.8883425545666341
 20
463.8192147954176221
 30
0.0
 11
993.8883425545666341
 21
483.8192147954171105
 31
0.0
210
0.0
220
1.0
230
0.0
  0
LINE
  5
2D51
  8
0
  6
CONTINUOUS
 62
     3
 10
993.8883425545666341
 20
743.8192147954174516
 30
0.0
 11
993.8883425545666341
 21
483.8192147954171105
 31
0.0
210
0.0
220
1.0
230
0.0
  0
LINE
  5
2D52
  8
0
  6
CONTINUOUS
 62
     3
 10
993.8883425545666341
 20
743.8192147954174516
 30
0.0
 11
993.8883425545666341
 21
763.8192147954174516
 31
0.0
210
0.0
220
1.0
230
0.0
  0
LINE
  5
2D53
  8
0
  6
CONTINUOUS
 62
     3
 10
993.8883425545666341
 20
463.8192147954171105
 30
0.0
 11
994.8883425545666341
 21
463.8192147954171105
 31
0.0
210
0.0
220
1.0
230
0.0
  0
LINE
  5
2D54
  8
0
  6
CONTINUOUS
 62
     3
 10
994.8883425545666341
 20
483.8192147954171105
 30
0.0
 11
994.8883425545666341
 21
463.8192147954171105
 31
0.0
210
0.0
220
1.0
230
0.0
  0
LINE
  5
2D55
  8
0
  6
CONTINUOUS
 62
     3
 10
994.8883425545666341
 20
483.8192147954171105
 30
0.0
 11
993.8883425545666341
 21
483.8192147954171105
 31
0.0
210
0.0
220
1.0
230
0.0
  0
LINE
  5
2D56
  8
0
  6
CONTINUOUS
 62
     3
 10
994.8883425545666341
 20
763.8192147954168831
 30
0.0
 11
994.8883425545666341
 21
743.8192147954174516
 31
0.0
210
0.0
220
1.0
230
0.0
  0
LINE
  5
2D57
  8
0
  6
CONTINUOUS
 62
     3
 10
993.8883425545666341
 20
743.8192147954174516
 30
0.0
 11
994.8883425545666341
 21
743.8192147954174516
 31
0.0
210
0.0
220
1.0
230
0.0
  0
LINE
  5
2D58
  8
0
  6
CONTINUOUS
 62
     3
 10
994.8883425545666341
 20
483.8192147954171105
 30
0.0
 11
994.8883425545666341
 21
743.8192147954174516
 31
0.0
210
0.0
220
1.0
230
0.0
  0
LINE
  5
2D59
  8
0
  6
CONTINUOUS
 62
     3
 10
995.3187560040865947
 20
579.8550103760398997
 30
0.0
 11
995.3187560040865947
 21
647.7834192147945487
 31
0.0
210
0.0
220
1.0
230
0.0
  0
LINE
  5
2D5A
  8
0
  6
CONTINUOUS
 62
     3
 10
1004.0275156555270542
 20
581.0789467266755537
 30
0.0
 11
1004.0275156555270542
 21
646.5594828641585536
 31
0.0
210
0.0
220
1.0
230
0.0
  0
ARC
  5
2D5B
  8
0
  6
CONTINUOUS
 62
     3
 10
-995.3883425545667478
 20
579.3598763416689508
 30
0.0
 40
0.5
210
0.0
220
0.0
230
-1.0
 50
0.0
 51
81.9999999999862013
  0
ARC
  5
2D5C
  8
0
  6
CONTINUOUS
 62
     3
 10
-995.3883425545667478
 20
648.2785532491652702
 30
0.0
 40
0.4999999999998904
210
0.0
220
0.0
230
-1.0
 50
278.0000000000136993
 51
0.0000000000065138
  0
LINE
  5
2D5D
  8
0
  6
CONTINUOUS
 62
     3
 10
1004.0275156555270542
 20
581.0789467266755537
 30
0.0
 11
995.3187560040865947
 21
579.8550103760398997
 31
0.0
210
0.0
220
1.0
230
0.0
  0
LINE
  5
2D5E
  8
0
  6
CONTINUOUS
 62
     3
 10
1004.0275156555270542
 20
646.5594828641585536
 30
0.0
 11
995.3187560040865947
 21
647.7834192147945487
 31
0.0
210
0.0
220
1.0
230
0.0
  0
LINE
  5
2D5F
  8
0
  6
CONTINUOUS
 62
     3
 10
1792.1278782781860173
 20
639.8817714777907213
 30
0.0
 11
1792.1278782781860173
 21
587.7566581130439545
 31
0.0
210
0.0
220
1.0
230
0.0
  0
LINE
  5
2D60
  8
0
  6
CONTINUOUS
 62
     3
 10
1787.1278782781860173
 20
640.3192147954199527
 30
0.0
 11
1787.1278782781860173
 21
587.3192147954141547
 31
0.0
210
0.0
220
1.0
230
0.0
  0
LINE
  5
2D61
  8
0
  6
CONTINUOUS
 62
     3
 10
1013.6278782781849941
 20
642.8192147954172242
 30
0.0
 11
1013.6278782781860173
 21
584.8192147954174516
 31
0.0
210
0.0
220
1.0
230
0.0
  0
LINE
  5
2D62
  8
0
  6
CONTINUOUS
 62
     3
 10
1024.9842316542699336
 20
642.8192147954168831
 30
0.0
 11
1024.9842316542690241
 21
584.8192147954174516
 31
0.0
210
0.0
220
1.0
230
0.0
  0
LINE
  5
2D63
  8
0
  6
CONTINUOUS
 62
     3
 10
1030.6177493852248972
 20
641.3448558210582178
 30
0.0
 11
1030.6177493852248972
 21
586.2935737697760032
 31
0.0
210
0.0
220
1.0
230
0.0
  0
LINE
  5
2D64
  8
0
  6
CONTINUOUS
 62
     3
 10
1034.5367182415409388
 20
640.3192147954171105
 30
0.0
 11
1034.5367182415409388
 21
587.3192147954174516
 31
0.0
210
0.0
220
1.0
230
0.0
  0
LINE
  5
2D65
  8
0
  6
CONTINUOUS
 62
     3
 10
1010.1292814826130098
 20
643.4192238629964322
 30
0.0
 11
1010.1292814826130098
 21
584.2192057278380162
 31
0.0
210
0.0
220
1.0
230
0.0
  0
LINE
  5
2D66
  8
0
  6
CONTINUOUS
 62
     3
 10
992.1278782781852215
 20
642.8701288835321748
 30
0.0
 11
992.1278782781855625
 21
584.7683007073022736
 31
0.0
210
0.0
220
1.0
230
0.0
  0
LINE
  5
2D67
  8
0
  6
CONTINUOUS
 62
     3
 10
1792.1278782781860173
 20
587.7566581130439545
 30
0.0
 11
1787.1278782781860173
 21
587.3192147954141547
 31
0.0
210
0.0
220
1.0
230
0.0
  0
LINE
  5
2D68
  8
0
  6
CONTINUOUS
 62
     3
 10
1792.1278782781860173
 20
639.8817714777907213
 30
0.0
 11
1787.1278782781860173
 21
640.3192147954202937
 31
0.0
210
0.0
220
1.0
230
0.0
  0
LINE
  5
2D69
  8
0
  6
CONTINUOUS
 62
     3
 10
1024.9842316542699336
 20
584.8192147954174516
 30
0.0
 11
1013.6278782781849941
 21
584.8192147954174516
 31
0.0
210
0.0
220
1.0
230
0.0
  0
LINE
  5
2D6A
  8
0
  6
CONTINUOUS
 62
     3
 10
1024.9842316542699336
 20
642.8192147954168831
 30
0.0
 11
1013.6278782781860173
 21
642.8192147954168831
 31
0.0
210
0.0
220
1.0
230
0.0
  0
ARC
  5
2D6B
  8
0
  6
CONTINUOUS
 62
     3
 10
-1024.9842316542690241
 20
631.3192147954156326
 30
0.0
 40
11.5000000000012896
210
0.0
220
0.0
230
-1.0
 50
90.0
 51
119.3321101677024956
  0
ARC
  5
2D6C
  8
0
  6
CONTINUOUS
 62
     3
 10
-1024.9842316542690241
 20
596.3192147954185884
 30
0.0
 40
11.5000000000013003
210
0.0
220
0.0
230
-1.0
 50
240.6678898322973907
 51
270.0
  0
ARC
  5
2D6D
  8
0
  6
CONTINUOUS
 62
     3
 10
-1034.5367182415409388
 20
648.31921479541802
 30
0.0
 40
8.000000000000945
210
0.0
220
0.0
230
-1.0
 50
270.0
 51
299.332110167702524
  0
ARC
  5
2D6E
  8
0
  6
CONTINUOUS
 62
     3
 10
-1034.5367182415409388
 20
579.3192147954166558
 30
0.0
 40
8.0000000000009308
210
0.0
220
0.0
230
-1.0
 50
60.6678898322974902
 51
89.9999999999934914
  0
ARC
  5
2D6F
  8
0
  6
CONTINUOUS
 62
     3
 10
-1001.9658782781870059
 20
620.319214795423818
 30
0.0
 40
24.50003205712121
210
0.0
220
0.0
230
-1.0
 50
99.3503740908461737
 51
109.4630994446929009
  0
ARC
  5
2D70
  8
0
  6
CONTINUOUS
 62
     3
 10
-1001.9658782781870059
 20
607.3192147954113125
 30
0.0
 40
24.5000320571221017
210
0.0
220
0.0
230
-1.0
 50
250.5369005553071133
 51
260.6496259091538263
  0
ARC
  5
2D71
  8
0
  6
CONTINUOUS
 62
     3
 10
-1013.6278782781849941
 20
653.3192147954163147
 30
0.0
 40
10.49999999999911
210
0.0
220
0.0
230
-1.0
 50
270.0
 51
289.4630994446928867
  0
ARC
  5
2D72
  8
0
  6
CONTINUOUS
 62
     3
 10
-1013.6278782781849941
 20
574.3192147954182474
 30
0.0
 40
10.4999999999990195
210
0.0
220
0.0
230
-1.0
 50
70.5369005553092734
 51
90.0
  0
ARC
  5
2D73
  8
0
  6
CONTINUOUS
 62
     3
 10
-1000.5103796208360336
 20
625.8192147954421216
 30
0.0
 40
18.9999999999730314
210
0.0
220
0.0
230
-1.0
 50
63.8205326270862088
 51
69.6026762769126321
  0
ARC
  5
2D74
  8
0
  6
CONTINUOUS
 62
     3
 10
-1000.5103796208370568
 20
601.8192147953950553
 30
0.0
 40
18.9999999999756284
210
0.0
220
0.0
230
-1.0
 50
290.3973237230874247
 51
296.1794673729137912
  0
LINE
  5
2D75
  8
0
  6
CONTINUOUS
 62
     3
 10
1787.1278782781860173
 20
587.3192147954156326
 30
0.0
 11
1034.5367182415409388
 21
587.3192147954156326
 31
0.0
210
0.0
220
1.0
230
0.0
  0
LINE
  5
2D76
  8
0
  6
CONTINUOUS
 62
     3
 10
1787.1278782781860173
 20
640.3192147954185884
 30
0.0
 11
1034.5367182415409388
 21
640.3192147954185884
 31
0.0
210
0.0
220
1.0
230
0.0
  0
LINE
  5
2D77
  8
0
  6
CONTINUOUS
 62
     3
 10
1004.0275156555270542
 20
581.0789467266755537
 30
0.0
 11
1004.0275156555270542
 21
646.5594828641585536
 31
0.0
210
0.0
220
1.0
230
0.0
  0
ARC
  5
2D78
  8
0
  6
CONTINUOUS
 62
     3
 10
-1003.888342554565952
 20
583.132325853365046
 30
0.0
 40
2.0580901316402551
210
0.0
220
0.0
230
-1.0
 50
180.0
 51
266.1225599435518916
  0
ARC
  5
2D79
  8
0
  6
CONTINUOUS
 62
     3
 10
-1003.888342554565952
 20
644.5061037374695161
 30
0.0
 40
2.0580901316398781
210
0.0
220
0.0
230
-1.0
 50
93.8774400564415572
 51
180.0000000000065086
  0
LINE
  5
2D7A
  8
0
  6
CONTINUOUS
 62
     3
 10
1005.9464326862070038
 20
583.132325853365046
 30
0.0
 11
1005.9464326862070038
 21
644.5061037374694024
 31
0.0
210
0.0
220
1.0
230
0.0
  0
LINE
  5
2D7B
  8
0
  6
VERDECKT
 62
     1
 10
995.1795829031268568
 20
580.8452784447813428
 30
0.0
 11
995.1795829031268568
 21
646.7931511460529919
 31
0.0
210
0.0
220
1.0
230
0.0
  0
LINE
  5
2D7C
  8
0
  6
VERDECKT
 62
     1
 10
1003.888342554565952
 20
582.0692147954172242
 30
0.0
 11
1003.888342554565952
 21
645.5692147954171105
 31
0.0
210
0.0
220
1.0
230
0.0
  0
LINE
  5
2D7D
  8
0
  6
VERDECKT
 62
     1
 10
994.8883425545666341
 20
740.8192147954174516
 30
0.0
 11
993.8883425545666341
 21
740.8192147954174516
 31
0.0
210
0.0
220
1.0
230
0.0
  0
LINE
  5
2D7E
  8
0
  6
VERDECKT
 62
     1
 10
994.8883425545666341
 20
746.8192147954174516
 30
0.0
 11
993.8883425545666341
 21
746.8192147954174516
 31
0.0
210
0.0
220
1.0
230
0.0
  0
LINE
  5
2D7F
  8
0
  6
VERDECKT
 62
     1
 10
994.8883425545666341
 20
480.8192147954171105
 30
0.0
 11
993.8883425545666341
 21
480.8192147954171105
 31
0.0
210
0.0
220
1.0
230
0.0
  0
LINE
  5
2D80
  8
0
  6
VERDECKT
 62
     1
 10
994.8883425545666341
 20
486.8192147954172242
 30
0.0
 11
993.8883425545666341
 21
486.8192147954172242
 31
0.0
210
0.0
220
1.0
230
0.0
  0
LINE
  5
2D81
  8
0
  6
VERDECKT
 62
     1
 10
1003.888342554565952
 20
582.0692147954172242
 30
0.0
 11
995.1795829031268568
 21
580.8452784447813428
 31
0.0
210
0.0
220
1.0
230
0.0
  0
LINE
  5
2D82
  8
0
  6
VERDECKT
 62
     1
 10
1003.888342554565952
 20
645.5692147954172242
 30
0.0
 11
995.1795829031268568
 21
646.7931511460529919
 31
0.0
210
0.0
220
1.0
230
0.0
  0
ARC
  5
2D83
  8
0
  6
VERDECKT
 62
     1
 10
-995.3883425545669752
 20
579.3598763416687234
 30
0.0
 40
1.5000000000004541
210
0.0
220
0.0
230
-1.0
 50
0.0000000000130276
 51
81.9999999999797637
  0
ARC
  5
2D84
  8
0
  6
VERDECKT
 62
     1
 10
-995.3883425545669752
 20
648.2785532491654976
 30
0.0
 40
1.500000000000363
210
0.0
220
0.0
230
-1.0
 50
278.0000000000201794
 51
359.999999999986926
  0
LINE
  5
2D85
  8
0
  6
VERDECKT
 62
     1
 10
1003.888342554565952
 20
645.5692147954172242
 30
0.0
 11
1004.0275156555270542
 21
646.5594828641585536
 31
0.0
210
0.0
220
1.0
230
0.0
  0
LINE
  5
2D86
  8
0
  6
VERDECKT
 62
     1
 10
1003.888342554565952
 20
582.0692147954172242
 30
0.0
 11
1004.0275156555270542
 21
581.0789467266755537
 31
0.0
210
0.0
220
1.0
230
0.0
  0
LINE
  5
2D87
  8
0
  6
VERDECKT
 62
     1
 10
1787.0842173352780264
 20
639.3192147954200664
 30
0.0
 11
1787.0842173352780264
 21
588.319214795414382
 31
0.0
210
0.0
220
1.0
230
0.0
  0
LINE
  5
2D88
  8
0
  6
VERDECKT
 62
     1
 10
1030.1278782781851078
 20
640.4730609492632993
 30
0.0
 11
1030.1278782781851078
 21
587.1653686415710354
 31
0.0
210
0.0
220
1.0
230
0.0
  0
LINE
  5
2D89
  8
0
  6
VERDECKT
 62
     1
 10
1001.9262449548250515
 20
644.8192147954166558
 30
0.0
 11
1001.9262449548250515
 21
582.8192147954174516
 31
0.0
210
0.0
220
1.0
230
0.0
  0
LINE
  5
2D8A
  8
0
  6
VERDECKT
 62
     1
 10
1009.796081787796993
 20
642.4763675837184564
 30
0.0
 11
1009.796081787796993
 21
585.1620620071159919
 31
0.0
210
0.0
220
1.0
230
0.0
  0
LINE
  5
2D8B
  8
0
  6
VERDECKT
 62
     1
 10
1001.9270622250890028
 20
643.8192147954187021
 30
0.0
 11
1001.9270622250890028
 21
583.8192147954156326
 31
0.0
210
0.0
220
1.0
230
0.0
  0
LINE
  5
2D8C
  8
0
  6
VERDECKT
 62
     1
 10
1000.5103796208460381
 20
644.8192147954171105
 30
0.0
 11
1000.5103796208460381
 21
582.8192147954174516
 31
0.0
210
0.0
220
1.0
230
0.0
  0
LINE
  5
2D8D
  8
0
  6
VERDECKT
 62
     1
 10
1792.1278782781851078
 20
588.7604779505870738
 30
0.0
 11
1787.0842173352768896
 21
588.3192147954144957
 31
0.0
210
0.0
220
1.0
230
0.0
  0
LINE
  5
2D8E
  8
0
  6
VERDECKT
 62
     1
 10
1792.1278782781851078
 20
638.8779516402471472
 30
0.0
 11
1787.0842173352780264
 21
639.3192147954199527
 31
0.0
210
0.0
220
1.0
230
0.0
  0
LINE
  5
2D8F
  8
0
  6
VERDECKT
 62
     1
 10
1024.9842316542699336
 20
585.8192147954174516
 30
0.0
 11
1013.6278782781849941
 21
585.8192147954174516
 31
0.0
210
0.0
220
1.0
230
0.0
  0
LINE
  5
2D90
  8
0
  6
VERDECKT
 62
     1
 10
1024.9842316542699336
 20
641.8192147954171105
 30
0.0
 11
1013.6278782781849941
 21
641.8192147954171105
 31
0.0
210
0.0
220
1.0
230
0.0
  0
ARC
  5
2D91
  8
0
  6
VERDECKT
 62
     1
 10
-1034.5367182415409388
 20
648.3192147954166558
 30
0.0
 40
8.9999999999995257
210
0.0
220
0.0
230
-1.0
 50
270.0
 51
299.332110167702524
  0
ARC
  5
2D92
  8
0
  6
VERDECKT
 62
     1
 10
-1034.5367182415409388
 20
579.3192147954176789
 30
0.0
 40
8.9999999999995097
210
0.0
220
0.0
230
-1.0
 50
60.6678898322942928
 51
90.0
  0
ARC
  5
2D93
  8
0
  6
VERDECKT
 62
     1
 10
-1024.9842316542690241
 20
631.3192147954159736
 30
0.0
 40
10.5000000000010303
210
0.0
220
0.0
230
-1.0
 50
90.0
 51
119.3321101677024956
  0
ARC
  5
2D94
  8
0
  6
VERDECKT
 62
     1
 10
-1024.9842316542690241
 20
596.3192147954185884
 30
0.0
 40
10.5000000000011706
210
0.0
220
0.0
230
-1.0
 50
240.6678898322973907
 51
270.0
  0
ARC
  5
2D95
  8
0
  6
VERDECKT
 62
     1
 10
-1001.9658782781849595
 20
620.3192147954157463
 30
0.0
 40
24.5000320571293813
210
0.0
220
0.0
230
-1.0
 50
89.9073134622135655
 51
99.3503740908461737
  0
ARC
  5
2D96
  8
0
  6
VERDECKT
 62
     1
 10
-1001.9658782781849595
 20
607.3192147954185884
 30
0.0
 40
24.5000320571293884
210
0.0
220
0.0
230
-1.0
 50
260.6496259091538263
 51
270.0926865377863919
  0
ARC
  5
2D97
  8
0
  6
VERDECKT
 62
     1
 10
-1013.6278782781860173
 20
653.3192147954169968
 30
0.0
 40
11.4999999999997602
210
0.0
220
0.0
230
-1.0
 50
270.0
 51
289.4630994446907266
  0
ARC
  5
2D98
  8
0
  6
VERDECKT
 62
     1
 10
-1013.6278782781860173
 20
574.3192147954174516
 30
0.0
 40
11.4999999999998703
210
0.0
220
0.0
230
-1.0
 50
70.5369005553092734
 51
90.0
  0
ARC
  5
2D99
  8
0
  6
VERDECKT
 62
     1
 10
-1001.9658782781859827
 20
620.3192147954187021
 30
0.0
 40
23.5000320571266208
210
0.0
220
0.0
230
-1.0
 50
89.9053619575674645
 51
109.4630994446906982
  0
ARC
  5
2D9A
  8
0
  6
VERDECKT
 62
     1
 10
-1001.9658782781859827
 20
607.3192147954156326
 30
0.0
 40
23.5000320571266386
210
0.0
220
0.0
230
-1.0
 50
250.5369005553093018
 51
270.0946380424323934
  0
LINE
  5
2D9B
  8
0
  6
VERDECKT
 62
     1
 10
1001.9270622250890028
 20
583.8192147954166558
 30
0.0
 11
1000.5103796208460381
 21
583.8192147954166558
 31
0.0
210
0.0
220
1.0
230
0.0
  0
LINE
  5
2D9C
  8
0
  6
VERDECKT
 62
     1
 10
1001.9270622250890028
 20
643.8192147954176789
 30
0.0
 11
1000.5103796208460381
 21
643.8192147954176789
 31
0.0
210
0.0
220
1.0
230
0.0
  0
ARC
  5
2D9D
  8
0
  6
VERDECKT
 62
     1
 10
-1000.5103796208460381
 20
625.8192147954176789
 30
0.0
 40
17.9999999999996412
210
0.0
220
0.0
230
-1.0
 50
62.2448206083803512
 51
90.0
  0
ARC
  5
2D9E
  8
0
  6
VERDECKT
 62
     1
 10
-1000.5103796208460381
 20
601.8192147954171105
 30
0.0
 40
17.9999999999996909
210
0.0
220
0.0
230
-1.0
 50
270.0
 51
297.7551793916139786
  0
ARC
  5
2D9F
  8
0
  6
VERDECKT
 62
     1
 10
-1000.5103796208460381
 20
625.8192147954192706
 30
0.0
 40
18.999999999997879
210
0.0
220
0.0
230
-1.0
 50
69.6026762769065215
 51
90.0
  0
ARC
  5
2DA0
  8
0
  6
VERDECKT
 62
     1
 10
-1000.5103796208460381
 20
601.8192147954167694
 30
0.0
 40
18.9999999999992113
210
0.0
220
0.0
230
-1.0
 50
270.0
 51
290.3973237230935069
  0
LINE
  5
2DA1
  8
0
  6
VERDECKT
 62
     1
 10
1001.9262449548250515
 20
582.8192147954174516
 30
0.0
 11
1000.5103796208460381
 21
582.8192147954174516
 31
0.0
210
0.0
220
1.0
230
0.0
  0
LINE
  5
2DA2
  8
0
  6
VERDECKT
 62
     1
 10
1001.9262449548250515
 20
644.8192147954169968
 30
0.0
 11
1000.5103796208460381
 21
644.8192147954169968
 31
0.0
210
0.0
220
1.0
230
0.0
  0
LINE
  5
2DA3
  8
0
  6
VERDECKT
 62
     1
 10
1787.0842173352780264
 20
588.3192147954156326
 30
0.0
 11
1034.5367182415409388
 21
588.3192147954156326
 31
0.0
210
0.0
220
1.0
230
0.0
  0
LINE
  5
2DA4
  8
0
  6
VERDECKT
 62
     1
 10
1787.0842173352780264
 20
639.3192147954183611
 30
0.0
 11
1034.5367182415409388
 21
639.3192147954183611
 31
0.0
210
0.0
220
1.0
230
0.0
  0
LINE
  5
2DA5
  8
0
  6
VERDECKT
 62
     1
 10
1005.934432221868974
 20
583.3542539122315702
 30
0.0
 11
1005.934432221868974
 21
644.2841756786027645
 31
0.0
210
0.0
220
1.0
230
0.0
  0
LINE
  5
2DA6
  8
0
  6
VERDECKT
 62
     1
 10
1003.888342554565952
 20
582.0692147954174516
 30
0.0
 11
1003.888342554565952
 21
645.5692147954171105
 31
0.0
210
0.0
220
1.0
230
0.0
  0
ARC
  5
2DA7
  8
0
  6
VERDECKT
 62
     1
 10
-1002.2718303062530367
 20
607.5789710005491315
 30
0.0
 40
24.5000320571483599
210
0.0
220
0.0
230
-1.0
 50
261.402409633598495
 51
266.2168758787433944
  0
ARC
  5
2DA8
  8
0
  6
VERDECKT
 62
     1
 10
-1002.2718303062539462
 20
620.0594585902872495
 30
0.0
 40
24.5000320571463703
210
0.0
220
0.0
230
-1.0
 50
93.7831241212565914
 51
98.5975903664016329
  0
LINE
  5
2DA9
  8
0
  6
VERDECKT
 62
     1
 10
1003.888342554565952
 20
645.5692147954172242
 30
0.0
 11
1004.0275156555270542
 21
646.5594828641585536
 31
0.0
210
0.0
220
1.0
230
0.0
  0
LINE
  5
2DAA
  8
0
  6
VERDECKT
 62
     1
 10
1003.888342554565952
 20
582.0692147954172242
 30
0.0
 11
1004.0275156555270542
 21
581.0789467266755537
 31
0.0
210
0.0
220
1.0
230
0.0
  0
ARC
  5
2DAB
  8
0
  6
VERDECKT
 62
     1
 10
-1003.8883425545640193
 20
583.1323258533659555
 30
0.0
 40
2.0580901316425271
210
0.0
220
0.0
230
-1.0
 50
173.8096427562093993
 51
180.0000000000324007
  0
ARC
  5
2DAC
  8
0
  6
VERDECKT
 62
     1
 10
-1003.8883425545650425
 20
644.5061037374681518
 30
0.0
 40
2.058090131642301
210
0.0
220
0.0
230
-1.0
 50
179.9999999999674003
 51
186.1903572437906007
  0
ENDBLK
  5
2DAE
  8
0
  0
BLOCK
  8
0
  2
A$C2F9A10B7
 70
     0
 10
0.0
 20
0.0
 30
0.0
  3
A$C2F9A10B7
  1

  0
CIRCLE
  5
2DB2
  8
0
  6
CONTINUOUS
 62
     3
 10
-116.8864420314886985
 20
219.7807938540871078
 30
0.0
 40
3.0
210
0.0
220
0.0
230
-1.0
  0
CIRCLE
  5
2DB3
  8
0
  6
CONTINUOUS
 62
     3
 10
-116.8864420314886985
 20
479.7807938540869941
 30
0.0
 40
3.0
210
0.0
220
0.0
230
-1.0
  0
CIRCLE
  5
2DB4
  8
0
  6
CONTINUOUS
 62
     3
 10
-376.8864420314886843
 20
479.7807938540869941
 30
0.0
 40
3.0
210
0.0
220
0.0
230
-1.0
  0
CIRCLE
  5
2DB5
  8
0
  6
CONTINUOUS
 62
     3
 10
-376.8864420314886843
 20
219.7807938540871078
 30
0.0
 40
3.0
210
0.0
220
0.0
230
-1.0
  0
ARC
  5
2DB6
  8
0
  6
CONTINUOUS
 62
     3
 10
-116.8864420314883006
 20
479.7807938540872783
 30
0.0
 40
19.999999999999531
210
0.0
220
0.0
230
-1.0
 50
0.0
 51
90.0
  0
LINE
  5
2DB7
  8
0
  6
CONTINUOUS
 62
     3
 10
116.8864420314886985
 20
499.7807938540869941
 30
0.0
 11
376.8864420314886843
 21
499.7807938540869941
 31
0.0
210
0.0
220
1.0
230
0.0
  0
CIRCLE
  5
2DB8
  8
0
  6
CONTINUOUS
 62
     3
 10
-246.8864420314887127
 20
349.7807938540871078
 30
0.0
 40
34.4593384537482095
210
0.0
220
0.0
230
-1.0
  0
LINE
  5
2DB9
  8
0
  6
CONTINUOUS
 62
     3
 10
96.8864420314887695
 20
219.7807938540871078
 30
0.0
 11
96.8864420314887695
 21
479.7807938540868804
 31
0.0
210
0.0
220
1.0
230
0.0
  0
ARC
  5
2DBA
  8
0
  6
CONTINUOUS
 62
     3
 10
-116.8864420314883006
 20
219.7807938540869088
 30
0.0
 40
19.999999999999801
210
0.0
220
0.0
230
-1.0
 50
270.0
 51
0.0000000000032569
  0
LINE
  5
2DBB
  8
0
  6
CONTINUOUS
 62
     3
 10
376.8864420314886843
 20
199.7807938540871078
 30
0.0
 11
116.8864420314886985
 21
199.7807938540871078
 31
0.0
210
0.0
220
1.0
230
0.0
  0
ARC
  5
2DBC
  8
0
  6
CONTINUOUS
 62
     3
 10
-376.8864420314891959
 20
219.7807938540869088
 30
0.0
 40
19.999999999999531
210
0.0
220
0.0
230
-1.0
 50
180.0
 51
270.0
  0
LINE
  5
2DBD
  8
0
  6
CONTINUOUS
 62
     3
 10
396.8864420314886843
 20
479.7807938540869941
 30
0.0
 11
396.8864420314886843
 21
219.7807938540871078
 31
0.0
210
0.0
220
1.0
230
0.0
  0
ARC
  5
2DBE
  8
0
  6
CONTINUOUS
 62
     3
 10
-376.8864420314891959
 20
479.7807938540872783
 30
0.0
 40
19.999999999999801
210
0.0
220
0.0
230
-1.0
 50
90.0
 51
180.0
  0
CIRCLE
  5
2DBF
  8
0
  6
CONTINUOUS
 62
     3
 10
-246.8864420314887127
 20
349.7807938540871078
 30
0.0
 40
32.9739363506358671
210
0.0
220
0.0
230
-1.0
  0
CIRCLE
  5
2DC0
  8
0
  6
CONTINUOUS
 62
     3
 10
-246.8864420314887127
 20
349.7807938540871078
 30
0.0
 40
31.7499999999999396
210
0.0
220
0.0
230
-1.0
  0
CIRCLE
  5
2DC1
  8
0
  6
CONTINUOUS
 62
     3
 10
246.886442031488798
 20
349.7807938540872215
 30
0.0
 40
25.0587368448301113
  0
CIRCLE
  5
2DC2
  8
0
  6
CONTINUOUS
 62
     3
 10
246.886442031488798
 20
349.7807938540871078
 30
0.0
 40
26.6538461538461497
  0
CIRCLE
  5
2DC3
  8
0
  6
CONTINUOUS
 62
     3
 10
246.886442031488798
 20
349.7807938540871078
 30
0.0
 40
25.4999999999998685
  0
CIRCLE
  5
2DC4
  8
0
  6
CONTINUOUS
 62
     3
 10
246.886442031488798
 20
349.7807938540871078
 30
0.0
 40
27.9290197827824684
  0
CIRCLE
  5
2DC5
  8
0
  6
CONTINUOUS
 62
     3
 10
246.886442031488798
 20
349.7807938540871078
 30
0.0
 40
29.0509140881150714
  0
CIRCLE
  5
2DC6
  8
0
  6
CONTINUOUS
 62
     3
 10
246.886442031488798
 20
349.7807938540872215
 30
0.0
 40
30.9999999999997584
  0
CIRCLE
  5
2DC7
  8
0
  6
CONTINUOUS
 62
     3
 10
-246.886442031488798
 20
349.7807938540871078
 30
0.0
 40
31.000032057128049
210
0.0
220
0.0
230
-1.0
  0
CIRCLE
  5
2DC8
  8
0
  6
CONTINUOUS
 62
     3
 10
-246.886442031488798
 20
349.7807938540871078
 30
0.0
 40
31.7499999999999396
210
0.0
220
0.0
230
-1.0
  0
CIRCLE
  5
2DC9
  8
0
  6
VERDECKT
 62
     1
 10
-246.8864420314887127
 20
349.7807938540871078
 30
0.0
 40
33.9642044193774311
210
0.0
220
0.0
230
-1.0
  0
CIRCLE
  5
2DCA
  8
0
  6
VERDECKT
 62
     1
 10
-246.8864420314887127
 20
349.7807938540871078
 30
0.0
 40
32.7402680687415
210
0.0
220
0.0
230
-1.0
  0
CIRCLE
  5
2DCB
  8
0
  6
VERDECKT
 62
     1
 10
246.886442031488798
 20
349.7807938540872215
 30
0.0
 40
26.0625566823734012
  0
CIRCLE
  5
2DCC
  8
0
  6
VERDECKT
 62
     1
 10
246.886442031488798
 20
349.7807938540872215
 30
0.0
 40
28.9999999999999183
  0
CIRCLE
  5
2DCD
  8
0
  6
VERDECKT
 62
     1
 10
246.886442031488798
 20
349.7807938540871078
 30
0.0
 40
27.9999999999999893
  0
CIRCLE
  5
2DCE
  8
0
  6
VERDECKT
 62
     1
 10
246.886442031488798
 20
349.7807938540871078
 30
0.0
 40
27.5256410256410113
  0
CIRCLE
  5
2DCF
  8
0
  6
VERDECKT
 62
     1
 10
246.886442031488798
 20
349.7807938540871078
 30
0.0
 40
26.4999999999997513
  0
CIRCLE
  5
2DD0
  8
0
  6
VERDECKT
 62
     1
 10
246.886442031488798
 20
349.7807938540871078
 30
0.0
 40
29.6000090675793004
  0
CIRCLE
  5
2DD1
  8
0
  6
VERDECKT
 62
     1
 10
246.886442031488798
 20
349.7807938540871078
 30
0.0
 40
28.6571527883011186
  0
CIRCLE
  5
2DD2
  8
0
  6
VERDECKT
 62
     1
 10
246.886442031488798
 20
349.7807938540872215
 30
0.0
 40
29.9999999999999112
  0
CIRCLE
  5
2DD3
  8
0
  6
VERDECKT
 62
     1
 10
-246.886442031488798
 20
349.7807938540871078
 30
0.0
 40
30.0000320571280596
210
0.0
220
0.0
230
-1.0
  0
CIRCLE
  5
2DD4
  8
0
  6
VERDECKT
 62
     1
 10
-246.886442031488798
 20
349.7807938540871078
 30
0.0
 40
30.4649608831856611
210
0.0
220
0.0
230
-1.0
  0
CIRCLE
  5
2DD5
  8
0
  6
VERDECKT
 62
     1
 10
-246.886442031488798
 20
349.7807938540871078
 30
0.0
 40
30.6868889420524091
210
0.0
220
0.0
230
-1.0
  0
CIRCLE
  5
2DD6
  8
0
  6
VERDECKT
 62
     1
 10
-246.886442031488798
 20
349.7807938540871078
 30
0.0
 40
32.7402680687415
210
0.0
220
0.0
230
-1.0
  0
ENDBLK
  5
2DD8
  8
0
  0
ENDSEC
  0
SECTION
  2
ENTITIES
  0
TEXT
  5
89E
  8
VOLL
 10
317.7656175248495742
 20
455.7049816962950217
 30
0.0
 40
1.8
  1

 50
90.0
  7
GREEKS
  0
INSERT
  5
2EED
  8
ROHR
  2
A$C04872A8E
 10
-992.1278812593833436
 20
-463.819215042950475
 30
0.0
  0
INSERT
  5
2EEE
  8
ROHR
  2
A$C2F9A10B7
 10
909.9660936609842565
 20
-199.780794101620188
 30
0.0
  0
VIEWPORT
  5
12A3
 67
     1
  8
0
 10
382.3146226016953051
 20
326.9755773647070782
 30
0.0
 40
2449.4122608528919045
 41
957.5568998427570477
 68
     1
 69
     1
1001
ACAD
1000
MVIEW
1002
{
1070
    16
1010
0.0
1020
0.0
1030
0.0
1010
0.0
1020
0.0
1030
1.0
1040
0.0
1040
957.5568998427570477
1040
382.3146226016953051
1040
326.9755773647070782
1040
50.0
1040
0.0
1040
0.0
1070
     0
1070
  1500
1070
     1
1070
     1
1070
     0
1070
     0
1070
     0
1070
     0
1040
0.0
1040
0.0
1040
0.0
1040
10.0
1040
10.0
1040
10.0
1040
10.0
1070
     0
1002
{
1002
}
1002
}
1001
GENIUS_GENODEF_13
1002
{
1000
HIER
1070
     0
1002
}
1002
{
1000
MANEDIT
1070
     0
1002
}
1002
{
1000
NOSEL
1070
     0
1002
}
1002
{
1000
BEHIND
1070
     0
1002
}
1002
{
1000
OTHER
1070
     0
1002
}
1002
{
1000
REACTOR
1002
}
1001
GENIUS_GENOBJ-N-SDF_13
1002
{
1000
OWNER
1000
GEN
1002
}
1001
GENIUS_GENSCREG_15
1000
PF
1040
1.0
1000
DF
1040
1.0
1000
MIN
1011
-0.5585912071301209
1021
0.0
1031
0.0
1021
9.9874579825443544
1031
0.0
1000
MAX
1011
1147.4812028906519572
1021
0.0
1031
0.0
1021
584.0073550314356225
1031
0.0
1000
FLAGS
1070
     4
  0
ENDSEC
  0
EOF
