  0
SECTION
  2
HEADER
  9
$ACADVER
  1
AC1009
  9
$INSBASE
 10
0.0
 20
0.0
 30
0.0
  9
$EXTMIN
 10
2132.6861747371390265
 20
-204.5621937690370089
 30
0.0000000000003362
  9
$EXTMAX
 10
3340.1855881189671891
 20
95.4378062309631474
 30
0.0000000000004987
  9
$LIMMIN
 10
0.0
 20
0.0
  9
$LIMMAX
 10
840.0
 20
594.0
  9
$ORTHOMODE
 70
     1
  9
$REGENMODE
 70
     1
  9
$FILLMODE
 70
     1
  9
$QTEXTMODE
 70
     0
  9
$MIRRTEXT
 70
     1
  9
$DRAGMODE
 70
     2
  9
$LTSCALE
 40
10.0
  9
$OSMODE
 70
  2495
  9
$ATTMODE
 70
     1
  9
$TEXTSIZE
 40
3.5
  9
$TRACEWID
 40
1.0
  9
$TEXTSTYLE
  7
STANDARD
  9
$CLAYER
  8
STEMPEL
  9
$CELTYPE
  6
BYLAYER
  9
$CECOLOR
 62
   256
  9
$DIMSCALE
 40
1.0
  9
$DIMASZ
 40
3.5
  9
$DIMEXO
 40
1.0
  9
$DIMDLI
 40
7.0
  9
$DIMRND
 40
0.0
  9
$DIMDLE
 40
0.0
  9
$DIMEXE
 40
1.0
  9
$DIMTP
 40
0.0
  9
$DIMTM
 40
0.5
  9
$DIMTXT
 40
3.5
  9
$DIMCEN
 40
1.5
  9
$DIMTSZ
 40
0.0
  9
$DIMTOL
 70
     0
  9
$DIMLIM
 70
     0
  9
$DIMTIH
 70
     0
  9
$DIMTOH
 70
     0
  9
$DIMSE1
 70
     0
  9
$DIMSE2
 70
     0
  9
$DIMTAD
 70
     1
  9
$DIMZIN
 70
     8
  9
$DIMBLK
  1

  9
$DIMASO
 70
     1
  9
$DIMSHO
 70
     0
  9
$DIMPOST
  1

  9
$DIMAPOST
  1

  9
$DIMALT
 70
     0
  9
$DIMALTD
 70
     2
  9
$DIMALTF
 40
25.3999999999999986
  9
$DIMLFAC
 40
2.0
  9
$DIMTOFL
 70
     1
  9
$DIMTVP
 40
0.0
  9
$DIMTIX
 70
     0
  9
$DIMSOXD
 70
     0
  9
$DIMSAH
 70
     0
  9
$DIMBLK1
  1

  9
$DIMBLK2
  1

  9
$DIMSTYLE
  2
STANDARD
  9
$DIMCLRD
 70
     0
  9
$DIMCLRE
 70
     0
  9
$DIMCLRT
 70
     1
  9
$DIMTFAC
 40
0.5
  9
$DIMGAP
 40
1.5
  9
$LUNITS
 70
     2
  9
$LUPREC
 70
     2
  9
$SKETCHINC
 40
1.0
  9
$FILLETRAD
 40
0.0
  9
$AUNITS
 70
     0
  9
$AUPREC
 70
     0
  9
$MENU
  1
ACAD
  9
$ELEVATION
 40
0.0
  9
$PELEVATION
 40
0.0
  9
$THICKNESS
 40
0.0
  9
$LIMCHECK
 70
     0
  9
$BLIPMODE
 70
     0
  9
$CHAMFERA
 40
0.0
  9
$CHAMFERB
 40
0.0
  9
$SKPOLY
 70
     0
  9
$TDCREATE
 40
2455397.867048610933125
  9
$TDUPDATE
 40
2459613.4883101861923933
  9
$TDINDWG
 40
0.4722434491
  9
$TDUSRTIMER
 40
0.4722434491
  9
$USRTIMER
 70
     1
  9
$ANGBASE
 50
0.0
  9
$ANGDIR
 70
     0
  9
$PDMODE
 70
     0
  9
$PDSIZE
 40
0.0
  9
$PLINEWID
 40
0.0
  9
$COORDS
 70
     1
  9
$SPLFRAME
 70
     0
  9
$SPLINETYPE
 70
     6
  9
$SPLINESEGS
 70
     8
  9
$ATTDIA
 70
     1
  9
$ATTREQ
 70
     1
  9
$HANDLING
 70
     1
  9
$HANDSEED
  5
3DFF
  9
$SURFTAB1
 70
     6
  9
$SURFTAB2
 70
     6
  9
$SURFTYPE
 70
     6
  9
$SURFU
 70
     6
  9
$SURFV
 70
     6
  9
$UCSNAME
  2

  9
$UCSORG
 10
0.0
 20
0.0
 30
0.0
  9
$UCSXDIR
 10
1.0
 20
0.0
 30
0.0
  9
$UCSYDIR
 10
0.0
 20
1.0
 30
0.0
  9
$PUCSNAME
  2

  9
$PUCSORG
 10
0.0
 20
0.0
 30
0.0
  9
$PUCSXDIR
 10
1.0
 20
0.0
 30
0.0
  9
$PUCSYDIR
 10
0.0
 20
1.0
 30
0.0
  9
$USERI1
 70
     0
  9
$USERI2
 70
     0
  9
$USERI3
 70
     0
  9
$USERI4
 70
     0
  9
$USERI5
 70
     0
  9
$USERR1
 40
0.0
  9
$USERR2
 40
0.0
  9
$USERR3
 40
0.0
  9
$USERR4
 40
0.0
  9
$USERR5
 40
0.0
  9
$WORLDVIEW
 70
     1
  9
$SHADEDGE
 70
     3
  9
$SHADEDIF
 70
    70
  9
$TILEMODE
 70
     1
  9
$MAXACTVP
 70
    16
  9
$PLIMCHECK
 70
     0
  9
$PEXTMIN
 10
1.0000000000000000E+20
 20
1.0000000000000000E+20
 30
1.0000000000000000E+20
  9
$PEXTMAX
 10
-1.0000000000000000E+20
 20
-1.0000000000000000E+20
 30
-1.0000000000000000E+20
  9
$PLIMMIN
 10
523.0104592165455415
 20
185.6961808626494133
  9
$PLIMMAX
 10
1117.0952980837330415
 20
605.8545060579618848
  9
$UNITMODE
 70
     0
  9
$VISRETAIN
 70
     0
  9
$PLINEGEN
 70
     0
  9
$PSLTSCALE
 70
     0
  0
ENDSEC
  0
SECTION
  2
TABLES
  0
TABLE
  2
VPORT
 70
     1
  0
VPORT
  2
*ACTIVE
 70
     0
 10
0.0
 20
0.0
 11
1.0
 21
1.0
 12
62.7936435158762833
 22
-5.2773584219700922
 13
0.0
 23
0.0
 14
1.0
 24
1.0
 15
10.0
 25
10.0
 16
0.0000000000009095
 26
0.0
 36
3408.8378142498049783
 17
2673.6422379121768245
 27
-49.2848353470668528
 37
-37.2215641289501633
 40
679.1029623007970031
 41
1.7852028639618129
 42
50.0
 43
0.0
 44
0.0
 50
0.0
 51
0.0
 71
     0
 72
  1500
 73
     1
 74
     0
 75
     0
 76
     0
 77
     0
 78
     0
  0
ENDTAB
  0
TABLE
  2
LTYPE
 70
     7
  0
LTYPE
  2
CONTINUOUS
 70
     0
  3
Solid line
 72
    65
 73
     0
 40
0.0
  0
LTYPE
  2
AUSGEZOGEN
 70
     0
  3
Ausgezogene Linie
 72
    65
 73
     0
 40
0.0
  0
LTYPE
  2
PHANTOM2
 70
     0
  3
Phantom (.5x) ___ _ _ ___ _ _ ___ _ _ ___ _ _
 72
    65
 73
     6
 40
1.25
 49
0.625
 49
-0.125
 49
0.125
 49
-0.125
 49
0.125
 49
-0.125
  0
LTYPE
  2
VERDECKT
 70
     0
  3
Verdeckt __ __ __ __ __ __ __ __ __ __ __ __ __
 72
    65
 73
     2
 40
0.375
 49
0.25
 49
-0.125
  0
ENDTAB
  0
TABLE
  2
LAYER
 70
    16
  0
LAYER
  2
0
 70
     0
 62
     7
  6
CONTINUOUS
  0
LAYER
  2
VOLL
 70
     0
 62
     1
  6
CONTINUOUS
  0
LAYER
  2
STEMPEL
 70
     0
 62
     3
  6
CONTINUOUS
  0
LAYER
  2
DEFPOINTS
 70
     0
 62
     7
  6
AUSGEZOGEN
  0
LAYER
  2
ADSK_ASSOC_ENTITY_BACKUPS
 70
     1
 62
    -7
  6
CONTINUOUS
  0
ENDTAB
  0
TABLE
  2
STYLE
 70
     6
  0
STYLE
  2
STANDARD
 70
     0
 40
0.0
 41
0.8
 50
0.0
 71
     0
 42
3.5
  3
simplex.shx
  4

  0
STYLE
  2
GREEKS
 70
     0
 40
0.0
 41
0.8
 50
0.0
 71
     0
 42
2.5
  3
SIMPLEX.shx
  4

  0
ENDTAB
  0
TABLE
  2
VIEW
 70
     1
  0
ENDTAB
  0
TABLE
  2
UCS
 70
     0
  0
ENDTAB
  0
TABLE
  2
APPID
 70
    35
  0
APPID
  2
ACAD
 70
     0
  0
APPID
  2
ACAD_NAV_VCDISPLAY
 70
     0
  0
APPID
  2
GRADIENTCOLOR1ACI
 70
     0
  0
APPID
  2
GRADIENTCOLOR2ACI
 70
     0
  0
APPID
  2
ACAD_DSTYLE_DIMRADIAL_EXTENSION
 70
     0
  0
APPID
  2
ACADANNOMONITORALERTICONDI
 70
     0
  0
APPID
  2
ACAD_EXEMPT_FROM_CAD_STANDARDS
 70
     0
  0
APPID
  2
ACAD_MLEADERVER
 70
     0
  0
APPID
  2
ACAD_PSEXT
 70
     0
  0
APPID
  2
ACAECLAYERSTANDARD
 70
     0
  0
APPID
  2
ACAD_DSTYLE_DIMJAG
 70
     0
  0
APPID
  2
ACAD_DSTYLE_DIMTALN
 70
     0
  0
APPID
  2
ACCMTRANSPARENCY
 70
     0
  0
APPID
  2
ACAD_OBJECT_CHANGE_GUID
 70
     0
  0
APPID
  2
MCAD_NO_VIS
 70
     0
  0
APPID
  2
ACAD_TEMP_GRAPHIC
 70
     0
  0
APPID
  2
ACATTRIBSERVICES
 70
     0
  0
APPID
  2
DESIGNERASSEMBLIES
 70
     0
  0
APPID
  2
ACAD_DSTYLE_DIMBREAK
 70
     0
  0
APPID
  2
GENIUS_GENSCREG_15
 70
     0
  0
APPID
  2
GENIUS_GENODEF_13
 70
     0
  0
APPID
  2
GENIUS_GENOBJ-N-SDF_13
 70
     0
  0
APPID
  2
ACAD_DSTYLE_DIMINSPECT
 70
     0
  0
APPID
  2
GENIUS_GENDTOL_13
 70
     0
  0
APPID
  2
ACDBDYNAMICBLOCKGUID
 70
     0
  0
APPID
  2
ACAD_STEPID
 70
     0
  0
APPID
  2
ACSYNERGY
 70
     0
  0
APPID
  2
SYNERGY_BODY_TBR_ID
 70
     0
  0
APPID
  2
ACAD_VIEW_EDGE_ID
 70
     0
  0
APPID
  2
ACSYNERGYSKETCH
 70
     0
  0
APPID
  2
ACAD_MODELDOC_XFORM
 70
     0
  0
APPID
  2
ACAD_DIMASSOC_CALC_DIMLFAC
 70
     0
  0
APPID
  2
ACAD_DIMASSOC_DIMLFAC
 70
     0
  0
APPID
  2
ACAD_DIMASSOC_OVERRIDDEN_D
 70
     0
  0
APPID
  2
AcDbAttr
 70
     0
  0
ENDTAB
  0
TABLE
  2
DIMSTYLE
 70
     6
  0
DIMSTYLE
  2
STANDARD
 70
     0
  3

  4

  5

  6

  7

 40
1.0
 41
0.18
 42
0.0625
 43
0.38
 44
0.18
 45
0.0
 46
0.0
 47
0.0
 48
0.0
140
0.18
141
0.09
142
0.0
143
25.3999999999999986
144
1.0
145
0.0
146
1.0
147
0.09
 71
     0
 72
     0
 73
     1
 74
     1
 75
     0
 76
     0
 77
     0
 78
     0
170
     0
171
     2
172
     0
173
     0
174
     0
175
     0
176
     0
177
     0
178
     0
  0
ENDTAB
  0
ENDSEC
  0
SECTION
  2
BLOCKS
  0
BLOCK
  8
0
  2
$MODEL_SPACE
 70
     0
 10
0.0
 20
0.0
 30
0.0
  3
$MODEL_SPACE
  1

  0
ENDBLK
  5
38
  8
0
  0
BLOCK
 67
     1
  8
0
  2
$PAPER_SPACE
 70
     0
 10
0.0
 20
0.0
 30
0.0
  3
$PAPER_SPACE
  1

  0
ENDBLK
  5
36
 67
     1
  8
0
  0
BLOCK
  8
0
  2
*S2
 70
     1
 10
0.0
 20
0.0
 30
0.0
  3
*S2
  1

  0
ENDBLK
  5
34F2
  8
0
  0
BLOCK
  8
0
  2
A$CDBCAD544
 70
     0
 10
0.0
 20
0.0
 30
0.0
  3
A$CDBCAD544
  1

  0
LINE
  5
3D44
  8
0
 10
1699.8684473045670984
 20
803.6273625268406704
 30
0.0000000000003411
 11
1698.8684473045670984
 21
803.6273625268406704
 31
0.0000000000003409
  0
LINE
  5
3D45
  8
0
 10
1698.8684473045670984
 20
503.6273625268406136
 30
0.0000000000003411
 11
1699.8684473045670984
 21
503.6273625268406136
 31
0.0000000000003413
  0
LINE
  5
3D46
  8
0
 10
1699.8684473045670984
 20
523.6273625268405567
 30
0.0000000000003411
 11
1699.8684473045670984
 21
503.6273625268406136
 31
0.0000000000003411
  0
LINE
  5
3D47
  8
0
 10
1698.8684473045670984
 20
503.6273625268406136
 30
0.0000000000003411
 11
1698.8684473045670984
 21
523.6273625268405567
 31
0.0000000000003411
  0
LINE
  5
3D48
  8
0
 10
1699.8684473045670984
 20
803.6273625268406704
 30
0.0000000000003411
 11
1699.8684473045670984
 21
783.6273625268406704
 31
0.0000000000003411
  0
LINE
  5
3D49
  8
0
 10
1698.8684473045670984
 20
783.6273625268406704
 30
0.0000000000003411
 11
1698.8684473045670984
 21
803.6273625268406704
 31
0.0000000000003411
  0
LINE
  5
3D4A
  8
0
 10
1699.8684473045670984
 20
523.6273625268405567
 30
0.0000000000003411
 11
1699.8684473045670984
 21
783.6273625268406704
 31
0.0000000000003411
  0
LINE
  5
3D4B
  8
0
 10
1698.8684473045670984
 20
783.6273625268406704
 30
0.0000000000003411
 11
1698.8684473045670984
 21
523.6273625268405567
 31
0.0000000000003411
  0
LINE
  5
3D4C
  8
0
 10
1707.8684473045670984
 20
627.4370944580991818
 30
0.0000000000003394
 11
1707.8684473045670984
 21
679.8176305955820453
 31
0.0000000000003394
  0
ARC
  5
3D4D
  8
0
 10
1700.3684473045680079
 20
625.878124411571207
 30
0.0000000000003378
 40
0.5000000000004547
 50
98.0000000000580229
 51
179.999999999928292
  0
ARC
  5
3D4E
  8
0
 10
1700.3684473045680079
 20
681.3766006421100201
 30
0.0000000000003378
 40
0.5000000000004921
 50
180.0000000000651141
 51
261.9999999999675993
  0
LINE
  5
3D4F
  8
0
 10
1707.8684473045680079
 20
627.4370944580991818
 30
0.0000000000003394
 11
1700.2988607540869452
 21
626.373258445942497
 31
0.0000000000003378
  0
LINE
  5
3D50
  8
0
 10
1707.8684473045670984
 20
679.8176305955820453
 30
0.0000000000003394
 11
1700.2988607540880821
 21
680.8814666077387301
 31
0.0000000000003378
  0
LINE
  5
3D51
  8
0
 10
2496.8684473045677805
 20
633.0648058444697881
 30
0.0000000000004987
 11
2496.8684473045677805
 21
674.1899192092091653
 31
0.0000000000004987
  0
LINE
  5
3D52
  8
0
 10
1696.8684473045680079
 20
630.025996951824709
 30
0.0000000000003371
 11
1696.8684473045680079
 21
677.2287281018566318
 31
0.0000000000003371
  0
ARC
  5
3D53
  8
0
 10
2491.6501425900210052
 20
637.6273625268158867
 30
0.0000000000004976
 40
4.9999999999762998
 50
269.9999999999895977
 51
275.0000000000131877
  0
ARC
  5
3D54
  8
0
 10
2491.6501425900200957
 20
669.6273625268281648
 30
0.0000000000004976
 40
5.0000000000111982
 50
85.0000000000114255
 51
89.9999999999947136
  0
LINE
  5
3D55
  8
0
 10
1730.6344039427299322
 20
674.6273625268405567
 30
0.000000000000344
 11
2491.6501425900200957
 21
674.6273625268393062
 31
0.0000000000004976
  0
LINE
  5
3D56
  8
0
 10
1730.6344039427299322
 20
632.6273625268407841
 30
0.000000000000344
 11
2491.6501425900200957
 21
632.6273625268396472
 31
0.0000000000004976
  0
LINE
  5
3D57
  8
0
 10
2496.8684473045677805
 20
633.0648058444697881
 30
0.0000000000004987
 11
2492.0859213037579138
 21
632.6463890363809242
 31
0.0000000000004977
  0
LINE
  5
3D58
  8
0
 10
2496.8684473045677805
 20
674.1899192092090516
 30
0.0000000000004987
 11
2492.0859213037579138
 21
674.6083360172981429
 31
0.0000000000004977
  0
ARC
  5
3D59
  8
0
 10
1703.4106276249729035
 20
644.6273625268336218
 30
0.0000000000003385
 40
15.9999999999922693
 50
245.8651087923728085
 51
253.5077129064268888
  0
ARC
  5
3D5A
  8
0
 10
1703.4106276249729035
 20
662.627362526847719
 30
0.0000000000003385
 40
15.9999999999922693
 50
106.4922870935729975
 51
114.1348912076272057
  0
LINE
  5
3D5B
  8
0
 10
1708.5014473045669092
 20
628.6275177105752618
 30
0.0000000000003395
 11
1707.8684473045670984
 21
628.6274984148016074
 31
0.0000000000003394
  0
LINE
  5
3D5C
  8
0
 10
1708.5014473045669092
 20
678.6272073431058516
 30
0.0000000000003395
 11
1707.8684473045680079
 21
678.6272266388796197
 31
0.0000000000003394
  0
ARC
  5
3D5D
  8
0
 10
1708.5014473045669092
 20
648.1273625268416936
 30
0.0000000000003395
 40
19.4998448162663394
 50
270.0
 51
288.1939705983839985
  0
ARC
  5
3D5E
  8
0
 10
1708.5014473045669092
 20
659.1273625268366914
 30
0.0000000000003395
 40
19.4998448162692206
 50
71.8060294016171952
 51
89.9999999999979678
  0
ARC
  5
3D5F
  8
0
 10
1717.8684473045670984
 20
619.6273625268436263
 30
0.0000000000003414
 40
10.4999999999968896
 50
89.9999999999963336
 51
108.1939705983837996
  0
ARC
  5
3D60
  8
0
 10
1717.8684473045670984
 20
687.6273625268376009
 30
0.0000000000003414
 40
10.4999999999968701
 50
251.8060294016119087
 51
270.0
  0
LINE
  5
3D61
  8
0
 10
1717.8684473045670984
 20
677.1273625268405567
 30
0.0000000000003414
 11
1722.0466219240709052
 21
677.1273625268405567
 31
0.0000000000003422
  0
LINE
  5
3D62
  8
0
 10
1717.8684473045670984
 20
630.1273625268405567
 30
0.0000000000003414
 11
1722.0466219240709052
 21
630.1273625268405567
 31
0.0000000000003422
  0
ARC
  5
3D63
  8
0
 10
1722.0466219240709052
 20
639.6273625268408978
 30
0.0000000000003422
 40
9.5000000000004281
 50
269.9999999999985789
 51
302.4617449672430212
  0
ARC
  5
3D64
  8
0
 10
1722.0466219240709052
 20
667.6273625268388514
 30
0.0000000000003422
 40
9.5000000000018172
 50
57.5382550327582578
 51
90.0
  0
ARC
  5
3D65
  8
0
 10
1730.6344039427299322
 20
626.127362526840102
 30
0.000000000000344
 40
6.5000000000000293
 50
89.9999999999959357
 51
122.4617449672342957
  0
ARC
  5
3D66
  8
0
 10
1730.6344039427299322
 20
681.1273625268411251
 30
0.000000000000344
 40
6.500000000000056
 50
237.5382550327628906
 51
270.0
  0
LINE
  5
3D67
  8
0
  6
VERDECKT
 62
     1
 10
1707.7292742036070194
 20
628.4273625268407386
 30
0.0000000000003393
 11
1707.7292742036070194
 21
678.8273625268406022
 31
0.0000000000003393
  0
LINE
  5
3D68
  8
0
  6
VERDECKT
 62
     1
 10
1699.8684473045670984
 20
520.6273625268406704
 30
0.0000000000003411
 11
1698.8684473045670984
 21
520.6273625268406704
 31
0.0000000000003409
  0
LINE
  5
3D69
  8
0
  6
VERDECKT
 62
     1
 10
1699.8684473045670984
 20
526.6273625268405567
 30
0.0000000000003411
 11
1698.8684473045670984
 21
526.6273625268405567
 31
0.0000000000003409
  0
LINE
  5
3D6A
  8
0
  6
VERDECKT
 62
     1
 10
1699.8684473045670984
 20
780.6273625268405567
 30
0.0000000000003411
 11
1698.8684473045670984
 21
780.6273625268405567
 31
0.0000000000003409
  0
LINE
  5
3D6B
  8
0
  6
VERDECKT
 62
     1
 10
1699.8684473045670984
 20
786.6273625268405567
 30
0.0000000000003411
 11
1698.8684473045670984
 21
786.6273625268405567
 31
0.0000000000003409
  0
LINE
  5
3D6C
  8
0
  6
VERDECKT
 62
     1
 10
1707.7292742036070194
 20
678.8273625268406022
 30
0.0000000000003393
 11
1707.8684473045670984
 21
679.8176305955820453
 31
0.0000000000003394
  0
LINE
  5
3D6D
  8
0
  6
VERDECKT
 62
     1
 10
1707.7292742036070194
 20
628.4273625268407386
 30
0.0000000000003393
 11
1707.8684473045670984
 21
627.4370944580991818
 31
0.0000000000003394
  0
LINE
  5
3D6E
  8
0
  6
VERDECKT
 62
     1
 10
1707.7292742036070194
 20
628.4273625268407386
 30
0.0000000000003393
 11
1700.1596876531270937
 21
627.3635265146841675
 31
0.0000000000003378
  0
LINE
  5
3D6F
  8
0
  6
VERDECKT
 62
     1
 10
1707.7292742036070194
 20
678.8273625268406022
 30
0.0000000000003393
 11
1700.1596876531270937
 21
679.8911985389969459
 31
0.0000000000003378
  0
ARC
  5
3D70
  8
0
  6
VERDECKT
 62
     1
 10
1700.3684473045670984
 20
625.8781244115721165
 30
0.0000000000003378
 40
1.499999999999772
 50
97.9999999999800764
 51
180.0000000000065086
  0
ARC
  5
3D71
  8
0
  6
VERDECKT
 62
     1
 10
1700.3684473045670984
 20
681.3766006421092243
 30
0.0000000000003378
 40
1.4999999999997911
 50
179.9999999999934914
 51
262.0000000000198952
  0
ARC
  5
3D72
  8
0
  6
VERDECKT
 62
     1
 10
2491.6501425900200957
 20
637.6273625268313481
 30
0.0000000000004976
 40
3.99999999999162
 50
269.9999999999935199
 51
275.0000000000035811
  0
ARC
  5
3D73
  8
0
  6
VERDECKT
 62
     1
 10
2491.6501425900200957
 20
669.627362526847719
 30
0.0000000000004976
 40
3.999999999991644
 50
84.9999999999964047
 51
90.0000000000065086
  0
LINE
  5
3D74
  8
0
  6
VERDECKT
 62
     1
 10
2496.8684473045677805
 20
634.0686256820131348
 30
0.0000000000004987
 11
2491.9987655610098045
 21
633.642583734472737
 31
0.0000000000004977
  0
LINE
  5
3D75
  8
0
  6
VERDECKT
 62
     1
 10
2496.8684473045677805
 20
673.1860993716659323
 30
0.0000000000004987
 11
2491.9987655610111688
 21
673.6121413192063301
 31
0.0000000000004977
  0
LINE
  5
3D76
  8
0
  6
VERDECKT
 62
     1
 10
1730.6344039427299322
 20
673.627362526840443
 30
0.000000000000344
 11
2491.6501425900200957
 21
673.6273625268393062
 31
0.0000000000004976
  0
LINE
  5
3D77
  8
0
  6
VERDECKT
 62
     1
 10
1730.6344039427299322
 20
633.6273625268407841
 30
0.000000000000344
 11
2491.6501425900200957
 21
633.6273625268396472
 31
0.0000000000004976
  0
ARC
  5
3D78
  8
0
  6
VERDECKT
 62
     1
 10
1730.6344039427299322
 20
626.1273625268389651
 30
0.000000000000344
 40
7.5000000000011049
 50
89.9999999999981668
 51
122.4617449672322067
  0
ARC
  5
3D79
  8
0
  6
VERDECKT
 62
     1
 10
1730.6344039427299322
 20
681.1273625268420346
 30
0.000000000000344
 40
7.5000000000011919
 50
237.5382550327647948
 51
270.0
  0
ARC
  5
3D7A
  8
0
  6
VERDECKT
 62
     1
 10
1722.0466219240709052
 20
639.6273625268413525
 30
0.0000000000003422
 40
8.5000000000008686
 50
270.0000000000014211
 51
302.4617449672433054
  0
ARC
  5
3D7B
  8
0
  6
VERDECKT
 62
     1
 10
1722.0466219240709052
 20
667.6273625268397609
 30
0.0000000000003422
 40
8.5000000000008527
 50
57.5382550327567088
 51
89.9999999999983658
  0
LINE
  5
3D7C
  8
0
  6
VERDECKT
 62
     1
 10
1717.8684473045670984
 20
676.1273625268405567
 30
0.0000000000003414
 11
1722.0466219240709052
 21
676.1273625268405567
 31
0.0000000000003422
  0
LINE
  5
3D7D
  8
0
  6
VERDECKT
 62
     1
 10
1717.8684473045670984
 20
631.127362526840443
 30
0.0000000000003414
 11
1722.0466219240709052
 21
631.127362526840443
 31
0.0000000000003422
  0
ARC
  5
3D7E
  8
0
  6
VERDECKT
 62
     1
 10
1717.8684473045670984
 20
619.6273625268371461
 30
0.0000000000003414
 40
11.5000000000031992
 50
90.0000000000012221
 51
108.1939705983828048
  0
ARC
  5
3D7F
  8
0
  6
VERDECKT
 62
     1
 10
1717.8684473045670984
 20
687.6273625268388514
 30
0.0000000000003414
 40
11.4999999999981206
 50
251.8060294016088108
 51
270.0
  0
ARC
  5
3D80
  8
0
  6
VERDECKT
 62
     1
 10
1708.5014473045680461
 20
648.1273625268381693
 30
0.0000000000003395
 40
18.4998448162629785
 50
269.9999999999985789
 51
288.1939705983832027
  0
ARC
  5
3D81
  8
0
  6
VERDECKT
 62
     1
 10
1708.5014473045680461
 20
659.1273625268429441
 30
0.0000000000003395
 40
18.4998448162630211
 50
71.8060294016167973
 51
90.0000000000014211
  0
LINE
  5
3D82
  8
0
  6
VERDECKT
 62
     1
 10
1708.5014473045669092
 20
629.6275177105751482
 30
0.0000000000003395
 11
1703.4106276249769962
 21
629.6273625268406704
 31
0.0000000000003385
  0
LINE
  5
3D83
  8
0
  6
VERDECKT
 62
     1
 10
1708.5014473045669092
 20
677.6272073431059653
 30
0.0000000000003395
 11
1703.4106276249769962
 21
677.6273625268405567
 31
0.0000000000003385
  0
ARC
  5
3D84
  8
0
  6
VERDECKT
 62
     1
 10
1703.410627624989047
 20
644.6273625268445358
 30
0.0000000000003385
 40
15.0000000000038103
 50
244.1418030082554083
 51
270.0
  0
ARC
  5
3D85
  8
0
  6
VERDECKT
 62
     1
 10
1703.410627624989047
 20
662.627362526836805
 30
0.0000000000003385
 40
15.0000000000038192
 50
90.0000000000478337
 51
115.8581969917918002
  0
ARC
  5
3D86
  8
0
  6
VERDECKT
 62
     1
 10
1703.4106276249749499
 20
644.6273625268380556
 30
0.0000000000003385
 40
15.9999999999972697
 50
253.5077129064202097
 51
270.0
  0
ARC
  5
3D87
  8
0
  6
VERDECKT
 62
     1
 10
1703.4106276249749499
 20
662.6273625268431715
 30
0.0000000000003385
 40
15.9999999999972893
 50
89.9999999999983658
 51
106.4922870935775023
  0
LINE
  5
3D88
  8
0
  6
VERDECKT
 62
     1
 10
1707.8684473045670984
 20
628.6274984148016074
 30
0.0000000000003394
 11
1703.4106276249760867
 21
628.6273625268406704
 31
0.0000000000003385
  0
LINE
  5
3D89
  8
0
  6
VERDECKT
 62
     1
 10
1707.8684473045680079
 20
678.6272266388796197
 30
0.0000000000003394
 11
1703.4106276249760867
 21
678.6273625268406704
 31
0.0000000000003385
  0
ENDBLK
  5
3D8B
  8
0
  0
BLOCK
  8
0
  2
A$C77F197D8
 70
     0
 10
0.0
 20
0.0
 30
0.0
  3
A$C77F197D8
  1

  0
CIRCLE
  5
3D8F
  8
0
 10
217.7207522479367867
 20
130.0
 30
0.0
 40
3.0
210
0.0
220
-0.0000000000000002
230
-1.0
  0
CIRCLE
  5
3D90
  8
0
 10
477.7207522479367867
 20
129.9999999999998863
 30
0.0
 40
3.0
210
0.0
220
-0.0000000000000002
230
-1.0
  0
CIRCLE
  5
3D91
  8
0
 10
477.720752247936673
 20
-130.000000000000199
 30
0.0
 40
3.0
210
0.0
220
-0.0000000000000002
230
-1.0
  0
CIRCLE
  5
3D92
  8
0
 10
217.7207522479367015
 20
-130.0000000000001137
 30
0.0
 40
3.0
210
0.0
220
-0.0000000000000002
230
-1.0
  0
ARC
  5
3D93
  8
0
 10
477.720752247936673
 20
-130.000000000000199
 30
0.0
 40
20.0
210
0.0
220
-0.0000000000000002
230
-1.0
 50
270.0
 51
0.0
  0
LINE
  5
3D94
  8
0
 10
-497.7207522479367867
 20
-130.000000000000199
 30
0.0000000000000289
 11
-497.7207522479369004
 21
129.9999999999998863
 31
-0.0000000000000289
210
-0.0000000000000002
220
1.0
230
-0.0000000000000002
  0
ARC
  5
3D95
  8
0
 10
217.7207522479367015
 20
-130.0000000000001137
 30
0.0
 40
20.0
210
0.0
220
-0.0000000000000002
230
-1.0
 50
180.0
 51
270.0
  0
LINE
  5
3D96
  8
0
 10
-197.7207522479367867
 20
130.0
 30
-0.0000000000000289
 11
-197.7207522479367015
 21
-130.0000000000001137
 31
0.0000000000000289
210
-0.0000000000000002
220
1.0
230
-0.0000000000000002
  0
ARC
  5
3D97
  8
0
 10
217.7207522479367867
 20
130.0
 30
0.0
 40
20.0
210
0.0
220
-0.0000000000000002
230
-1.0
 50
89.9999999999999858
 51
180.0
  0
ARC
  5
3D98
  8
0
 10
477.7207522479367867
 20
129.9999999999998863
 30
0.0
 40
20.0
210
0.0
220
-0.0000000000000002
230
-1.0
 50
0.0
 51
89.9999999999999858
  0
LINE
  5
3D99
  8
0
 10
-477.7207522479367867
 20
149.9999999999998863
 30
-0.0000000000000333
 11
-217.7207522479367867
 21
150.0
 31
-0.0000000000000333
210
-0.0000000000000002
220
1.0
230
-0.0000000000000002
  0
LINE
  5
3D9A
  8
0
 10
-217.7207522479367015
 20
-150.0000000000001137
 30
0.0000000000000333
 11
-477.720752247936673
 21
-150.0000000000001137
 31
0.0000000000000333
210
-0.0000000000000002
220
1.0
230
-0.0000000000000002
  0
CIRCLE
  5
3D9B
  8
0
 10
347.7207522479367867
 20
-0.0000000000000772
 30
0.0
 40
25.1999999999999602
210
0.0
220
-0.0000000000000002
230
-1.0
  0
CIRCLE
  5
3D9C
  8
0
 10
347.7207522479357067
 20
-0.0000000000000772
 30
0.0
 40
19.5587368448263703
210
0.0
220
-0.0000000000000002
230
-1.0
  0
CIRCLE
  5
3D9D
  8
0
 10
347.720752247936673
 20
-0.0000000000000772
 30
0.0
 40
20.0000000000002984
210
0.0
220
-0.0000000000000002
230
-1.0
  0
CIRCLE
  5
3D9E
  8
0
 10
347.7207522479367867
 20
-0.0000000000000772
 30
0.0
 40
22.4981434521602601
210
0.0
220
-0.0000000000000002
230
-1.0
  0
CIRCLE
  5
3D9F
  8
0
 10
347.7207522479367867
 20
-0.0000000000000772
 30
0.0
 40
23.6013655750159188
210
0.0
220
-0.0000000000000002
230
-1.0
  0
CIRCLE
  5
3DA0
  8
0
 10
347.7207522479367867
 20
-0.0000000000000772
 30
0.0
 40
24.9999999999999503
210
0.0
220
-0.0000000000000002
230
-1.0
  0
CIRCLE
  5
3DA1
  8
0
  6
VERDECKT
 62
     1
 10
347.7207522479367867
 20
-0.0000000000000772
 30
0.0
 40
26.1902680687415206
210
0.0
220
-0.0000000000000002
230
-1.0
  0
CIRCLE
  5
3DA2
  8
0
  6
VERDECKT
 62
     1
 10
347.720752247936673
 20
-0.0000000000000772
 30
0.0
 40
21.0000000000004299
210
0.0
220
-0.0000000000000002
230
-1.0
  0
CIRCLE
  5
3DA3
  8
0
  6
VERDECKT
 62
     1
 10
347.7207522479357067
 20
-0.0000000000000772
 30
0.0
 40
20.5625566823697383
210
0.0
220
-0.0000000000000002
230
-1.0
  0
CIRCLE
  5
3DA4
  8
0
  6
VERDECKT
 62
     1
 10
347.720752247936673
 20
-0.0000000000000772
 30
0.0
 40
22.5000000000001208
210
0.0
220
-0.0000000000000002
230
-1.0
  0
CIRCLE
  5
3DA5
  8
0
  6
VERDECKT
 62
     1
 10
347.7207522479367867
 20
-0.0000000000000772
 30
0.0
 40
23.9999999999999893
210
0.0
220
-0.0000000000000002
230
-1.0
  0
CIRCLE
  5
3DA6
  8
0
  6
VERDECKT
 62
     1
 10
347.720752247936673
 20
-0.0000000000000772
 30
0.0
 40
23.5000000000001101
210
0.0
220
-0.0000000000000002
230
-1.0
  0
ENDBLK
  5
3DA8
  8
0
  0
ENDSEC
  0
SECTION
  2
ENTITIES
  0
TEXT
  5
89E
  8
VOLL
 10
317.7656175248495174
 20
455.7049816962950217
 30
0.0
 40
1.8
  1

 50
90.0
  7
GREEKS
  0
TEXT
  5
2BD3
  8
VOLL
 10
333.8522159904711089
 20
268.3218684374514851
 30
0.0
 40
1.8
  1

  7
GREEKS
  0
INSERT
  5
34F4
  8
ADSK_ASSOC_ENTITY_BACKUPS
  2
*S2
 10
0.0
 20
0.0
 30
0.0
  0
INSERT
  5
3D8C
  8
STEMPEL
  2
A$CDBCAD544
 10
843.3171408143989538
 20
-708.1895562958775372
 30
0.0
  0
INSERT
  5
3DA9
  8
STEMPEL
  2
A$C77F197D8
 10
2630.406926985077007
 20
-54.5621937690368384
 30
0.0000000000003695
  0
VIEWPORT
  5
12A3
 67
     1
  8
0
 10
820.0528786501391778
 20
395.775343460305578
 30
0.0
 40
755.4318586536114708
 41
423.1630331228117825
 68
     1
 69
     1
1001
ACAD
1000
MVIEW
1002
{
1070
    16
1010
0.0
1020
0.0
1030
0.0
1010
0.0
1020
0.0
1030
1.0
1040
0.0
1040
423.1630331228117825
1040
820.0528786501391778
1040
395.775343460305578
1040
50.0
1040
0.0
1040
0.0
1070
     0
1070
  1500
1070
     1
1070
     1
1070
     0
1070
     0
1070
     0
1070
     0
1040
0.0
1040
0.0
1040
0.0
1040
10.0
1040
10.0
1040
10.0
1040
10.0
1070
     0
1002
{
1002
}
1002
}
1001
GENIUS_GENODEF_13
1002
{
1000
HIER
1070
     0
1002
}
1002
{
1000
MANEDIT
1070
     0
1002
}
1002
{
1000
NOSEL
1070
     0
1002
}
1002
{
1000
BEHIND
1070
     0
1002
}
1002
{
1000
OTHER
1070
     0
1002
}
1002
{
1000
REACTOR
1002
}
1001
GENIUS_GENOBJ-N-SDF_13
1002
{
1000
OWNER
1000
GEN
1002
}
1001
GENIUS_GENSCREG_15
1000
PF
1040
1.0
1000
DF
1040
1.0
1000
MIN
1011
-0.5585912071301209
1021
0.0
1031
0.0
1021
9.9874579825443561
1031
0.0
1000
MAX
1011
1147.4812028906519572
1021
0.0
1031
0.0
1021
584.0073550314357362
1031
0.0
1000
FLAGS
1070
     4
  0
ENDSEC
  0
EOF
