  0
SECTION
  2
HEADER
  9
$ACADVER
  1
AC1009
  9
$INSBASE
 10
509.9391017861535147
 20
-118.0350180316795985
 30
403.1361558984037856
  9
$EXTMIN
 10
-752.0000013682761164
 20
-502.0000007942016964
 30
-0.0000001862649697
  9
$EXTMAX
 10
269.999998987625986
 20
399.9999993734672898
 30
-0.0000001862649697
  9
$LIMMIN
 10
0.0
 20
0.000000000000008
  9
$LIMMAX
 10
594.0
 20
840.0
  9
$ORTHOMODE
 70
     1
  9
$REGENMODE
 70
     1
  9
$FILLMODE
 70
     1
  9
$QTEXTMODE
 70
     0
  9
$MIRRTEXT
 70
     1
  9
$DRAGMODE
 70
     2
  9
$LTSCALE
 40
20.0
  9
$OSMODE
 70
   511
  9
$ATTMODE
 70
     1
  9
$TEXTSIZE
 40
2.0
  9
$TRACEWID
 40
1.0
  9
$TEXTSTYLE
  7
STANDARD
  9
$CLAYER
  8
STEMPEL
  9
$CELTYPE
  6
BYLAYER
  9
$CECOLOR
 62
   256
  9
$DIMSCALE
 40
1.0
  9
$DIMASZ
 40
3.5
  9
$DIMEXO
 40
1.0
  9
$DIMDLI
 40
0.38
  9
$DIMRND
 40
0.0
  9
$DIMDLE
 40
0.0
  9
$DIMEXE
 40
1.0
  9
$DIMTP
 40
0.0
  9
$DIMTM
 40
0.000000001
  9
$DIMTXT
 40
3.5
  9
$DIMCEN
 40
0.09
  9
$DIMTSZ
 40
0.0
  9
$DIMTOL
 70
     0
  9
$DIMLIM
 70
     0
  9
$DIMTIH
 70
     0
  9
$DIMTOH
 70
     0
  9
$DIMSE1
 70
     0
  9
$DIMSE2
 70
     0
  9
$DIMTAD
 70
     1
  9
$DIMZIN
 70
     8
  9
$DIMBLK
  1

  9
$DIMASO
 70
     1
  9
$DIMSHO
 70
     0
  9
$DIMPOST
  1

  9
$DIMAPOST
  1

  9
$DIMALT
 70
     0
  9
$DIMALTD
 70
     2
  9
$DIMALTF
 40
25.3999999999999986
  9
$DIMLFAC
 40
2.0
  9
$DIMTOFL
 70
     1
  9
$DIMTVP
 40
0.0
  9
$DIMTIX
 70
     0
  9
$DIMSOXD
 70
     0
  9
$DIMSAH
 70
     0
  9
$DIMBLK1
  1

  9
$DIMBLK2
  1

  9
$DIMSTYLE
  2
LORO
  9
$DIMCLRD
 70
     0
  9
$DIMCLRE
 70
     0
  9
$DIMCLRT
 70
     1
  9
$DIMTFAC
 40
0.5
  9
$DIMGAP
 40
1.5
  9
$LUNITS
 70
     2
  9
$LUPREC
 70
     2
  9
$SKETCHINC
 40
1.0
  9
$FILLETRAD
 40
6.5
  9
$AUNITS
 70
     0
  9
$AUPREC
 70
     0
  9
$MENU
  1
ACAD
  9
$ELEVATION
 40
0.0
  9
$PELEVATION
 40
0.0
  9
$THICKNESS
 40
0.0
  9
$LIMCHECK
 70
     0
  9
$BLIPMODE
 70
     0
  9
$CHAMFERA
 40
0.0
  9
$CHAMFERB
 40
0.0
  9
$SKPOLY
 70
     0
  9
$TDCREATE
 40
2455397.867048610933125
  9
$TDUPDATE
 40
2460560.5737962969578803
  9
$TDINDWG
 40
1.7063610763999999
  9
$TDUSRTIMER
 40
1.7063610763999999
  9
$USRTIMER
 70
     1
  9
$ANGBASE
 50
0.0
  9
$ANGDIR
 70
     0
  9
$PDMODE
 70
     0
  9
$PDSIZE
 40
0.0
  9
$PLINEWID
 40
0.0
  9
$COORDS
 70
     1
  9
$SPLFRAME
 70
     0
  9
$SPLINETYPE
 70
     6
  9
$SPLINESEGS
 70
     8
  9
$ATTDIA
 70
     1
  9
$ATTREQ
 70
     1
  9
$HANDLING
 70
     1
  9
$HANDSEED
  5
243B4
  9
$SURFTAB1
 70
     6
  9
$SURFTAB2
 70
     6
  9
$SURFTYPE
 70
     6
  9
$SURFU
 70
     6
  9
$SURFV
 70
     6
  9
$UCSNAME
  2

  9
$UCSORG
 10
0.0
 20
0.0
 30
0.0
  9
$UCSXDIR
 10
1.0
 20
0.0
 30
0.0
  9
$UCSYDIR
 10
0.0
 20
1.0
 30
0.0
  9
$PUCSNAME
  2

  9
$PUCSORG
 10
0.0
 20
0.0
 30
0.0
  9
$PUCSXDIR
 10
1.0
 20
0.0
 30
0.0
  9
$PUCSYDIR
 10
0.0
 20
1.0
 30
0.0
  9
$USERI1
 70
     0
  9
$USERI2
 70
     0
  9
$USERI3
 70
     0
  9
$USERI4
 70
     0
  9
$USERI5
 70
     0
  9
$USERR1
 40
0.0
  9
$USERR2
 40
0.0
  9
$USERR3
 40
0.0
  9
$USERR4
 40
0.0
  9
$USERR5
 40
0.0
  9
$WORLDVIEW
 70
     1
  9
$SHADEDGE
 70
     3
  9
$SHADEDIF
 70
    70
  9
$TILEMODE
 70
     1
  9
$MAXACTVP
 70
    16
  9
$PLIMCHECK
 70
     0
  9
$PEXTMIN
 10
111.7499994942945989
 20
215.7019022070298888
 30
0.0
  9
$PEXTMAX
 10
116.7499999841727032
 20
220.7019026322693946
 30
0.0
  9
$PLIMMIN
 10
-0.2499985880222653
 20
-0.2499994036405724
  9
$PLIMMAX
 10
593.7500014119777916
 20
419.7500005963594845
  9
$UNITMODE
 70
     0
  9
$VISRETAIN
 70
     0
  9
$PLINEGEN
 70
     0
  9
$PSLTSCALE
 70
     0
  0
ENDSEC
  0
SECTION
  2
TABLES
  0
TABLE
  2
VPORT
 70
     1
  0
VPORT
  2
*ACTIVE
 70
     0
 10
0.0
 20
0.0
 11
1.0
 21
1.0
 12
-305.000001190325122
 22
-250.0000007103672033
 13
0.0
 23
0.0
 14
1.0
 24
1.0
 15
10.0
 25
10.0
 16
-0.0000000000018332
 26
0.0
 36
8246.2832011792834237
 17
64.0
 27
199.0
 37
-0.0000000000000444
 40
906.6494847046158156
 41
1.8847807394668961
 42
207.9750642040671949
 43
0.0
 44
0.0
 50
0.0
 51
0.0
 71
     0
 72
  1500
 73
     1
 74
     0
 75
     0
 76
     0
 77
     0
 78
     0
  0
ENDTAB
  0
TABLE
  2
LTYPE
 70
    13
  0
LTYPE
  2
CONTINUOUS
 70
     0
  3
Solid line
 72
    65
 73
     0
 40
0.0
  0
LTYPE
  2
STRICHPUNKT
 70
     0
  3
__ . __ . __ . __ . __ . __ . __ . __ . __ . __
 72
    65
 73
     4
 40
1.0
 49
0.5
 49
-0.25
 49
0.0
 49
-0.25
  0
LTYPE
  2
HIDDEN
 70
     0
  3
Hidden __ __ __ __ __ __ __ __ __ __ __ __ __ __
 72
    65
 73
     2
 40
0.375
 49
0.25
 49
-0.125
  0
LTYPE
  2
PHANTOM2
 70
     0
  3
Phantom (.5x) ___ _ _ ___ _ _ ___ _ _ ___ _ _
 72
    65
 73
     6
 40
1.25
 49
0.625
 49
-0.125
 49
0.125
 49
-0.125
 49
0.125
 49
-0.125
  0
LTYPE
  2
CENTER
 70
     0
  3
Center ____ _ ____ _ ____ _ ____ _ ____ _ ____
 72
    65
 73
     4
 40
2.0
 49
1.25
 49
-0.25
 49
0.25
 49
-0.25
  0
LTYPE
  2
AMCONSTR
 70
     0
  3
_______________________
 72
    65
 73
     2
 40
9999.0
 49
9999.0
 49
0.0
  0
LTYPE
  2
CENTER2
 70
     0
  3
Center (.5x) ___ _ ___ _ ___ _ ___ _ ___ _ ___
 72
    65
 73
     4
 40
1.125
 49
0.75
 49
-0.125
 49
0.125
 49
-0.125
  0
LTYPE
  2
HIDDEN2
 70
     0
  3
Hidden (.5x) _ _ _ _ _ _ _ _ _ _ _ _ _ _ _ _ _
 72
    65
 73
     2
 40
0.1875
 49
0.125
 49
-0.0625
  0
LTYPE
  2
AMZIGZAG2
 70
     0
  3
/\/-/\/-/\/-/\/-/\/-/\/
 72
    65
 73
     2
 40
0.4401
 49
0.0001
 49
-0.4400000000000001
  0
LTYPE
  2
ACANSTGB
 70
     0
  3
__ . . __ . .
 72
    65
 73
     6
 40
0.35433070866
 49
0.15748031496
 49
-0.03937007874
 49
0.03937007874
 49
-0.03937007874
 49
0.03937007874
 49
-0.03937007874
  0
LTYPE
  2
ACANSTGL
 70
     0
  3
_ _ _ _ _
 72
    65
 73
     2
 40
0.11811023622
 49
0.07874015748
 49
-0.03937007874
  0
LTYPE
  2
AUSGEZOGEN
 70
     0
  3
Ausgezogene Linie
 72
    65
 73
     0
 40
0.0
  0
LTYPE
  2
VERDECKT
 70
     0
  3
Verdeckt __ __ __ __ __ __ __ __ __ __ __ __ __
 72
    65
 73
     2
 40
0.375
 49
0.25
 49
-0.125
  0
ENDTAB
  0
TABLE
  2
LAYER
 70
     7
  0
LAYER
  2
0
 70
     0
 62
     7
  6
CONTINUOUS
  0
LAYER
  2
VOLL
 70
     0
 62
     1
  6
CONTINUOUS
  0
LAYER
  2
STEMPEL
 70
     0
 62
     3
  6
CONTINUOUS
  0
LAYER
  2
ADSK_ASSOC_ENTITY_BACKUPS
 70
     1
 62
    -7
  6
CONTINUOUS
  0
LAYER
  2
INDEX
 70
     0
 62
  -255
  6
CONTINUOUS
  0
ENDTAB
  0
TABLE
  2
STYLE
 70
     4
  0
STYLE
  2
STANDARD
 70
     0
 40
0.0
 41
0.8
 50
0.0
 71
     0
 42
2.0
  3
simplex.shx
  4

  0
STYLE
  2
GREEKS
 70
     0
 40
0.0
 41
0.8
 50
0.0
 71
     0
 42
2.5
  3
SIMPLEX.shx
  4

  0
STYLE
  2

 70
     1
 40
0.0
 41
1.0
 50
0.0
 71
     0
 42
2.5
  3
genltshp.shx
  4

  0
STYLE
  2
ACANSGDT
 70
     0
 40
0.0
 41
1.0
 50
0.0
 71
     0
 42
2.5
  3
amgdt.shx
  4

  0
ENDTAB
  0
TABLE
  2
VIEW
 70
     0
  0
ENDTAB
  0
TABLE
  2
UCS
 70
     0
  0
ENDTAB
  0
TABLE
  2
APPID
 70
    49
  0
APPID
  2
ACAD
 70
     0
  0
APPID
  2
ACAD_NAV_VCDISPLAY
 70
     0
  0
APPID
  2
GRADIENTCOLOR1ACI
 70
     0
  0
APPID
  2
GRADIENTCOLOR2ACI
 70
     0
  0
APPID
  2
ACAD_DSTYLE_DIMRADIAL_EXTENSION
 70
     0
  0
APPID
  2
ACADANNOMONITORALERTICONDI
 70
     0
  0
APPID
  2
ACAD_EXEMPT_FROM_CAD_STANDARDS
 70
     0
  0
APPID
  2
ACAD_MLEADERVER
 70
     0
  0
APPID
  2
ACAD_PSEXT
 70
     0
  0
APPID
  2
ACAECLAYERSTANDARD
 70
     0
  0
APPID
  2
ACCMTRANSPARENCY
 70
     0
  0
APPID
  2
ACAD_OBJECT_CHANGE_GUID
 70
     0
  0
APPID
  2
MCAD_NO_VIS
 70
     0
  0
APPID
  2
ACAD_TEMP_GRAPHIC
 70
     0
  0
APPID
  2
ACATTRIBSERVICES
 70
     0
  0
APPID
  2
DESIGNERASSEMBLIES
 70
     0
  0
APPID
  2
ACAD_DSTYLE_DIMJAG
 70
     0
  0
APPID
  2
ACAD_DSTYLE_DIMBREAK
 70
     0
  0
APPID
  2
GENIUS_GENSCREG_15
 70
     0
  0
APPID
  2
GENIUS_GENOBJ-N-SDF_13
 70
     0
  0
APPID
  2
GENIUS_GENODEF_13
 70
     0
  0
APPID
  2
ACAD_STEPID
 70
     0
  0
APPID
  2
ACAD_DSTYLE_DIMARC_LENGTH_
 70
     0
  0
APPID
  2
ACAD_DSTYLE_DIM_LINETYPE
 70
     0
  0
APPID
  2
ACAD_DSTYLE_DIM_EXT1_LINETYPE
 70
     0
  0
APPID
  2
ACAD_DSTYLE_DIM_EXT2_LINETYPE
 70
     0
  0
APPID
  2
RAK
 70
     0
  0
APPID
  2
ACADANNOPO
 70
     0
  0
APPID
  2
ACSYNERGY
 70
     0
  0
APPID
  2
SYNERGY_BODY_TBR_ID
 70
     0
  0
APPID
  2
ACAD_VIEW_EDGE_ID
 70
     0
  0
APPID
  2
ACSYNERGYSKETCH
 70
     0
  0
APPID
  2
ACAD_MODELDOC_XFORM
 70
     0
  0
APPID
  2
GENIUS_GENDTOL_13
 70
     0
  0
APPID
  2
ACAD_DSTYLE_DIMINSPECT
 70
     0
  0
APPID
  2
ACAD_DSTYLE_DIMANGULAR_EXT
 70
     0
  0
APPID
  2
PLOTTRANSPARENCY
 70
     0
  0
APPID
  2
ACAUTHENVIRON
 70
     0
  0
APPID
  2
ACDBDYNAMICBLOCKTRUENAME
 70
     0
  0
APPID
  2
ACDBDYNAMICBLOCKGUID
 70
     0
  0
APPID
  2
PE_URL
 70
     0
  0
APPID
  2
ACADANNOAV
 70
     0
  0
APPID
  2
ACAD_TC
 70
     0
  0
APPID
  2
ACAD_DIMASSOC_CALC_DIMLFAC
 70
     0
  0
APPID
  2
ACAD_DIMASSOC_DIMLFAC
 70
     0
  0
APPID
  2
ACAD_DIMASSOC_OVERRIDDEN_D
 70
     0
  0
APPID
  2
ACAD_DSTYLE_DIMTALN
 70
     0
  0
APPID
  2
ACADANNOTATIVE
 70
     0
  0
APPID
  2
HATCHBACKGROUNDCOLOR
 70
     0
  0
ENDTAB
  0
TABLE
  2
DIMSTYLE
 70
    10
  0
DIMSTYLE
  2
AM_ANSI
 70
     0
  3

  4
mm
  5

  6

  7

 40
1.0
 41
0.12
 42
0.05
 43
0.5
 44
0.1
 45
0.0
 46
0.0
 47
0.1
 48
0.1
140
0.12
141
0.0
142
0.0
143
25.3999999999999986
144
1.0
145
0.0
146
0.71
147
0.06
 71
     0
 72
     0
 73
     1
 74
     1
 75
     0
 76
     0
 77
     0
 78
     7
170
     0
171
     2
172
     0
173
     0
174
     0
175
     0
176
   256
177
   256
178
   255
  0
DIMSTYLE
  2
AM_ANSI$3
 70
     0
  3

  4
mm
  5

  6

  7

 40
1.0
 41
0.12
 42
0.05
 43
0.5
 44
0.1
 45
0.0
 46
0.0
 47
0.1
 48
0.1
140
0.12
141
0.0
142
0.0
143
25.3999999999999986
144
1.0
145
0.0
146
0.71
147
0.06
 71
     0
 72
     0
 73
     1
 74
     1
 75
     0
 76
     0
 77
     0
 78
     7
170
     0
171
     2
172
     0
173
     0
174
     0
175
     0
176
   256
177
   256
178
   255
  0
DIMSTYLE
  2
AM_ANSI$4
 70
     0
  3

  4
mm
  5

  6

  7

 40
1.0
 41
0.12
 42
0.05
 43
0.5
 44
0.1
 45
0.0
 46
0.0
 47
0.1
 48
0.1
140
0.12
141
0.0
142
0.0
143
25.3999999999999986
144
1.0
145
0.0
146
0.71
147
0.06
 71
     0
 72
     0
 73
     1
 74
     1
 75
     0
 76
     0
 77
     0
 78
     7
170
     0
171
     2
172
     0
173
     0
174
     0
175
     0
176
   256
177
   256
178
   255
  0
DIMSTYLE
  2
AM_ANSI$7
 70
     0
  3

  4
mm
  5

  6

  7

 40
1.0
 41
0.12
 42
0.05
 43
0.5
 44
0.1
 45
0.0
 46
0.0
 47
0.1
 48
0.1
140
0.12
141
0.0
142
0.0
143
25.3999999999999986
144
1.0
145
0.0
146
0.71
147
0.06
 71
     0
 72
     0
 73
     1
 74
     1
 75
     0
 76
     0
 77
     0
 78
     7
170
     0
171
     2
172
     0
173
     0
174
     0
175
     0
176
   256
177
   256
178
   255
  0
DIMSTYLE
  2
AM_ANSI$SF
 70
     0
  3

  4
mm
  5

  6

  7

 40
1.0
 41
0.12
 42
0.05
 43
0.5
 44
0.1
 45
0.0
 46
0.0
 47
0.1
 48
0.1
140
0.12
141
0.0
142
0.0
143
25.3999999999999986
144
1.0
145
0.0
146
0.71
147
0.06
 71
     0
 72
     0
 73
     1
 74
     1
 75
     1
 76
     1
 77
     0
 78
     7
170
     0
171
     2
172
     0
173
     0
174
     0
175
     0
176
   256
177
   256
178
   255
  0
DIMSTYLE
  2
AM_ANSI$SH
 70
     0
  3

  4
mm
  5

  6
GENAXEH
  7

 40
1.0
 41
0.12
 42
0.05
 43
0.5
 44
0.1
 45
0.0
 46
0.0
 47
0.1
 48
0.1
140
0.12
141
0.0
142
0.0
143
25.3999999999999986
144
1.0
145
0.0
146
0.71
147
0.06
 71
     0
 72
     0
 73
     1
 74
     1
 75
     1
 76
     1
 77
     0
 78
     7
170
     0
171
     2
172
     0
173
     1
174
     0
175
     0
176
   256
177
   256
178
   255
  0
DIMSTYLE
  2
AM_ANSI$0
 70
     0
  3

  4
"
  5

  6

  7

 40
1.0
 41
3.5
 42
1.0
 43
10.0
 44
1.0
 45
0.0
 46
0.0
 47
0.1
 48
0.1
140
3.5
141
0.0
142
0.0
143
0.0393701
144
1.0
145
0.0
146
0.71
147
1.5
 71
     0
 72
     0
 73
     1
 74
     1
 75
     0
 76
     0
 77
     0
 78
     8
170
     0
171
     2
172
     0
173
     0
174
     0
175
     0
176
   256
177
   256
178
     2
  0
DIMSTYLE
  2
LORO
 70
     0
  3

  4

  5

  6

  7

 40
1.0
 41
3.5
 42
1.0
 43
0.38
 44
1.0
 45
0.0
 46
0.0
 47
0.0
 48
0.000000001
140
3.5
141
0.09
142
0.0
143
25.3999999999999986
144
2.0
145
0.0
146
0.5
147
1.5
 71
     0
 72
     0
 73
     0
 74
     0
 75
     0
 76
     0
 77
     1
 78
     8
170
     0
171
     2
172
     1
173
     0
174
     0
175
     0
176
     0
177
     0
178
     1
  0
ENDTAB
  0
ENDSEC
  0
SECTION
  2
BLOCKS
  0
BLOCK
  8
0
  2
$MODEL_SPACE
 70
     0
 10
0.0
 20
0.0
 30
0.0
  3
$MODEL_SPACE
  1

  0
ENDBLK
  5
38
  8
0
  0
BLOCK
 67
     1
  8
0
  2
$PAPER_SPACE
 70
     2
 10
0.0
 20
0.0
 30
0.0
  3
$PAPER_SPACE
  1

  0
ENDBLK
  5
36
 67
     1
  8
0
  0
BLOCK
  8
0
  2
GENAXEH
 70
     0
 10
0.0
 20
0.0
 30
0.0
  3
GENAXEH
  1

  0
LINE
  5
1721
  8
0
 10
-1.0
 20
0.0
 30
0.0
 11
1.0
 21
0.0
 31
0.0
  0
ENDBLK
  5
1723
  8
0
  0
BLOCK
  8
0
  2
*S1
 70
     1
 10
0.0
 20
0.0
 30
0.0
  3
*S1
  1

  0
ENDBLK
  5
2101
  8
0
  0
BLOCK
  8
0
  2
*U2
 70
     1
 10
0.0
 20
0.0
 30
0.0
  3
*U2
  1

  0
ENDBLK
  5
3EBB
  8
0
  0
BLOCK
  8
0
  2
A$C962BA9BC
 70
     0
 10
0.0
 20
0.0
 30
0.0
  3
A$C962BA9BC
  1

  0
CIRCLE
  5
24247
  8
0
  6
CONTINUOUS
 62
     3
 10
70.0000000000009095
 20
200.0
 30
-0.0000000000000444
 40
35.2999999999999616
  0
CIRCLE
  5
24248
  8
0
  6
CONTINUOUS
 62
     3
 10
70.0000000000009095
 20
200.0000000000001137
 30
-0.0000000000000444
 40
39.2594616805545229
  0
CIRCLE
  5
24249
  8
0
  6
CONTINUOUS
 62
     3
 10
70.0000000000009095
 20
200.0000000000001137
 30
-0.0000000000000444
 40
38.1718923361102114
  0
CIRCLE
  5
2424A
  8
0
  6
CONTINUOUS
 62
     3
 10
70.0000000000009095
 20
200.0000000000001137
 30
-0.0000000000000444
 40
41.8999999999996291
  0
CIRCLE
  5
2424B
  8
0
  6
CONTINUOUS
 62
     3
 10
70.0
 20
200.0
 30
-0.0000000000000444
 40
34.6921457176084687
  0
CIRCLE
  5
2424C
  8
0
  6
CONTINUOUS
 62
     3
 10
-70.0000000000009095
 20
200.0000000000001137
 30
0.0
 40
41.9000862159354028
210
0.0
220
-0.0000000000000002
230
-1.0
  0
CIRCLE
  5
2424D
  8
0
  6
CONTINUOUS
 62
     3
 10
-70.0000000000002842
 20
200.0
 30
-0.0000000000000444
 40
42.0999999999999091
  0
CIRCLE
  5
2424E
  8
0
  6
CONTINUOUS
 62
     3
 10
69.9999999999997442
 20
200.0
 30
-0.0000000000000444
 40
42.0999999999999091
  0
CIRCLE
  5
2424F
  8
0
  6
CONTINUOUS
 62
     3
 10
250.0
 20
380.0000000000002274
 30
0.0
 40
3.0
210
0.0
220
-0.0000000000000002
230
-1.0
  0
CIRCLE
  5
24250
  8
0
  6
CONTINUOUS
 62
     3
 10
-250.0000000000001137
 20
20.0
 30
0.0
 40
3.0
210
0.0
220
-0.0000000000000002
230
-1.0
  0
CIRCLE
  5
24251
  8
0
  6
CONTINUOUS
 62
     3
 10
-250.0000000000001137
 20
380.0000000000002274
 30
0.0
 40
3.0
210
0.0
220
-0.0000000000000002
230
-1.0
  0
CIRCLE
  5
24252
  8
0
  6
CONTINUOUS
 62
     3
 10
250.0
 20
20.0
 30
0.0
 40
3.0
210
0.0
220
-0.0000000000000002
230
-1.0
  0
ARC
  5
24253
  8
0
  6
CONTINUOUS
 62
     3
 10
-250.0000000000001137
 20
380.0000000000001137
 30
0.0
 40
20.0000000000000107
210
0.0
220
-0.0000000000000002
230
-1.0
 50
89.9999999999999432
 51
180.0
  0
LINE
  5
24254
  8
0
  6
CONTINUOUS
 62
     3
 10
270.0000000000001137
 20
20.0
 30
-0.0000000000000044
 11
270.0000000000001137
 21
380.0000000000001137
 31
-0.0000000000000844
210
0.0
220
1.0
230
-0.0000000000000002
  0
ARC
  5
24255
  8
0
  6
CONTINUOUS
 62
     3
 10
-250.0000000000001137
 20
20.0
 30
0.0
 40
20.0
210
0.0
220
-0.0000000000000002
230
-1.0
 50
180.0
 51
270.0
  0
ARC
  5
24256
  8
0
  6
CONTINUOUS
 62
     3
 10
250.0
 20
380.0000000000001137
 30
0.0
 40
20.0
210
0.0
220
-0.0000000000000002
230
-1.0
 50
0.0
 51
90.0
  0
LINE
  5
24257
  8
0
  6
CONTINUOUS
 62
     3
 10
-269.9999999999998863
 20
380.0000000000001137
 30
-0.0000000000000844
 11
-269.9999999999998863
 21
20.0
 31
-0.0000000000000044
210
0.0
220
1.0
230
-0.0000000000000002
  0
ARC
  5
24258
  8
0
  6
CONTINUOUS
 62
     3
 10
250.0
 20
20.0
 30
0.0
 40
20.0
210
0.0
220
-0.0000000000000002
230
-1.0
 50
270.0
 51
0.0
  0
LINE
  5
24259
  8
0
  6
CONTINUOUS
 62
     3
 10
-250.0
 20
0.0
 30
0.0
 11
250.0
 21
0.0
 31
0.0
210
0.0
220
1.0
230
-0.0000000000000002
  0
LINE
  5
2425A
  8
0
  6
CONTINUOUS
 62
     3
 10
250.0000000000001137
 20
400.0
 30
-0.0000000000000888
 11
-249.9999999999998863
 21
400.0
 31
-0.0000000000000888
210
0.0
220
1.0
230
-0.0000000000000002
  0
CIRCLE
  5
2425B
  8
0
  6
CONTINUOUS
 62
     3
 10
70.0000000000004547
 20
200.0
 30
0.0
 40
35.2999999999999616
210
0.0
220
-0.0000000000000002
230
-1.0
  0
CIRCLE
  5
2425C
  8
0
  6
CONTINUOUS
 62
     3
 10
70.0000000000004547
 20
200.0000000000001137
 30
0.0
 40
39.2594616805545229
210
0.0
220
-0.0000000000000002
230
-1.0
  0
CIRCLE
  5
2425D
  8
0
  6
CONTINUOUS
 62
     3
 10
70.0000000000004547
 20
200.0000000000001137
 30
0.0
 40
38.1718923361102114
210
0.0
220
-0.0000000000000002
230
-1.0
  0
CIRCLE
  5
2425E
  8
0
  6
CONTINUOUS
 62
     3
 10
70.0000000000004547
 20
200.0000000000001137
 30
0.0
 40
41.8999999999996291
210
0.0
220
-0.0000000000000002
230
-1.0
  0
CIRCLE
  5
2425F
  8
0
  6
CONTINUOUS
 62
     3
 10
69.9999999999995453
 20
200.0
 30
0.0
 40
34.6921457176084687
210
0.0
220
-0.0000000000000002
230
-1.0
  0
CIRCLE
  5
24260
  8
0
  6
CONTINUOUS
 62
     3
 10
70.0000000000004547
 20
200.0000000000001137
 30
0.0
 40
41.9000862159354028
210
0.0
220
-0.0000000000000002
230
-1.0
  0
CIRCLE
  5
24261
  8
0
  6
VERDECKT
 62
     1
 10
70.0000000000009095
 20
200.0
 30
-0.0000000000000444
 40
36.5
  0
CIRCLE
  5
24262
  8
0
  6
VERDECKT
 62
     1
 10
70.0000000000009095
 20
200.0000000000001137
 30
-0.0000000000000444
 40
40.6999999999995907
  0
CIRCLE
  5
24263
  8
0
  6
VERDECKT
 62
     1
 10
70.0000000000009095
 20
200.0000000000001137
 30
-0.0000000000000444
 40
38.1999999999995907
  0
CIRCLE
  5
24264
  8
0
  6
VERDECKT
 62
     1
 10
70.0000000000009095
 20
200.0000000000001137
 30
-0.0000000000000444
 40
39.3999999999996433
  0
CIRCLE
  5
24265
  8
0
  6
VERDECKT
 62
     1
 10
70.0
 20
200.0
 30
-0.0000000000000444
 40
35.8875793553185076
  0
CIRCLE
  5
24266
  8
0
  6
VERDECKT
 62
     1
 10
-70.0000000000009095
 20
200.0000000000001137
 30
0.0
 40
40.7000862159353431
210
0.0
220
-0.0000000000000002
230
-1.0
  0
CIRCLE
  5
24267
  8
0
  6
VERDECKT
 62
     1
 10
-70.0000000000002842
 20
200.0
 30
-0.0000000000000444
 40
43.0961946980916579
  0
CIRCLE
  5
24268
  8
0
  6
VERDECKT
 62
     1
 10
69.9999999999997442
 20
200.0
 30
-0.0000000000000444
 40
43.0961946980916579
  0
CIRCLE
  5
24269
  8
0
  6
VERDECKT
 62
     1
 10
70.0000000000004547
 20
200.0
 30
0.0
 40
36.5
210
0.0
220
-0.0000000000000002
230
-1.0
  0
CIRCLE
  5
2426A
  8
0
  6
VERDECKT
 62
     1
 10
70.0000000000004547
 20
200.0000000000001137
 30
0.0
 40
40.6999999999995907
210
0.0
220
-0.0000000000000002
230
-1.0
  0
CIRCLE
  5
2426B
  8
0
  6
VERDECKT
 62
     1
 10
70.0000000000004547
 20
200.0000000000001137
 30
0.0
 40
38.1999999999995907
210
0.0
220
-0.0000000000000002
230
-1.0
  0
CIRCLE
  5
2426C
  8
0
  6
VERDECKT
 62
     1
 10
70.0000000000004547
 20
200.0000000000001137
 30
0.0
 40
39.3999999999996433
210
0.0
220
-0.0000000000000002
230
-1.0
  0
CIRCLE
  5
2426D
  8
0
  6
VERDECKT
 62
     1
 10
69.9999999999995453
 20
200.0
 30
0.0
 40
35.8875793553185076
210
0.0
220
-0.0000000000000002
230
-1.0
  0
CIRCLE
  5
2426E
  8
0
  6
VERDECKT
 62
     1
 10
70.0000000000004547
 20
200.0000000000001137
 30
0.0
 40
40.7000862159353431
210
0.0
220
-0.0000000000000002
230
-1.0
  0
ENDBLK
  5
24270
  8
0
  0
BLOCK
  8
0
  2
A$CDCAB096D
 70
     0
 10
0.0
 20
0.0
 30
0.0
  3
A$CDCAB096D
  1

  0
LINE
  5
24274
  8
0
  6
CONTINUOUS
 62
     3
 10
-1.999999999998918
 20
239.2594616805546082
 30
-0.0000000000000531
 11
-1.9999999999989451
 21
160.7405383194455055
 31
-0.0000000000000357
210
0.0000000000000002
220
1.0
230
-0.0000000000000002
  0
LINE
  5
24275
  8
0
  6
CONTINUOUS
 62
     3
 10
398.0000000000014211
 20
235.8875793553183939
 30
-0.0000000000000524
 11
398.0000000000014211
 21
164.1124206446814071
 31
-0.0000000000000364
210
0.0000000000000002
220
1.0
230
-0.0000000000000002
  0
ARC
  5
24276
  8
0
  6
CONTINUOUS
 62
     3
 10
-122.493057779705893
 20
244.4999999999830038
 30
0.0
 40
7.9999999999829479
210
0.0
220
-0.0000000000000002
230
-1.0
 50
270.0
 51
301.3206695884819055
  0
ARC
  5
24277
  8
0
  6
CONTINUOUS
 62
     3
 10
-122.4930577797057936
 20
155.5000000000173088
 30
0.0
 40
7.9999999999826592
210
0.0
220
-0.0000000000000002
230
-1.0
 50
58.67933041156234
 51
90.0000000000462137
  0
ARC
  5
24278
  8
0
  6
CONTINUOUS
 62
     3
 10
-112.1484939899689977
 20
227.4999999999920135
 30
0.0
 40
11.9000000000076795
210
0.0
220
-0.0000000000000002
230
-1.0
 50
90.000000000014623
 51
121.3206695884063038
  0
ARC
  5
24279
  8
0
  6
CONTINUOUS
 62
     3
 10
-112.1484939899689977
 20
172.5000000000079865
 30
0.0
 40
11.90000000000766
210
0.0
220
-0.0000000000000002
230
-1.0
 50
238.6793304115934973
 51
269.9999999999852776
  0
LINE
  5
2427A
  8
0
  6
CONTINUOUS
 62
     3
 10
112.1484939899720956
 20
160.6000000000003922
 30
-0.0000000000000357
 11
26.8718289426871415
 21
160.6000000000003922
 31
-0.0000000000000357
210
0.0000000000000002
220
1.0
230
-0.0000000000000002
  0
LINE
  5
2427B
  8
0
  6
CONTINUOUS
 62
     3
 10
112.1484939899720956
 20
239.399999999999693
 30
-0.0000000000000532
 11
26.8718289426871593
 21
239.399999999999693
 31
-0.0000000000000532
210
0.0000000000000002
220
1.0
230
-0.0000000000000002
  0
ARC
  5
2427C
  8
0
  6
CONTINUOUS
 62
     3
 10
-26.8718289426805512
 20
251.8999999999664965
 30
0.0
 40
12.4999999999668105
210
0.0
220
-0.0000000000000002
230
-1.0
 50
270.0
 51
291.1668520398416149
  0
ARC
  5
2427D
  8
0
  6
CONTINUOUS
 62
     3
 10
-26.8718289426805086
 20
148.1000000000335888
 30
0.0
 40
12.4999999999667502
210
0.0
220
-0.0000000000000002
230
-1.0
 50
68.8331479601886969
 51
90.000000000030397
  0
ARC
  5
2427E
  8
0
  6
CONTINUOUS
 62
     3
 10
-13.42625942565288
 20
216.9941909850604134
 30
0.0
 40
24.9058952308750783
210
0.0
220
-0.0000000000000002
230
-1.0
 50
89.8492419712254673
 51
111.0160940109913952
  0
ARC
  5
2427F
  8
0
  6
CONTINUOUS
 62
     3
 10
-13.4262594256529297
 20
183.0058090149391035
 30
0.0
 40
24.9058952308744317
210
0.0
220
-0.0000000000000002
230
-1.0
 50
248.9839059890080932
 51
270.1507580287747032
  0
LINE
  5
24280
  8
0
  6
CONTINUOUS
 62
     3
 10
13.3607265125971502
 20
158.1000000000003922
 30
-0.0000000000000351
 11
13.0000000000000906
 21
158.1000000000003922
 31
-0.0000000000000351
210
0.0000000000000002
220
1.0
230
-0.0000000000000002
  0
LINE
  5
24281
  8
0
  6
CONTINUOUS
 62
     3
 10
13.3607265125971804
 20
241.899999999999693
 30
-0.0000000000000537
 11
13.0000000000001101
 21
241.899999999999693
 31
-0.0000000000000537
210
0.0000000000000002
220
1.0
230
-0.0000000000000002
  0
ARC
  5
24282
  8
0
  6
CONTINUOUS
 62
     3
 10
-9.1828497997150862
 20
217.0000000000744933
 30
0.0
 40
24.8999999999250186
210
0.0
220
-0.0000000000000002
230
-1.0
 50
64.9999999999588027
 51
68.3590396899821968
  0
ARC
  5
24283
  8
0
  6
CONTINUOUS
 62
     3
 10
-9.1828497997160774
 20
182.9999999999280078
 30
0.0
 40
24.8999999999276014
210
0.0
220
-0.0000000000000002
230
-1.0
 50
291.6409603100179879
 51
295.0000000000409841
  0
LINE
  5
24284
  8
0
  6
CONTINUOUS
 62
     3
 10
-1.999999999998918
 20
239.2594616805546082
 30
-0.0000000000000531
 11
-1.3403449176128659
 21
239.5670638972115967
 31
-0.0000000000000532
210
0.0000000000000002
220
1.0
230
-0.0000000000000002
  0
LINE
  5
24285
  8
0
  6
CONTINUOUS
 62
     3
 10
-1.9999999999989451
 20
160.7405383194455055
 30
-0.0000000000000357
 11
-1.340344917612893
 21
160.4329361027884886
 31
-0.0000000000000356
210
0.0000000000000002
220
1.0
230
-0.0000000000000002
  0
LINE
  5
24286
  8
0
  6
CONTINUOUS
 62
     3
 10
398.0000000000014211
 20
164.1124206446814071
 30
-0.0000000000000364
 11
391.0434947998415964
 21
163.5038053019081019
 31
-0.0000000000000363
210
0.0000000000000002
220
1.0
230
-0.0000000000000002
  0
LINE
  5
24287
  8
0
  6
CONTINUOUS
 62
     3
 10
398.0000000000014211
 20
235.8875793553183939
 30
-0.0000000000000524
 11
391.0434947998417101
 21
236.4961946980916139
 31
-0.0000000000000525
210
0.0000000000000002
220
1.0
230
-0.0000000000000002
  0
ARC
  5
24288
  8
0
  6
CONTINUOUS
 62
     3
 10
-390.9563390570942829
 20
235.5000000000100897
 30
0.0
 40
0.9999999999898253
210
0.0
220
-0.0000000000000002
230
-1.0
 50
89.9999999999837144
 51
95.0000000000377156
  0
ARC
  5
24289
  8
0
  6
CONTINUOUS
 62
     3
 10
-390.956339057093885
 20
164.5000000000019895
 30
0.0
 40
1.000000000002105
210
0.0
220
-0.0000000000000002
230
-1.0
 50
265.0000000000106866
 51
269.9999999999968168
  0
LINE
  5
2428A
  8
0
  6
CONTINUOUS
 62
     3
 10
390.9563390570939987
 20
163.4999999999998863
 30
-0.0000000000000363
 11
122.4930577797122027
 21
163.4999999999998863
 31
-0.0000000000000363
210
0.0000000000000002
220
1.0
230
-0.0000000000000002
  0
LINE
  5
2428B
  8
0
  6
CONTINUOUS
 62
     3
 10
390.9563390570939987
 20
236.4999999999998863
 30
-0.0000000000000525
 11
122.4930577797121032
 21
236.5
 31
-0.0000000000000525
210
0.0000000000000002
220
1.0
230
-0.0000000000000002
  0
LINE
  5
2428C
  8
0
  6
CONTINUOUS
 62
     3
 10
13.0000000000001101
 20
243.0961946980916935
 30
-0.000000000000054
 11
13.0000000000000906
 21
156.9038053019083065
 31
-0.0000000000000348
210
0.0000000000000002
220
1.0
230
-0.0000000000000002
  0
LINE
  5
2428D
  8
0
  6
CONTINUOUS
 62
     3
 10
0.0000000000000239
 20
380.0000000000001137
 30
-0.0000000000000844
 11
0.000000000000032
 21
400.0
 31
-0.0000000000000888
210
0.0000000000000002
220
1.0
230
-0.0000000000000002
  0
LINE
  5
2428E
  8
0
  6
CONTINUOUS
 62
     3
 10
0.9999999999999182
 20
400.0
 30
-0.0000000000000888
 11
0.9999999999999101
 21
380.0000000000001137
 31
-0.0000000000000844
210
0.0000000000000002
220
1.0
230
-0.0000000000000002
  0
LINE
  5
2428F
  8
0
  6
CONTINUOUS
 62
     3
 10
1.0000000000000311
 20
400.0
 30
-0.0000000000000888
 11
0.000000000000032
 21
400.0
 31
-0.0000000000000888
210
0.0000000000000002
220
1.0
230
-0.0000000000000002
  0
LINE
  5
24290
  8
0
  6
CONTINUOUS
 62
     3
 10
1.0000000000000271
 20
380.0000000000001137
 30
-0.0000000000000844
 11
0.9999999999999475
 21
20.0
 31
-0.0000000000000044
210
0.0000000000000002
220
1.0
230
-0.0000000000000002
  0
LINE
  5
24291
  8
0
  6
CONTINUOUS
 62
     3
 10
0.9999999999998301
 20
20.0
 30
-0.0000000000000044
 11
0.9999999999998294
 21
-0.0000000000000002
 31
0.0
210
0.0000000000000002
220
1.0
230
-0.0000000000000002
  0
LINE
  5
24292
  8
0
  6
CONTINUOUS
 62
     3
 10
-0.0000000000000524
 20
20.0
 30
-0.0000000000000044
 11
0.0000000000000275
 21
380.0000000000001137
 31
-0.0000000000000844
210
0.0000000000000002
220
1.0
230
-0.0000000000000002
  0
LINE
  5
24293
  8
0
  6
CONTINUOUS
 62
     3
 10
-0.0000000000000568
 20
0.0
 30
0.0
 11
-0.0000000000000561
 21
20.0
 31
-0.0000000000000044
210
0.0000000000000002
220
1.0
230
-0.0000000000000002
  0
LINE
  5
24294
  8
0
  6
CONTINUOUS
 62
     3
 10
-0.0000000000000568
 20
0.0
 30
0.0
 11
0.999999999999943
 21
-0.0000000000000002
 31
0.0
210
0.0000000000000002
220
1.0
230
-0.0000000000000002
  0
LINE
  5
24295
  8
0
  6
CONTINUOUS
 62
     3
 10
13.0000000000000906
 20
156.9038053019083065
 30
-0.0000000000000348
 11
1.4564221286395611
 21
155.8938731016280883
 31
-0.0000000000000346
210
0.0000000000000002
220
1.0
230
-0.0000000000000002
  0
LINE
  5
24296
  8
0
  6
CONTINUOUS
 62
     3
 10
13.0000000000001101
 20
243.0961946980916935
 30
-0.000000000000054
 11
1.4564221286395811
 21
244.106126898371997
 31
-0.0000000000000542
210
0.0000000000000002
220
1.0
230
-0.0000000000000002
  0
ARC
  5
24297
  8
0
  6
CONTINUOUS
 62
     3
 10
-1.500000000003342
 20
244.6042242474219961
 30
0.0
 40
0.5000000000031763
210
0.0
220
-0.0000000000000002
230
-1.0
 50
274.9999999988096988
 51
359.9999999988046966
  0
ARC
  5
24298
  8
0
  6
CONTINUOUS
 62
     3
 10
-1.500000000003322
 20
155.3957757525780892
 30
0.0
 40
0.5000000000031747
210
0.0
220
-0.0000000000000002
230
-1.0
 50
0.0000000011952906
 51
85.0000000011902443
  0
LINE
  5
24299
  8
0
  6
VERDECKT
 62
     1
 10
-1.492858085910767
 20
238.1718923361102895
 30
-0.0000000000000529
 11
-1.4928580859107929
 21
161.8281076638897957
 31
-0.0000000000000359
210
0.0000000000000002
220
1.0
230
-0.0000000000000002
  0
LINE
  5
2429A
  8
0
  6
VERDECKT
 62
     1
 10
397.8954131087041901
 20
234.6921457176084118
 30
-0.0000000000000521
 11
397.8954131087041901
 21
165.3078542823913892
 31
-0.0000000000000367
210
0.0000000000000002
220
1.0
230
-0.0000000000000002
  0
ARC
  5
2429B
  8
0
  6
VERDECKT
 62
     1
 10
-112.1484939899702056
 20
227.4999999999955094
 30
0.0
 40
10.7000000000041098
210
0.0
220
-0.0000000000000002
230
-1.0
 50
90.0000000000102602
 51
121.320669588411107
  0
ARC
  5
2429C
  8
0
  6
VERDECKT
 62
     1
 10
-112.1484939899701061
 20
172.5000000000044906
 30
0.0
 40
10.7000000000041204
210
0.0
220
-0.0000000000000002
230
-1.0
 50
238.679330411588893
 51
269.9999999999897113
  0
ARC
  5
2429D
  8
0
  6
VERDECKT
 62
     1
 10
-122.493057779705893
 20
244.4999999999830891
 30
0.0
 40
9.1999999999831346
210
0.0
220
-0.0000000000000002
230
-1.0
 50
270.0
 51
301.3206695884713895
  0
ARC
  5
2429E
  8
0
  6
VERDECKT
 62
     1
 10
-122.4930577797057936
 20
155.5000000000169962
 30
0.0
 40
9.1999999999830262
210
0.0
220
-0.0000000000000002
230
-1.0
 50
58.679330411567193
 51
90.0000000000438831
  0
LINE
  5
2429F
  8
0
  6
VERDECKT
 62
     1
 10
-1.4928580859107501
 20
161.8281076638897957
 30
-0.0000000000000359
 11
-1.999999999998902
 21
160.7405383194455055
 31
-0.0000000000000357
210
0.0000000000000002
220
1.0
230
-0.0000000000000002
  0
LINE
  5
242A0
  8
0
  6
VERDECKT
 62
     1
 10
-1.4928580859107241
 20
238.1718923361102895
 30
-0.0000000000000529
 11
-1.9999999999988749
 21
239.2594616805546082
 31
-0.0000000000000531
210
0.0000000000000002
220
1.0
230
-0.0000000000000002
  0
LINE
  5
242A1
  8
0
  6
VERDECKT
 62
     1
 10
-1.492858085910767
 20
238.1718923361102895
 30
-0.0000000000000529
 11
-0.833203003524802
 21
238.4794945527671928
 31
-0.000000000000053
210
0.0000000000000002
220
1.0
230
-0.0000000000000002
  0
LINE
  5
242A2
  8
0
  6
VERDECKT
 62
     1
 10
-1.4928580859107929
 20
161.8281076638897957
 30
-0.0000000000000359
 11
-0.8332030035248283
 21
161.5205054472328925
 31
-0.0000000000000359
210
0.0000000000000002
220
1.0
230
-0.0000000000000002
  0
ARC
  5
242A3
  8
0
  6
VERDECKT
 62
     1
 10
-9.1828497997163261
 20
217.0000000000709122
 30
0.0
 40
23.6999999999287994
210
0.0
220
-0.0000000000000002
230
-1.0
 50
64.9999999999556337
 51
90.0000000000073044
  0
ARC
  5
242A4
  8
0
  6
VERDECKT
 62
     1
 10
-9.1828497997163119
 20
182.9999999999292868
 30
0.0
 40
23.6999999999288313
210
0.0
220
-0.0000000000000002
230
-1.0
 50
270.0
 51
295.0000000000517275
  0
LINE
  5
242A5
  8
0
  6
VERDECKT
 62
     1
 10
13.3623247367285405
 20
159.3000000000004093
 30
-0.0000000000000354
 11
9.1828497997193228
 21
159.3000000000004093
 31
-0.0000000000000354
210
0.0000000000000002
220
1.0
230
-0.0000000000000002
  0
LINE
  5
242A6
  8
0
  6
VERDECKT
 62
     1
 10
13.3623247367285707
 20
240.6999999999997044
 30
-0.0000000000000534
 11
9.1828497997193512
 21
240.6999999999997044
 31
-0.0000000000000534
210
0.0000000000000002
220
1.0
230
-0.0000000000000002
  0
ARC
  5
242A7
  8
0
  6
VERDECKT
 62
     1
 10
-13.4262594256541004
 20
216.9941909850674051
 30
0.0
 40
23.7058952308680411
210
0.0
220
-0.0000000000000002
230
-1.0
 50
89.8454733624219841
 51
111.0124127937333043
  0
ARC
  5
242A8
  8
0
  6
VERDECKT
 62
     1
 10
-13.4262594256540897
 20
183.0058090149327938
 30
0.0
 40
23.7058952308680411
210
0.0
220
-0.0000000000000002
230
-1.0
 50
248.9875872062667099
 51
270.1545266375779875
  0
ARC
  5
242A9
  8
0
  6
VERDECKT
 62
     1
 10
-26.8718289426837487
 20
251.8999999999711861
 30
0.0
 40
13.6999999999715101
210
0.0
220
-0.0000000000000002
230
-1.0
 50
270.0
 51
291.1600167708655817
  0
ARC
  5
242AA
  8
0
  6
VERDECKT
 62
     1
 10
-26.8718289426836989
 20
148.1000000000290129
 30
0.0
 40
13.6999999999714497
210
0.0
220
-0.0000000000000002
230
-1.0
 50
68.8399832291511444
 51
90.0000000000166835
  0
LINE
  5
242AB
  8
0
  6
VERDECKT
 62
     1
 10
112.1484939899720956
 20
161.8000000000004093
 30
-0.0000000000000359
 11
26.8718289426877099
 21
161.8000000000004093
 31
-0.0000000000000359
210
0.0000000000000002
220
1.0
230
-0.0000000000000002
  0
LINE
  5
242AC
  8
0
  6
VERDECKT
 62
     1
 10
112.1484939899720956
 20
238.1999999999997044
 30
-0.0000000000000529
 11
26.8718289426877313
 21
238.1999999999997044
 31
-0.0000000000000529
210
0.0000000000000002
220
1.0
230
-0.0000000000000002
  0
LINE
  5
242AD
  8
0
  6
VERDECKT
 62
     1
 10
13.0000000000000906
 20
158.1000000000003922
 30
-0.0000000000000351
 11
9.1828497997194365
 21
158.1000000000003922
 31
-0.0000000000000351
210
0.0000000000000002
220
1.0
230
-0.0000000000000002
  0
LINE
  5
242AE
  8
0
  6
VERDECKT
 62
     1
 10
13.0000000000001101
 20
241.899999999999693
 30
-0.0000000000000537
 11
9.1828497997194631
 21
241.899999999999693
 31
-0.0000000000000537
210
0.0000000000000002
220
1.0
230
-0.0000000000000002
  0
ARC
  5
242AF
  8
0
  6
VERDECKT
 62
     1
 10
-9.1828497997162817
 20
217.0000000000713953
 30
0.0
 40
24.8999999999283403
210
0.0
220
-0.0000000000000002
230
-1.0
 50
68.3590396899822537
 51
90.0000000000073044
  0
ARC
  5
242B0
  8
0
  6
VERDECKT
 62
     1
 10
-9.1828497997162692
 20
182.9999999999286899
 30
0.0
 40
24.8999999999283084
210
0.0
220
-0.0000000000000002
230
-1.0
 50
270.0
 51
291.6409603100250933
  0
LINE
  5
242B1
  8
0
  6
VERDECKT
 62
     1
 10
397.8954131087041901
 20
234.6921457176084118
 30
-0.0000000000000521
 11
398.0000000000014211
 21
235.8875793553183939
 31
-0.0000000000000524
210
0.0000000000000002
220
1.0
230
-0.0000000000000002
  0
LINE
  5
242B2
  8
0
  6
VERDECKT
 62
     1
 10
397.8954131087041901
 20
165.3078542823913892
 30
-0.0000000000000367
 11
398.0000000000014211
 21
164.1124206446814071
 31
-0.0000000000000364
210
0.0000000000000002
220
1.0
230
-0.0000000000000002
  0
LINE
  5
242B3
  8
0
  6
VERDECKT
 62
     1
 10
397.8954131087041901
 20
165.3078542823913892
 30
-0.0000000000000367
 11
390.991101668352826
 21
164.7038053019080905
 31
-0.0000000000000366
210
0.0000000000000002
220
1.0
230
-0.0000000000000002
  0
LINE
  5
242B4
  8
0
  6
VERDECKT
 62
     1
 10
397.8954131087041901
 20
234.6921457176082981
 30
-0.0000000000000521
 11
390.9911016683528828
 21
235.2961946980915968
 31
-0.0000000000000522
210
0.0000000000000002
220
1.0
230
-0.0000000000000002
  0
ARC
  5
242B5
  8
0
  6
VERDECKT
 62
     1
 10
-390.9039459256052282
 20
234.3000000000054968
 30
0.0
 40
0.9999999999943726
210
0.0
220
-0.0000000000000002
230
-1.0
 50
89.9999999999902371
 51
95.0000000000247411
  0
ARC
  5
242B6
  8
0
  6
VERDECKT
 62
     1
 10
-390.9039459256050009
 20
165.7000000000053035
 30
0.0
 40
1.000000000005371
210
0.0
220
-0.0000000000000002
230
-1.0
 50
265.0000000000205773
 51
269.9999999999934062
  0
LINE
  5
242B7
  8
0
  6
VERDECKT
 62
     1
 10
390.9039459256050009
 20
164.6999999999999034
 30
-0.0000000000000366
 11
122.493057779712899
 21
164.6999999999999886
 31
-0.0000000000000366
210
0.0000000000000002
220
1.0
230
-0.0000000000000002
  0
LINE
  5
242B8
  8
0
  6
VERDECKT
 62
     1
 10
390.9039459256050009
 20
235.2999999999998977
 30
-0.0000000000000522
 11
122.4930577797121032
 21
235.3000000000000114
 31
-0.0000000000000522
210
0.0000000000000002
220
1.0
230
-0.0000000000000002
  0
LINE
  5
242B9
  8
0
  6
VERDECKT
 62
     1
 10
12.9128442572524502
 20
242.0999999999999943
 30
-0.0000000000000538
 11
12.9128442572524396
 21
157.9000000000000909
 31
-0.0000000000000351
210
0.0000000000000002
220
1.0
230
-0.0000000000000002
  0
LINE
  5
242BA
  8
0
  6
VERDECKT
 62
     1
 10
12.9128442572524502
 20
242.0999999999999943
 30
-0.0000000000000538
 11
13.0000000000001101
 21
243.0961946980916935
 31
-0.000000000000054
210
0.0000000000000002
220
1.0
230
-0.0000000000000002
  0
LINE
  5
242BB
  8
0
  6
VERDECKT
 62
     1
 10
12.9128442572524396
 20
157.9000000000000909
 30
-0.0000000000000351
 11
13.0000000000000906
 21
156.9038053019083065
 31
-0.0000000000000348
210
0.0000000000000002
220
1.0
230
-0.0000000000000002
  0
ARC
  5
242BC
  8
0
  6
VERDECKT
 62
     1
 10
-1.4999999999964031
 20
244.6042242474293005
 30
0.0
 40
1.4999999999962299
210
0.0
220
-0.0000000000000002
230
-1.0
 50
274.9999999993187885
 51
359.9999999993193001
  0
ARC
  5
242BD
  8
0
  6
VERDECKT
 62
     1
 10
-1.499999999996382
 20
155.3957757525708132
 30
0.0
 40
1.499999999996245
210
0.0
220
-0.0000000000000002
230
-1.0
 50
0.0000000006807023
 51
85.0000000006812542
  0
LINE
  5
242BE
  8
0
  6
VERDECKT
 62
     1
 10
12.9128442572524396
 20
157.9000000000000909
 30
-0.0000000000000351
 11
1.369266385892991
 21
156.8900677997062019
 31
-0.0000000000000348
210
0.0000000000000002
220
1.0
230
-0.0000000000000002
  0
LINE
  5
242BF
  8
0
  6
VERDECKT
 62
     1
 10
12.9128442572524502
 20
242.0999999999999943
 30
-0.0000000000000538
 11
1.3692663858930101
 21
243.1099322002939118
 31
-0.000000000000054
210
0.0000000000000002
220
1.0
230
-0.0000000000000002
  0
LINE
  5
242C0
  8
0
  6
VERDECKT
 62
     1
 10
0.9999999999998332
 20
17.0
 30
-0.0000000000000038
 11
-0.0000000000000531
 21
17.0
 31
-0.0000000000000038
210
0.0000000000000002
220
1.0
230
-0.0000000000000002
  0
LINE
  5
242C1
  8
0
  6
VERDECKT
 62
     1
 10
0.9999999999998346
 20
23.0
 30
-0.0000000000000051
 11
-0.0000000000000517
 21
23.0
 31
-0.0000000000000051
210
0.0000000000000002
220
1.0
230
-0.0000000000000002
  0
LINE
  5
242C2
  8
0
  6
VERDECKT
 62
     1
 10
0.0000000000000282
 20
383.0000000000002274
 30
-0.000000000000085
 11
0.9999999999999145
 21
383.0000000000002274
 31
-0.000000000000085
210
0.0000000000000002
220
1.0
230
-0.0000000000000002
  0
LINE
  5
242C3
  8
0
  6
VERDECKT
 62
     1
 10
0.0000000000000269
 20
377.0000000000002274
 30
-0.0000000000000837
 11
0.9999999999999131
 21
377.0000000000002274
 31
-0.0000000000000837
210
0.0000000000000002
220
1.0
230
-0.0000000000000002
  0
ENDBLK
  5
242C5
  8
0
  0
BLOCK
  8
0
  2
A$C99A79B71
 70
     0
 10
0.0
 20
0.0
 30
0.0
  3
A$C99A79B71
  1

  0
LINE
  5
242C9
  8
0
  6
CONTINUOUS
 62
     3
 10
30.7405383194463901
 20
-1.9999999999989759
 30
0.0
 11
109.259461680555404
 21
-1.9999999999989759
 31
0.0
  0
LINE
  5
242CA
  8
0
  6
CONTINUOUS
 62
     3
 10
34.1124206446816132
 20
398.0000000000014211
 30
0.0
 11
105.8875793553183939
 21
398.0000000000014211
 31
0.0
  0
ARC
  5
242CB
  8
0
  6
CONTINUOUS
 62
     3
 10
25.5000000000179696
 20
122.4930577797057936
 30
0.0
 40
7.9999999999829461
 50
328.6793304115628871
 51
0.0000000000447822
  0
ARC
  5
242CC
  8
0
  6
CONTINUOUS
 62
     3
 10
114.4999999999837996
 20
122.4930577797057936
 30
0.0
 40
7.9999999999829443
 50
179.9999999999552074
 51
211.3206695884371129
  0
ARC
  5
242CD
  8
0
  6
CONTINUOUS
 62
     3
 10
42.5000000000090381
 20
112.1484939899689977
 30
0.0
 40
11.9000000000077595
 50
148.6793304115936962
 51
179.9999999999851923
  0
ARC
  5
242CE
  8
0
  6
CONTINUOUS
 62
     3
 10
97.4999999999928662
 20
112.1484939899689977
 30
0.0
 40
11.9000000000076795
 50
0.000000000014656
 51
31.3206695884063393
  0
LINE
  5
242CF
  8
0
  6
CONTINUOUS
 62
     3
 10
109.4000000000005031
 20
112.1484939899719961
 30
0.0
 11
109.4000000000005031
 21
26.8718289426871095
 31
0.0
  0
LINE
  5
242D0
  8
0
  6
CONTINUOUS
 62
     3
 10
30.6000000000012697
 20
112.1484939899719961
 30
0.0
 11
30.6000000000012697
 21
26.8718289426871095
 31
0.0
  0
ARC
  5
242D1
  8
0
  6
CONTINUOUS
 62
     3
 10
18.1000000000350596
 20
26.87182894268037
 30
0.0
 40
12.4999999999662101
 50
338.8331479601882847
 51
0.0000000000308387
  0
ARC
  5
242D2
  8
0
  6
CONTINUOUS
 62
     3
 10
121.8999999999673065
 20
26.8718289426804802
 30
0.0
 40
12.4999999999667608
 50
179.9999999999695888
 51
201.1668520398112889
  0
ARC
  5
242D3
  8
0
  6
CONTINUOUS
 62
     3
 10
53.0058090149399419
 20
13.4262594256529297
 30
0.0
 40
24.9058952308744317
 50
158.9839059890082069
 51
180.1507580287747032
  0
ARC
  5
242D4
  8
0
  6
CONTINUOUS
 62
     3
 10
86.9941909850615787
 20
13.4262594256528693
 30
0.0
 40
24.9058952308747408
 50
359.8492419712254105
 51
21.0160940109916297
  0
LINE
  5
242D5
  8
0
  6
CONTINUOUS
 62
     3
 10
111.9000000000005031
 20
13.36072651259712
 30
0.0
 11
111.9000000000005031
 21
13.0000000000000497
 31
0.0
  0
LINE
  5
242D6
  8
0
  6
CONTINUOUS
 62
     3
 10
28.1000000000012804
 20
13.36072651259712
 30
0.0
 11
28.1000000000012804
 21
13.0000000000000604
 31
0.0
  0
ARC
  5
242D7
  8
0
  6
CONTINUOUS
 62
     3
 10
52.9999999999306084
 20
9.1828497997168554
 30
0.0
 40
24.8999999999295198
 50
201.6409603100179879
 51
205.0000000000410125
  0
ARC
  5
242D8
  8
0
  6
CONTINUOUS
 62
     3
 10
87.0000000000719496
 20
9.1828497997166618
 30
0.0
 40
24.8999999999287702
 50
334.9999999999586748
 51
338.3590396899817279
  0
LINE
  5
242D9
  8
0
  6
CONTINUOUS
 62
     3
 10
30.7405383194463901
 20
-1.9999999999989759
 30
0.0
 11
30.4329361027894301
 21
-1.3403449176129241
 31
0.0
  0
LINE
  5
242DA
  8
0
  6
CONTINUOUS
 62
     3
 10
109.259461680555404
 20
-1.9999999999989759
 30
0.0
 11
109.5670638972124067
 21
-1.3403449176129241
 31
0.0
  0
LINE
  5
242DB
  8
0
  6
CONTINUOUS
 62
     3
 10
105.8875793553183939
 20
398.0000000000014211
 30
0.0
 11
106.4961946980916991
 21
391.0434947998415964
 31
0.0
  0
LINE
  5
242DC
  8
0
  6
CONTINUOUS
 62
     3
 10
34.1124206446815421
 20
398.0000000000014211
 30
0.0
 11
33.5038053019082511
 21
391.0434947998415964
 31
0.0
  0
ARC
  5
242DD
  8
0
  6
CONTINUOUS
 62
     3
 10
34.5000000000016414
 20
390.956339057093885
 30
0.0
 40
1.0000000000016409
 50
175.0000000000084128
 51
180.0
  0
ARC
  5
242DE
  8
0
  6
CONTINUOUS
 62
     3
 10
105.5000000000021032
 20
390.9563390570939987
 30
0.0
 40
0.9999999999979099
 50
359.9999999999968168
 51
5.0000000000070157
  0
LINE
  5
242DF
  8
0
  6
CONTINUOUS
 62
     3
 10
106.5
 20
390.956339057093885
 30
0.0
 11
106.5
 21
122.4930577797121032
 31
0.0
  0
LINE
  5
242E0
  8
0
  6
CONTINUOUS
 62
     3
 10
33.5
 20
390.956339057093885
 30
0.0
 11
33.5
 21
122.4930577797121032
 31
0.0
  0
LINE
  5
242E1
  8
0
  6
CONTINUOUS
 62
     3
 10
-113.0961946980919066
 20
13.0000000000001208
 30
0.0
 11
-26.9038053019086192
 21
13.0000000000000995
 31
0.0
  0
LINE
  5
242E2
  8
0
  6
CONTINUOUS
 62
     3
 10
26.9038053019080792
 20
13.0000000000000604
 30
0.0
 11
113.096194698091395
 21
13.0000000000000497
 31
0.0
  0
LINE
  5
242E3
  8
0
  6
CONTINUOUS
 62
     3
 10
270.0000000000001137
 20
-0.0000000000000605
 30
0.0
 11
250.0000000000001137
 21
-0.0000000000000568
 31
0.0
  0
LINE
  5
242E4
  8
0
  6
CONTINUOUS
 62
     3
 10
270.0000000000001137
 20
-0.0000000000000568
 30
0.0
 11
270.0000000000001137
 21
0.999999999999943
 31
0.0
  0
LINE
  5
242E5
  8
0
  6
CONTINUOUS
 62
     3
 10
250.0000000000001137
 20
0.9999999999998294
 30
0.0
 11
270.0000000000001137
 21
0.9999999999998257
 31
0.0
  0
LINE
  5
242E6
  8
0
  6
CONTINUOUS
 62
     3
 10
-269.9999999999998863
 20
0.9999999999999468
 30
0.0
 11
-250.0
 21
0.999999999999943
 31
0.0
  0
LINE
  5
242E7
  8
0
  6
CONTINUOUS
 62
     3
 10
-250.0
 20
1.000000000000056
 30
0.0
 11
250.0
 21
0.999999999999965
 31
0.0
  0
LINE
  5
242E8
  8
0
  6
CONTINUOUS
 62
     3
 10
-250.0
 20
0.0000000000000568
 30
0.0
 11
-269.9999999999998863
 21
0.0000000000000605
 31
0.0
  0
LINE
  5
242E9
  8
0
  6
CONTINUOUS
 62
     3
 10
-269.9999999999998863
 20
1.000000000000056
 30
0.0
 11
-269.9999999999998863
 21
0.0000000000000568
 31
0.0
  0
LINE
  5
242EA
  8
0
  6
CONTINUOUS
 62
     3
 10
250.0000000000001137
 20
-0.0000000000000568
 30
0.0
 11
-249.9999999999998863
 21
0.000000000000035
 31
0.0
  0
LINE
  5
242EB
  8
0
  6
CONTINUOUS
 62
     3
 10
-26.9038053019086298
 20
13.0000000000000995
 30
0.0
 11
-25.8938731016283903
 21
1.4564221286395751
 31
0.0
  0
LINE
  5
242EC
  8
0
  6
CONTINUOUS
 62
     3
 10
-113.0961946980919066
 20
13.0000000000001101
 30
0.0
 11
-114.1061268983721959
 21
1.456422128639584
 31
0.0
  0
ARC
  5
242ED
  8
0
  6
CONTINUOUS
 62
     3
 10
-114.6042242474220956
 20
1.5000000000033471
 30
0.0
 40
0.5000000000031624
 50
270.0000000011904149
 51
355.0000000011899033
  0
ARC
  5
242EE
  8
0
  6
CONTINUOUS
 62
     3
 10
-25.3957757525783983
 20
1.500000000003346
 30
0.0
 40
0.5000000000031846
 50
184.9999999988106936
 51
269.9999999988046966
  0
LINE
  5
242EF
  8
0
  6
CONTINUOUS
 62
     3
 10
113.096194698091395
 20
13.0000000000000497
 30
0.0
 11
114.1061268983715991
 21
1.456422128639518
 31
0.0
  0
LINE
  5
242F0
  8
0
  6
CONTINUOUS
 62
     3
 10
26.9038053019081005
 20
13.0000000000001101
 30
0.0
 11
25.8938731016278503
 21
1.456422128639584
 31
0.0
  0
ARC
  5
242F1
  8
0
  6
CONTINUOUS
 62
     3
 10
25.3957757525778582
 20
1.500000000003308
 30
0.0
 40
0.5000000000031873
 50
270.0000000011957013
 51
355.0000000011946213
  0
ARC
  5
242F2
  8
0
  6
CONTINUOUS
 62
     3
 10
114.6042242474215982
 20
1.5000000000032709
 30
0.0
 40
0.5000000000031662
 50
184.9999999988087893
 51
269.9999999988062882
  0
LINE
  5
242F3
  8
0
  6
CONTINUOUS
 62
     3
 10
-30.7405383194459283
 20
-1.9999999999989759
 30
0.0
 11
-109.2594616805550061
 21
-1.9999999999989759
 31
0.0
  0
LINE
  5
242F4
  8
0
  6
CONTINUOUS
 62
     3
 10
-34.1124206446811513
 20
398.0000000000014211
 30
0.0
 11
-105.8875793553178966
 21
398.0000000000014211
 31
0.0
  0
ARC
  5
242F5
  8
0
  6
CONTINUOUS
 62
     3
 10
-114.4999999999834017
 20
122.4930577797057936
 30
0.0
 40
7.9999999999829461
 50
328.6793304115628871
 51
0.0000000000447822
  0
ARC
  5
242F6
  8
0
  6
CONTINUOUS
 62
     3
 10
-25.5000000000175113
 20
122.4930577797057936
 30
0.0
 40
7.9999999999829443
 50
179.9999999999552074
 51
211.3206695884371129
  0
ARC
  5
242F7
  8
0
  6
CONTINUOUS
 62
     3
 10
-97.4999999999924114
 20
112.1484939899689977
 30
0.0
 40
11.9000000000076795
 50
148.679330411593611
 51
179.999999999985306
  0
ARC
  5
242F8
  8
0
  6
CONTINUOUS
 62
     3
 10
-42.5000000000086828
 20
112.1484939899689977
 30
0.0
 40
11.9000000000078607
 50
0.0000000000148341
 51
31.3206695884060409
  0
LINE
  5
242F9
  8
0
  6
CONTINUOUS
 62
     3
 10
-109.4000000000001052
 20
26.8718289426871095
 30
0.0
 11
-109.4000000000001052
 21
112.1484939899719961
 31
0.0
  0
LINE
  5
242FA
  8
0
  6
CONTINUOUS
 62
     3
 10
-30.6000000000008185
 20
26.8718289426871095
 30
0.0
 11
-30.6000000000008185
 21
112.1484939899719961
 31
0.0
  0
ARC
  5
242FB
  8
0
  6
CONTINUOUS
 62
     3
 10
-121.8999999999667949
 20
26.8718289426804802
 30
0.0
 40
12.4999999999667093
 50
338.8331479601886826
 51
0.0000000000303807
  0
ARC
  5
242FC
  8
0
  6
CONTINUOUS
 62
     3
 10
-18.1000000000344592
 20
26.8718289426804091
 30
0.0
 40
12.4999999999663505
 50
179.9999999999693046
 51
201.1668520398116868
  0
ARC
  5
242FD
  8
0
  6
CONTINUOUS
 62
     3
 10
-86.9941909850611239
 20
13.4262594256528605
 30
0.0
 40
24.9058952308747301
 50
158.9839059890084059
 51
180.1507580287745895
  0
ARC
  5
242FE
  8
0
  6
CONTINUOUS
 62
     3
 10
-53.0058090149396008
 20
13.4262594256529102
 30
0.0
 40
24.9058952308745489
 50
359.8492419712252968
 51
21.0160940109917291
  0
LINE
  5
242FF
  8
0
  6
CONTINUOUS
 62
     3
 10
-111.9000000000001052
 20
13.0000000000001208
 30
0.0
 11
-111.9000000000001052
 21
13.36072651259712
 31
0.0
  0
LINE
  5
24300
  8
0
  6
CONTINUOUS
 62
     3
 10
-28.1000000000008185
 20
13.0000000000000995
 30
0.0
 11
-28.1000000000008185
 21
13.36072651259712
 31
0.0
  0
ARC
  5
24301
  8
0
  6
CONTINUOUS
 62
     3
 10
-87.0000000000702443
 20
9.1828497997169301
 30
0.0
 40
24.8999999999300208
 50
201.6409603100177037
 51
205.0000000000405862
  0
ARC
  5
24302
  8
0
  6
CONTINUOUS
 62
     3
 10
-52.9999999999269207
 20
9.1828497997154805
 30
0.0
 40
24.8999999999260204
 50
334.9999999999586748
 51
338.3590396899822963
  0
LINE
  5
24303
  8
0
  6
CONTINUOUS
 62
     3
 10
-109.2594616805550061
 20
-1.9999999999989759
 30
0.0
 11
-109.5670638972118951
 21
-1.3403449176129241
 31
0.0
  0
LINE
  5
24304
  8
0
  6
CONTINUOUS
 62
     3
 10
-30.7405383194459283
 20
-1.9999999999989759
 30
0.0
 11
-30.4329361027889718
 21
-1.3403449176129241
 31
0.0
  0
LINE
  5
24305
  8
0
  6
CONTINUOUS
 62
     3
 10
-34.1124206446810874
 20
398.0000000000014211
 30
0.0
 11
-33.5038053019078035
 21
391.0434947998415964
 31
0.0
  0
LINE
  5
24306
  8
0
  6
CONTINUOUS
 62
     3
 10
-105.887579355317996
 20
398.0000000000014211
 30
0.0
 11
-106.4961946980913012
 21
391.0434947998415964
 31
0.0
  0
ARC
  5
24307
  8
0
  6
CONTINUOUS
 62
     3
 10
-105.5000000000016058
 20
390.9563390570939987
 30
0.0
 40
0.999999999997911
 50
174.9999999999930083
 51
180.0000000000032117
  0
ARC
  5
24308
  8
0
  6
CONTINUOUS
 62
     3
 10
-34.5000000000011866
 20
390.956339057093885
 30
0.0
 40
1.000000000001642
 50
0.0000000000032314
 51
4.9999999999948033
  0
LINE
  5
24309
  8
0
  6
CONTINUOUS
 62
     3
 10
-106.4999999999995026
 20
122.4930577797121032
 30
0.0
 11
-106.4999999999995026
 21
390.956339057093885
 31
0.0
  0
LINE
  5
2430A
  8
0
  6
CONTINUOUS
 62
     3
 10
-33.4999999999995524
 20
122.4930577797121032
 30
0.0
 11
-33.4999999999995524
 21
390.956339057093885
 31
0.0
  0
LINE
  5
2430B
  8
0
  6
VERDECKT
 62
     1
 10
31.8281076638904814
 20
-1.4928580859108249
 30
0.0
 11
108.1718923361112985
 21
-1.4928580859108249
 31
0.0
  0
LINE
  5
2430C
  8
0
  6
VERDECKT
 62
     1
 10
35.3078542823914177
 20
397.8954131087040764
 30
0.0
 11
104.6921457176085966
 21
397.8954131087040764
 31
0.0
  0
ARC
  5
2430D
  8
0
  6
VERDECKT
 62
     1
 10
42.5000000000059472
 20
112.1484939899700066
 30
0.0
 40
10.7000000000046196
 50
148.679330411600688
 51
180.0
  0
ARC
  5
2430E
  8
0
  6
VERDECKT
 62
     1
 10
97.4999999999958362
 20
112.1484939899698929
 30
0.0
 40
10.7000000000046498
 50
0.0000000000111956
 51
31.3206695884104107
  0
ARC
  5
2430F
  8
0
  6
VERDECKT
 62
     1
 10
25.5000000000178311
 20
122.4930577797057936
 30
0.0
 40
9.1999999999831275
 50
328.6793304115673209
 51
0.0000000000437135
  0
ARC
  5
24310
  8
0
  6
VERDECKT
 62
     1
 10
114.4999999999837001
 20
122.4930577797057936
 30
0.0
 40
9.1999999999828663
 50
179.9999999999558895
 51
211.3206695884331907
  0
LINE
  5
24311
  8
0
  6
VERDECKT
 62
     1
 10
108.1718923361110996
 20
-1.492858085910781
 30
0.0
 11
109.259461680555404
 21
-1.9999999999989331
 31
0.0
  0
LINE
  5
24312
  8
0
  6
VERDECKT
 62
     1
 10
31.8281076638904992
 20
-1.492858085910868
 30
0.0
 11
30.7405383194463688
 21
-1.9999999999989331
 31
0.0
  0
LINE
  5
24313
  8
0
  6
VERDECKT
 62
     1
 10
31.8281076638906697
 20
-1.4928580859107381
 30
0.0
 11
31.5205054472337096
 21
-0.8332030035246853
 31
0.0
  0
LINE
  5
24314
  8
0
  6
VERDECKT
 62
     1
 10
108.1718923361110996
 20
-1.4928580859108249
 30
0.0
 11
108.4794945527680028
 21
-0.8332030035248597
 31
0.0
  0
ARC
  5
24315
  8
0
  6
VERDECKT
 62
     1
 10
52.99999999993058
 20
9.1828497997163758
 30
0.0
 40
23.6999999999292683
 50
179.9999999999928946
 51
205.0000000000437126
  0
ARC
  5
24316
  8
0
  6
VERDECKT
 62
     1
 10
87.0000000000716511
 20
9.1828497997162906
 30
0.0
 40
23.6999999999288491
 50
334.999999999955719
 51
0.0000000000072771
  0
LINE
  5
24317
  8
0
  6
VERDECKT
 62
     1
 10
110.7000000000005002
 20
13.3623247367285103
 30
0.0
 11
110.7000000000005002
 21
9.1828497997192926
 31
0.0
  0
LINE
  5
24318
  8
0
  6
VERDECKT
 62
     1
 10
29.3000000000013188
 20
13.3623247367285103
 30
0.0
 11
29.3000000000013188
 21
9.1828497997192926
 31
0.0
  0
ARC
  5
24319
  8
0
  6
VERDECKT
 62
     1
 10
53.0058090149341083
 20
13.4262594256539405
 30
0.0
 40
23.7058952308685491
 50
158.9875872062669941
 51
180.1545266375777032
  0
ARC
  5
2431A
  8
0
  6
VERDECKT
 62
     1
 10
86.9941909850677604
 20
13.4262594256539405
 30
0.0
 40
23.7058952308684994
 50
359.8454733624221831
 51
21.0124127937331515
  0
ARC
  5
2431B
  8
0
  6
VERDECKT
 62
     1
 10
18.1000000000298797
 20
26.8718289426836989
 30
0.0
 40
13.6999999999714301
 50
338.8399832291506755
 51
0.0000000000166407
  0
ARC
  5
2431C
  8
0
  6
VERDECKT
 62
     1
 10
121.8999999999715982
 20
26.8718289426836385
 30
0.0
 40
13.6999999999711299
 50
179.9999999999830891
 51
201.1600167708492108
  0
LINE
  5
2431D
  8
0
  6
VERDECKT
 62
     1
 10
108.2000000000005002
 20
112.1484939899719961
 30
0.0
 11
108.2000000000005002
 21
26.8718289426876709
 31
0.0
  0
LINE
  5
2431E
  8
0
  6
VERDECKT
 62
     1
 10
31.8000000000013188
 20
112.1484939899719961
 30
0.0
 11
31.8000000000013188
 21
26.8718289426876709
 31
0.0
  0
LINE
  5
2431F
  8
0
  6
VERDECKT
 62
     1
 10
111.9000000000005031
 20
13.0000000000000497
 30
0.0
 11
111.9000000000005031
 21
9.1828497997194063
 31
0.0
  0
LINE
  5
24320
  8
0
  6
VERDECKT
 62
     1
 10
28.1000000000012804
 20
13.0000000000000604
 30
0.0
 11
28.1000000000012804
 21
9.1828497997194063
 31
0.0
  0
ARC
  5
24321
  8
0
  6
VERDECKT
 62
     1
 10
52.9999999999286473
 20
9.1828497997160081
 30
0.0
 40
24.8999999999273918
 50
179.9999999999922125
 51
201.640960310017789
  0
ARC
  5
24322
  8
0
  6
VERDECKT
 62
     1
 10
87.0000000000728733
 20
9.1828497997160525
 30
0.0
 40
24.8999999999276902
 50
338.3590396899822963
 51
0.0000000000077351
  0
LINE
  5
24323
  8
0
  6
VERDECKT
 62
     1
 10
35.3078542823918724
 20
397.8954131087040764
 30
0.0
 11
34.1124206446816132
 21
398.0000000000014211
 31
0.0
  0
LINE
  5
24324
  8
0
  6
VERDECKT
 62
     1
 10
104.6921457176083976
 20
397.8954131087040764
 30
0.0
 11
105.8875793553184934
 21
398.0000000000014211
 31
0.0
  0
LINE
  5
24325
  8
0
  6
VERDECKT
 62
     1
 10
104.6921457176083976
 20
397.8954131087040764
 30
0.0
 11
105.2961946980916963
 21
390.991101668352826
 31
0.0
  0
LINE
  5
24326
  8
0
  6
VERDECKT
 62
     1
 10
35.3078542823915882
 20
397.8954131087040764
 30
0.0
 11
34.7038053019082966
 21
390.9911016683527123
 31
0.0
  0
ARC
  5
24327
  8
0
  6
VERDECKT
 62
     1
 10
35.6999999999986315
 20
390.9039459256050009
 30
0.0
 40
0.9999999999985789
 50
174.9999999999930935
 51
180.0000000000032117
  0
ARC
  5
24328
  8
0
  6
VERDECKT
 62
     1
 10
104.300000000001404
 20
390.9039459256050009
 30
0.0
 40
0.9999999999985663
 50
359.9999999999968168
 51
5.0000000000069651
  0
LINE
  5
24329
  8
0
  6
VERDECKT
 62
     1
 10
105.2999999999998977
 20
390.9039459256050009
 30
0.0
 11
105.2999999999998977
 21
122.493057779712899
 31
0.0
  0
LINE
  5
2432A
  8
0
  6
VERDECKT
 62
     1
 10
34.7000000000000526
 20
390.9039459256050009
 30
0.0
 11
34.7000000000000526
 21
122.493057779712899
 31
0.0
  0
LINE
  5
2432B
  8
0
  6
VERDECKT
 62
     1
 10
-112.1000000000001933
 20
12.9128442572524609
 30
0.0
 11
-27.9000000000003787
 21
12.9128442572524502
 31
0.0
  0
LINE
  5
2432C
  8
0
  6
VERDECKT
 62
     1
 10
27.8999999999998387
 20
12.9128442572524094
 30
0.0
 11
112.0999999999995964
 21
12.9128442572523898
 31
0.0
  0
LINE
  5
2432D
  8
0
  6
VERDECKT
 62
     1
 10
-112.1000000000001933
 20
12.9128442572524609
 30
0.0
 11
-113.0961946980919066
 21
13.0000000000001208
 31
0.0
  0
LINE
  5
2432E
  8
0
  6
VERDECKT
 62
     1
 10
-27.9000000000003787
 20
12.9128442572524502
 30
0.0
 11
-26.9038053019086192
 21
13.0000000000000995
 31
0.0
  0
ARC
  5
2432F
  8
0
  6
VERDECKT
 62
     1
 10
-114.6042242474294994
 20
1.499999999996436
 30
0.0
 40
1.499999999996275
 50
270.0000000006822916
 51
355.0000000006801884
  0
ARC
  5
24330
  8
0
  6
VERDECKT
 62
     1
 10
-25.3957757525710086
 20
1.49999999999641
 30
0.0
 40
1.4999999999962581
 50
184.9999999993191864
 51
269.99999999931822
  0
LINE
  5
24331
  8
0
  6
VERDECKT
 62
     1
 10
-27.9000000000003787
 20
12.9128442572524502
 30
0.0
 11
-26.8900677997064612
 21
1.3692663858930061
 31
0.0
  0
LINE
  5
24332
  8
0
  6
VERDECKT
 62
     1
 10
-112.1000000000001933
 20
12.9128442572524609
 30
0.0
 11
-113.1099322002940966
 21
1.369266385893013
 31
0.0
  0
LINE
  5
24333
  8
0
  6
VERDECKT
 62
     1
 10
27.8999999999998316
 20
12.9128442572524094
 30
0.0
 11
26.9038053019080792
 21
13.0000000000000604
 31
0.0
  0
LINE
  5
24334
  8
0
  6
VERDECKT
 62
     1
 10
112.0999999999995964
 20
12.9128442572523898
 30
0.0
 11
113.096194698091395
 21
13.0000000000000497
 31
0.0
  0
ARC
  5
24335
  8
0
  6
VERDECKT
 62
     1
 10
25.3957757525704793
 20
1.4999999999963669
 30
0.0
 40
1.4999999999962541
 50
270.0000000006816094
 51
355.0000000006828031
  0
ARC
  5
24336
  8
0
  6
VERDECKT
 62
     1
 10
114.604224247429002
 20
1.499999999996366
 30
0.0
 40
1.4999999999962721
 50
184.9999999993196127
 51
269.9999999993177084
  0
LINE
  5
24337
  8
0
  6
VERDECKT
 62
     1
 10
112.0999999999995964
 20
12.9128442572523898
 30
0.0
 11
113.1099322002934997
 21
1.369266385892949
 31
0.0
  0
LINE
  5
24338
  8
0
  6
VERDECKT
 62
     1
 10
27.8999999999998387
 20
12.9128442572524609
 30
0.0
 11
26.8900677997059283
 21
1.369266385893013
 31
0.0
  0
LINE
  5
24339
  8
0
  6
VERDECKT
 62
     1
 10
-246.9999999999998863
 20
0.999999999999943
 30
0.0
 11
-246.9999999999998863
 21
0.0000000000000568
 31
0.0
  0
LINE
  5
2433A
  8
0
  6
VERDECKT
 62
     1
 10
-252.9999999999998863
 20
0.999999999999944
 30
0.0
 11
-252.9999999999998863
 21
0.0000000000000577
 31
0.0
  0
LINE
  5
2433B
  8
0
  6
VERDECKT
 62
     1
 10
247.0000000000001137
 20
-0.0000000000000568
 30
0.0
 11
247.0000000000001137
 21
0.9999999999998294
 31
0.0
  0
LINE
  5
2433C
  8
0
  6
VERDECKT
 62
     1
 10
253.0000000000001137
 20
-0.0000000000000577
 30
0.0
 11
253.0000000000001137
 21
0.9999999999998285
 31
0.0
  0
LINE
  5
2433D
  8
0
  6
VERDECKT
 62
     1
 10
-31.8281076638904885
 20
-1.4928580859108249
 30
0.0
 11
-108.1718923361104032
 21
-1.4928580859108249
 31
0.0
  0
LINE
  5
2433E
  8
0
  6
VERDECKT
 62
     1
 10
-35.3078542823909629
 20
397.8954131087040764
 30
0.0
 11
-104.6921457176080992
 21
397.8954131087040764
 31
0.0
  0
ARC
  5
2433F
  8
0
  6
VERDECKT
 62
     1
 10
-97.4999999999953815
 20
112.1484939899698929
 30
0.0
 40
10.7000000000046498
 50
148.6793304115896035
 51
179.9999999999888018
  0
ARC
  5
24340
  8
0
  6
VERDECKT
 62
     1
 10
-42.500000000005457
 20
112.1484939899700066
 30
0.0
 40
10.7000000000045699
 50
0.000000000010992
 51
31.3206695884104107
  0
ARC
  5
24341
  8
0
  6
VERDECKT
 62
     1
 10
-114.4999999999833022
 20
122.4930577797057936
 30
0.0
 40
9.1999999999828646
 50
328.6793304115668093
 51
0.0000000000440698
  0
ARC
  5
24342
  8
0
  6
VERDECKT
 62
     1
 10
-25.5000000000176286
 20
122.4930577797057936
 30
0.0
 40
9.1999999999828699
 50
179.9999999999558895
 51
211.3206695884331907
  0
LINE
  5
24343
  8
0
  6
VERDECKT
 62
     1
 10
-31.8281076638900515
 20
-1.492858085910868
 30
0.0
 11
-30.7405383194459105
 21
-1.9999999999989331
 31
0.0
  0
LINE
  5
24344
  8
0
  6
VERDECKT
 62
     1
 10
-108.1718923361107016
 20
-1.492858085910781
 30
0.0
 11
-109.2594616805550061
 21
-1.9999999999989331
 31
0.0
  0
LINE
  5
24345
  8
0
  6
VERDECKT
 62
     1
 10
-108.1718923361106022
 20
-1.4928580859108249
 30
0.0
 11
-108.4794945527675054
 21
-0.8332030035248597
 31
0.0
  0
LINE
  5
24346
  8
0
  6
VERDECKT
 62
     1
 10
-31.8281076638902114
 20
-1.4928580859107381
 30
0.0
 11
-31.5205054472332513
 21
-0.8332030035246853
 31
0.0
  0
ARC
  5
24347
  8
0
  6
VERDECKT
 62
     1
 10
-87.0000000000711964
 20
9.1828497997162835
 30
0.0
 40
23.6999999999288491
 50
179.9999999999926956
 51
205.0000000000443094
  0
ARC
  5
24348
  8
0
  6
VERDECKT
 62
     1
 10
-52.9999999999300471
 20
9.1828497997163563
 30
0.0
 40
23.6999999999291902
 50
334.9999999999562874
 51
0.0000000000071244
  0
LINE
  5
24349
  8
0
  6
VERDECKT
 62
     1
 10
-110.7000000000000028
 20
9.1828497997192926
 30
0.0
 11
-110.7000000000000028
 21
13.3623247367285103
 31
0.0
  0
LINE
  5
2434A
  8
0
  6
VERDECKT
 62
     1
 10
-29.3000000000008711
 20
9.1828497997192926
 30
0.0
 11
-29.3000000000008711
 21
13.3623247367285103
 31
0.0
  0
ARC
  5
2434B
  8
0
  6
VERDECKT
 62
     1
 10
-86.9941909850673483
 20
13.4262594256539405
 30
0.0
 40
23.7058952308684496
 50
158.9875872062667952
 51
180.1545266375777032
  0
ARC
  5
2434C
  8
0
  6
VERDECKT
 62
     1
 10
-53.0058090149337175
 20
13.4262594256539298
 30
0.0
 40
23.7058952308686095
 50
359.8454733624221831
 51
21.0124127937328993
  0
ARC
  5
2434D
  8
0
  6
VERDECKT
 62
     1
 10
-121.8999999999711008
 20
26.8718289426836492
 30
0.0
 40
13.6999999999711193
 50
338.8399832291506755
 51
0.0000000000168442
  0
ARC
  5
2434E
  8
0
  6
VERDECKT
 62
     1
 10
-18.1000000000293717
 20
26.8718289426837096
 30
0.0
 40
13.6999999999714905
 50
179.9999999999834017
 51
201.1600167708492961
  0
LINE
  5
2434F
  8
0
  6
VERDECKT
 62
     1
 10
-108.2000000000000028
 20
26.8718289426876709
 30
0.0
 11
-108.2000000000000028
 21
112.1484939899719961
 31
0.0
  0
LINE
  5
24350
  8
0
  6
VERDECKT
 62
     1
 10
-31.8000000000008711
 20
26.8718289426876709
 30
0.0
 11
-31.8000000000008711
 21
112.1484939899719961
 31
0.0
  0
LINE
  5
24351
  8
0
  6
VERDECKT
 62
     1
 10
-111.9000000000001052
 20
9.1828497997194063
 30
0.0
 11
-111.9000000000001052
 21
13.0000000000001208
 31
0.0
  0
LINE
  5
24352
  8
0
  6
VERDECKT
 62
     1
 10
-28.1000000000008185
 20
9.1828497997194063
 30
0.0
 11
-28.1000000000008185
 21
13.0000000000000995
 31
0.0
  0
ARC
  5
24353
  8
0
  6
VERDECKT
 62
     1
 10
-87.0000000000730296
 20
9.1828497997159335
 30
0.0
 40
24.8999999999270791
 50
179.9999999999920135
 51
201.6409603100179027
  0
ARC
  5
24354
  8
0
  6
VERDECKT
 62
     1
 10
-52.9999999999281712
 20
9.1828497997159975
 30
0.0
 40
24.8999999999273598
 50
338.3590396899821258
 51
0.0000000000078369
  0
LINE
  5
24355
  8
0
  6
VERDECKT
 62
     1
 10
-104.6921457176079997
 20
397.8954131087040764
 30
0.0
 11
-105.887579355317996
 21
398.0000000000014211
 31
0.0
  0
LINE
  5
24356
  8
0
  6
VERDECKT
 62
     1
 10
-35.3078542823914177
 20
397.8954131087040764
 30
0.0
 11
-34.1124206446811513
 21
398.0000000000014211
 31
0.0
  0
LINE
  5
24357
  8
0
  6
VERDECKT
 62
     1
 10
-35.3078542823911334
 20
397.8954131087040764
 30
0.0
 11
-34.703805301907849
 21
390.9911016683527123
 31
0.0
  0
LINE
  5
24358
  8
0
  6
VERDECKT
 62
     1
 10
-104.6921457176079002
 20
397.8954131087040764
 30
0.0
 11
-105.2961946980911989
 21
390.991101668352826
 31
0.0
  0
ARC
  5
24359
  8
0
  6
VERDECKT
 62
     1
 10
-104.3000000000009067
 20
390.9039459256050009
 30
0.0
 40
0.9999999999985647
 50
174.9999999999930083
 51
180.0000000000032117
  0
ARC
  5
2435A
  8
0
  6
VERDECKT
 62
     1
 10
-35.6999999999981696
 20
390.9039459256050009
 30
0.0
 40
0.9999999999985802
 50
359.9999999999968168
 51
5.0000000000069154
  0
LINE
  5
2435B
  8
0
  6
VERDECKT
 62
     1
 10
-105.2999999999994998
 20
122.493057779712899
 30
0.0
 11
-105.2999999999994998
 21
390.9039459256050009
 31
0.0
  0
LINE
  5
2435C
  8
0
  6
VERDECKT
 62
     1
 10
-34.6999999999995907
 20
122.493057779712899
 30
0.0
 11
-34.6999999999995907
 21
390.9039459256050009
 31
0.0
  0
ENDBLK
  5
2435E
  8
0
  0
ENDSEC
  0
SECTION
  2
ENTITIES
  0
TEXT
  5
5DDE
  8
VOLL
 10
78.076754716981128
 20
31.025947764705851
 30
0.0
 40
1.8
  1

  7
GREEKS
  0
INSERT
  5
5DDF
  8
ADSK_ASSOC_ENTITY_BACKUPS
  2
*S1
 10
0.0
 20
0.0
 30
0.0
  0
INSERT
  5
24271
  8
STEMPEL
  2
A$C962BA9BC
 10
0.0
 20
0.0
 30
0.0
  0
INSERT
  5
242C6
  8
STEMPEL
  2
A$CDCAB096D
 10
-750.0
 20
0.0
 30
0.0
  0
INSERT
  5
2435F
  8
STEMPEL
  2
A$C99A79B71
 10
0.0
 20
-499.9999999999998863
 30
0.0
  0
VIEWPORT
  5
1571
 67
     1
  8
0
 10
114.2499997392336013
 20
218.2019024196495991
 30
0.0
 40
9.4724813261311347
 41
5.025773623307713
 68
     1
 69
     1
1001
ACAD
1000
MVIEW
1002
{
1070
    16
1010
0.0
1020
0.0
1030
0.0
1010
0.0
1020
0.0
1030
1.0
1040
0.0
1040
5.025773623307713
1040
114.2499997392336013
1040
218.2019024196495991
1040
50.0
1040
0.0
1040
0.0
1070
     0
1070
  1500
1070
     1
1070
     1
1070
     0
1070
     0
1070
     0
1070
     0
1040
0.0
1040
0.0
1040
0.0
1040
10.0
1040
10.0
1040
10.0
1040
10.0
1070
     0
1002
{
1002
}
1002
}
1001
GENIUS_GENOBJ-N-SDF_13
1002
{
1000
OWNER
1000
GEN
1002
}
1001
GENIUS_GENODEF_13
1002
{
1000
HIER
1070
     0
1002
}
1002
{
1000
MANEDIT
1070
     0
1002
}
1002
{
1000
NOSEL
1070
     0
1002
}
1002
{
1000
BEHIND
1070
     0
1002
}
1002
{
1000
OTHER
1070
     0
1002
}
1002
{
1000
REACTOR
1002
}
1001
GENIUS_GENSCREG_15
1000
PF
1040
1.0
1000
DF
1040
1.0
1000
MIN
1011
-98.3237311841076007
1021
0.0
1031
0.0
1021
-84.5929851452383446
1031
0.0
1000
MAX
1011
756.7695330154733711
1021
0.0
1031
0.0
1021
339.8977580961391141
1031
0.0
1000
FLAGS
1070
     4
  0
CIRCLE
  5
23FE7
 67
     1
  8
INDEX
 62
   150
 10
114.2499999999943014
 20
218.2019026509516095
 30
0.0
 40
2.5
  0
TEXT
  5
23FE8
 67
     1
  8
INDEX
 62
   150
 10
113.3357142857086046
 20
216.7019026509516948
 30
0.0
 40
3.0
  1
A
 41
0.8
 72
     4
 11
114.2499999999943014
 21
218.2019026509516095
 31
0.0
  0
ENDSEC
  0
EOF
