  0
SECTION
  2
HEADER
  9
$ACADVER
  1
AC1009
  9
$INSBASE
 10
509.9391017861535147
 20
-118.0350180316795985
 30
403.1361558984037856
  9
$EXTMIN
 10
-752.0000013682761164
 20
-502.0000007942016964
 30
-0.0000000116415251
  9
$EXTMAX
 10
269.999998987625986
 20
399.9999993734672898
 30
-0.0000000116415251
  9
$LIMMIN
 10
0.0
 20
0.000000000000008
  9
$LIMMAX
 10
594.0
 20
840.0
  9
$ORTHOMODE
 70
     1
  9
$REGENMODE
 70
     1
  9
$FILLMODE
 70
     1
  9
$QTEXTMODE
 70
     0
  9
$MIRRTEXT
 70
     1
  9
$DRAGMODE
 70
     2
  9
$LTSCALE
 40
20.0
  9
$OSMODE
 70
   511
  9
$ATTMODE
 70
     1
  9
$TEXTSIZE
 40
2.0
  9
$TRACEWID
 40
1.0
  9
$TEXTSTYLE
  7
STANDARD
  9
$CLAYER
  8
STEMPEL
  9
$CELTYPE
  6
BYLAYER
  9
$CECOLOR
 62
   256
  9
$DIMSCALE
 40
1.0
  9
$DIMASZ
 40
3.5
  9
$DIMEXO
 40
1.0
  9
$DIMDLI
 40
0.38
  9
$DIMRND
 40
0.0
  9
$DIMDLE
 40
0.0
  9
$DIMEXE
 40
1.0
  9
$DIMTP
 40
0.0
  9
$DIMTM
 40
0.000000001
  9
$DIMTXT
 40
3.5
  9
$DIMCEN
 40
0.09
  9
$DIMTSZ
 40
0.0
  9
$DIMTOL
 70
     0
  9
$DIMLIM
 70
     0
  9
$DIMTIH
 70
     0
  9
$DIMTOH
 70
     0
  9
$DIMSE1
 70
     0
  9
$DIMSE2
 70
     0
  9
$DIMTAD
 70
     1
  9
$DIMZIN
 70
     8
  9
$DIMBLK
  1

  9
$DIMASO
 70
     1
  9
$DIMSHO
 70
     0
  9
$DIMPOST
  1

  9
$DIMAPOST
  1

  9
$DIMALT
 70
     0
  9
$DIMALTD
 70
     2
  9
$DIMALTF
 40
25.3999999999999986
  9
$DIMLFAC
 40
2.0
  9
$DIMTOFL
 70
     1
  9
$DIMTVP
 40
0.0
  9
$DIMTIX
 70
     0
  9
$DIMSOXD
 70
     0
  9
$DIMSAH
 70
     0
  9
$DIMBLK1
  1

  9
$DIMBLK2
  1

  9
$DIMSTYLE
  2
LORO
  9
$DIMCLRD
 70
     0
  9
$DIMCLRE
 70
     0
  9
$DIMCLRT
 70
     1
  9
$DIMTFAC
 40
0.5
  9
$DIMGAP
 40
1.5
  9
$LUNITS
 70
     2
  9
$LUPREC
 70
     2
  9
$SKETCHINC
 40
1.0
  9
$FILLETRAD
 40
6.5
  9
$AUNITS
 70
     0
  9
$AUPREC
 70
     0
  9
$MENU
  1
ACAD
  9
$ELEVATION
 40
0.0
  9
$PELEVATION
 40
0.0
  9
$THICKNESS
 40
0.0
  9
$LIMCHECK
 70
     0
  9
$BLIPMODE
 70
     0
  9
$CHAMFERA
 40
0.0
  9
$CHAMFERB
 40
0.0
  9
$SKPOLY
 70
     0
  9
$TDCREATE
 40
2455397.867048610933125
  9
$TDUPDATE
 40
2460560.5730671300552785
  9
$TDINDWG
 40
1.7029814468
  9
$TDUSRTIMER
 40
1.7029814468
  9
$USRTIMER
 70
     1
  9
$ANGBASE
 50
0.0
  9
$ANGDIR
 70
     0
  9
$PDMODE
 70
     0
  9
$PDSIZE
 40
0.0
  9
$PLINEWID
 40
0.0
  9
$COORDS
 70
     1
  9
$SPLFRAME
 70
     0
  9
$SPLINETYPE
 70
     6
  9
$SPLINESEGS
 70
     8
  9
$ATTDIA
 70
     1
  9
$ATTREQ
 70
     1
  9
$HANDLING
 70
     1
  9
$HANDSEED
  5
24526
  9
$SURFTAB1
 70
     6
  9
$SURFTAB2
 70
     6
  9
$SURFTYPE
 70
     6
  9
$SURFU
 70
     6
  9
$SURFV
 70
     6
  9
$UCSNAME
  2

  9
$UCSORG
 10
0.0
 20
0.0
 30
0.0
  9
$UCSXDIR
 10
1.0
 20
0.0
 30
0.0
  9
$UCSYDIR
 10
0.0
 20
1.0
 30
0.0
  9
$PUCSNAME
  2

  9
$PUCSORG
 10
0.0
 20
0.0
 30
0.0
  9
$PUCSXDIR
 10
1.0
 20
0.0
 30
0.0
  9
$PUCSYDIR
 10
0.0
 20
1.0
 30
0.0
  9
$USERI1
 70
     0
  9
$USERI2
 70
     0
  9
$USERI3
 70
     0
  9
$USERI4
 70
     0
  9
$USERI5
 70
     0
  9
$USERR1
 40
0.0
  9
$USERR2
 40
0.0
  9
$USERR3
 40
0.0
  9
$USERR4
 40
0.0
  9
$USERR5
 40
0.0
  9
$WORLDVIEW
 70
     1
  9
$SHADEDGE
 70
     3
  9
$SHADEDIF
 70
    70
  9
$TILEMODE
 70
     1
  9
$MAXACTVP
 70
    16
  9
$PLIMCHECK
 70
     0
  9
$PEXTMIN
 10
1.0000000000000000E+20
 20
1.0000000000000000E+20
 30
1.0000000000000000E+20
  9
$PEXTMAX
 10
-1.0000000000000000E+20
 20
-1.0000000000000000E+20
 30
-1.0000000000000000E+20
  9
$PLIMMIN
 10
-0.2499985880222653
 20
-0.2499994036405724
  9
$PLIMMAX
 10
593.7500014119777916
 20
419.7500005963594845
  9
$UNITMODE
 70
     0
  9
$VISRETAIN
 70
     0
  9
$PLINEGEN
 70
     0
  9
$PSLTSCALE
 70
     0
  0
ENDSEC
  0
SECTION
  2
TABLES
  0
TABLE
  2
VPORT
 70
     1
  0
VPORT
  2
*ACTIVE
 70
     0
 10
0.0
 20
0.0
 11
1.0
 21
1.0
 12
-305.000001190325122
 22
-250.0000007103672033
 13
0.0
 23
0.0
 14
1.0
 24
1.0
 15
10.0
 25
10.0
 16
0.0000000000018332
 26
0.0
 36
8246.2832011792852427
 17
64.0
 27
199.0
 37
-0.000000000000016
 40
906.6494847046158156
 41
1.8847807394668961
 42
207.9750642040671949
 43
0.0
 44
0.0
 50
0.0
 51
0.0
 71
     0
 72
  1500
 73
     1
 74
     0
 75
     0
 76
     0
 77
     0
 78
     0
  0
ENDTAB
  0
TABLE
  2
LTYPE
 70
    13
  0
LTYPE
  2
CONTINUOUS
 70
     0
  3
Solid line
 72
    65
 73
     0
 40
0.0
  0
LTYPE
  2
STRICHPUNKT
 70
     0
  3
__ . __ . __ . __ . __ . __ . __ . __ . __ . __
 72
    65
 73
     4
 40
1.0
 49
0.5
 49
-0.25
 49
0.0
 49
-0.25
  0
LTYPE
  2
HIDDEN
 70
     0
  3
Hidden __ __ __ __ __ __ __ __ __ __ __ __ __ __
 72
    65
 73
     2
 40
0.375
 49
0.25
 49
-0.125
  0
LTYPE
  2
PHANTOM2
 70
     0
  3
Phantom (.5x) ___ _ _ ___ _ _ ___ _ _ ___ _ _
 72
    65
 73
     6
 40
1.25
 49
0.625
 49
-0.125
 49
0.125
 49
-0.125
 49
0.125
 49
-0.125
  0
LTYPE
  2
CENTER
 70
     0
  3
Center ____ _ ____ _ ____ _ ____ _ ____ _ ____
 72
    65
 73
     4
 40
2.0
 49
1.25
 49
-0.25
 49
0.25
 49
-0.25
  0
LTYPE
  2
AMCONSTR
 70
     0
  3
_______________________
 72
    65
 73
     2
 40
9999.0
 49
9999.0
 49
0.0
  0
LTYPE
  2
CENTER2
 70
     0
  3
Center (.5x) ___ _ ___ _ ___ _ ___ _ ___ _ ___
 72
    65
 73
     4
 40
1.125
 49
0.75
 49
-0.125
 49
0.125
 49
-0.125
  0
LTYPE
  2
HIDDEN2
 70
     0
  3
Hidden (.5x) _ _ _ _ _ _ _ _ _ _ _ _ _ _ _ _ _
 72
    65
 73
     2
 40
0.1875
 49
0.125
 49
-0.0625
  0
LTYPE
  2
AMZIGZAG2
 70
     0
  3
/\/-/\/-/\/-/\/-/\/-/\/
 72
    65
 73
     2
 40
0.4401
 49
0.0001
 49
-0.4400000000000001
  0
LTYPE
  2
ACANSTGB
 70
     0
  3
__ . . __ . .
 72
    65
 73
     6
 40
0.35433070866
 49
0.15748031496
 49
-0.03937007874
 49
0.03937007874
 49
-0.03937007874
 49
0.03937007874
 49
-0.03937007874
  0
LTYPE
  2
ACANSTGL
 70
     0
  3
_ _ _ _ _
 72
    65
 73
     2
 40
0.11811023622
 49
0.07874015748
 49
-0.03937007874
  0
LTYPE
  2
AUSGEZOGEN
 70
     0
  3
Ausgezogene Linie
 72
    65
 73
     0
 40
0.0
  0
LTYPE
  2
VERDECKT
 70
     0
  3
Verdeckt __ __ __ __ __ __ __ __ __ __ __ __ __
 72
    65
 73
     2
 40
0.375
 49
0.25
 49
-0.125
  0
ENDTAB
  0
TABLE
  2
LAYER
 70
     6
  0
LAYER
  2
0
 70
     0
 62
     7
  6
CONTINUOUS
  0
LAYER
  2
VOLL
 70
     0
 62
     1
  6
CONTINUOUS
  0
LAYER
  2
STEMPEL
 70
     0
 62
     3
  6
CONTINUOUS
  0
LAYER
  2
ADSK_ASSOC_ENTITY_BACKUPS
 70
     1
 62
    -7
  6
CONTINUOUS
  0
ENDTAB
  0
TABLE
  2
STYLE
 70
     4
  0
STYLE
  2
STANDARD
 70
     0
 40
0.0
 41
0.8
 50
0.0
 71
     0
 42
2.0
  3
simplex.shx
  4

  0
STYLE
  2
GREEKS
 70
     0
 40
0.0
 41
0.8
 50
0.0
 71
     0
 42
2.5
  3
SIMPLEX.shx
  4

  0
STYLE
  2

 70
     1
 40
0.0
 41
1.0
 50
0.0
 71
     0
 42
2.5
  3
genltshp.shx
  4

  0
STYLE
  2
ACANSGDT
 70
     0
 40
0.0
 41
1.0
 50
0.0
 71
     0
 42
2.5
  3
amgdt.shx
  4

  0
ENDTAB
  0
TABLE
  2
VIEW
 70
     0
  0
ENDTAB
  0
TABLE
  2
UCS
 70
     0
  0
ENDTAB
  0
TABLE
  2
APPID
 70
    49
  0
APPID
  2
ACAD
 70
     0
  0
APPID
  2
ACAD_NAV_VCDISPLAY
 70
     0
  0
APPID
  2
GRADIENTCOLOR1ACI
 70
     0
  0
APPID
  2
GRADIENTCOLOR2ACI
 70
     0
  0
APPID
  2
ACAD_DSTYLE_DIMRADIAL_EXTENSION
 70
     0
  0
APPID
  2
ACADANNOMONITORALERTICONDI
 70
     0
  0
APPID
  2
ACAD_EXEMPT_FROM_CAD_STANDARDS
 70
     0
  0
APPID
  2
ACAD_MLEADERVER
 70
     0
  0
APPID
  2
ACAD_PSEXT
 70
     0
  0
APPID
  2
ACAECLAYERSTANDARD
 70
     0
  0
APPID
  2
ACCMTRANSPARENCY
 70
     0
  0
APPID
  2
ACAD_OBJECT_CHANGE_GUID
 70
     0
  0
APPID
  2
MCAD_NO_VIS
 70
     0
  0
APPID
  2
ACAD_TEMP_GRAPHIC
 70
     0
  0
APPID
  2
ACATTRIBSERVICES
 70
     0
  0
APPID
  2
DESIGNERASSEMBLIES
 70
     0
  0
APPID
  2
ACAD_DSTYLE_DIMJAG
 70
     0
  0
APPID
  2
ACAD_DSTYLE_DIMBREAK
 70
     0
  0
APPID
  2
GENIUS_GENSCREG_15
 70
     0
  0
APPID
  2
GENIUS_GENOBJ-N-SDF_13
 70
     0
  0
APPID
  2
GENIUS_GENODEF_13
 70
     0
  0
APPID
  2
ACAD_STEPID
 70
     0
  0
APPID
  2
ACAD_DSTYLE_DIMARC_LENGTH_
 70
     0
  0
APPID
  2
ACAD_DSTYLE_DIM_LINETYPE
 70
     0
  0
APPID
  2
ACAD_DSTYLE_DIM_EXT1_LINETYPE
 70
     0
  0
APPID
  2
ACAD_DSTYLE_DIM_EXT2_LINETYPE
 70
     0
  0
APPID
  2
RAK
 70
     0
  0
APPID
  2
ACADANNOPO
 70
     0
  0
APPID
  2
ACSYNERGY
 70
     0
  0
APPID
  2
SYNERGY_BODY_TBR_ID
 70
     0
  0
APPID
  2
ACAD_VIEW_EDGE_ID
 70
     0
  0
APPID
  2
ACSYNERGYSKETCH
 70
     0
  0
APPID
  2
ACAD_MODELDOC_XFORM
 70
     0
  0
APPID
  2
GENIUS_GENDTOL_13
 70
     0
  0
APPID
  2
ACAD_DSTYLE_DIMINSPECT
 70
     0
  0
APPID
  2
ACAD_DSTYLE_DIMANGULAR_EXT
 70
     0
  0
APPID
  2
PLOTTRANSPARENCY
 70
     0
  0
APPID
  2
ACAUTHENVIRON
 70
     0
  0
APPID
  2
ACDBDYNAMICBLOCKTRUENAME
 70
     0
  0
APPID
  2
ACDBDYNAMICBLOCKGUID
 70
     0
  0
APPID
  2
PE_URL
 70
     0
  0
APPID
  2
ACADANNOAV
 70
     0
  0
APPID
  2
ACAD_TC
 70
     0
  0
APPID
  2
ACAD_DIMASSOC_CALC_DIMLFAC
 70
     0
  0
APPID
  2
ACAD_DIMASSOC_DIMLFAC
 70
     0
  0
APPID
  2
ACAD_DIMASSOC_OVERRIDDEN_D
 70
     0
  0
APPID
  2
ACAD_DSTYLE_DIMTALN
 70
     0
  0
APPID
  2
ACADANNOTATIVE
 70
     0
  0
APPID
  2
HATCHBACKGROUNDCOLOR
 70
     0
  0
ENDTAB
  0
TABLE
  2
DIMSTYLE
 70
    10
  0
DIMSTYLE
  2
AM_ANSI
 70
     0
  3

  4
mm
  5

  6

  7

 40
1.0
 41
0.12
 42
0.05
 43
0.5
 44
0.1
 45
0.0
 46
0.0
 47
0.1
 48
0.1
140
0.12
141
0.0
142
0.0
143
25.3999999999999986
144
1.0
145
0.0
146
0.71
147
0.06
 71
     0
 72
     0
 73
     1
 74
     1
 75
     0
 76
     0
 77
     0
 78
     7
170
     0
171
     2
172
     0
173
     0
174
     0
175
     0
176
   256
177
   256
178
   255
  0
DIMSTYLE
  2
AM_ANSI$3
 70
     0
  3

  4
mm
  5

  6

  7

 40
1.0
 41
0.12
 42
0.05
 43
0.5
 44
0.1
 45
0.0
 46
0.0
 47
0.1
 48
0.1
140
0.12
141
0.0
142
0.0
143
25.3999999999999986
144
1.0
145
0.0
146
0.71
147
0.06
 71
     0
 72
     0
 73
     1
 74
     1
 75
     0
 76
     0
 77
     0
 78
     7
170
     0
171
     2
172
     0
173
     0
174
     0
175
     0
176
   256
177
   256
178
   255
  0
DIMSTYLE
  2
AM_ANSI$4
 70
     0
  3

  4
mm
  5

  6

  7

 40
1.0
 41
0.12
 42
0.05
 43
0.5
 44
0.1
 45
0.0
 46
0.0
 47
0.1
 48
0.1
140
0.12
141
0.0
142
0.0
143
25.3999999999999986
144
1.0
145
0.0
146
0.71
147
0.06
 71
     0
 72
     0
 73
     1
 74
     1
 75
     0
 76
     0
 77
     0
 78
     7
170
     0
171
     2
172
     0
173
     0
174
     0
175
     0
176
   256
177
   256
178
   255
  0
DIMSTYLE
  2
AM_ANSI$7
 70
     0
  3

  4
mm
  5

  6

  7

 40
1.0
 41
0.12
 42
0.05
 43
0.5
 44
0.1
 45
0.0
 46
0.0
 47
0.1
 48
0.1
140
0.12
141
0.0
142
0.0
143
25.3999999999999986
144
1.0
145
0.0
146
0.71
147
0.06
 71
     0
 72
     0
 73
     1
 74
     1
 75
     0
 76
     0
 77
     0
 78
     7
170
     0
171
     2
172
     0
173
     0
174
     0
175
     0
176
   256
177
   256
178
   255
  0
DIMSTYLE
  2
AM_ANSI$SF
 70
     0
  3

  4
mm
  5

  6

  7

 40
1.0
 41
0.12
 42
0.05
 43
0.5
 44
0.1
 45
0.0
 46
0.0
 47
0.1
 48
0.1
140
0.12
141
0.0
142
0.0
143
25.3999999999999986
144
1.0
145
0.0
146
0.71
147
0.06
 71
     0
 72
     0
 73
     1
 74
     1
 75
     1
 76
     1
 77
     0
 78
     7
170
     0
171
     2
172
     0
173
     0
174
     0
175
     0
176
   256
177
   256
178
   255
  0
DIMSTYLE
  2
AM_ANSI$SH
 70
     0
  3

  4
mm
  5

  6
GENAXEH
  7

 40
1.0
 41
0.12
 42
0.05
 43
0.5
 44
0.1
 45
0.0
 46
0.0
 47
0.1
 48
0.1
140
0.12
141
0.0
142
0.0
143
25.3999999999999986
144
1.0
145
0.0
146
0.71
147
0.06
 71
     0
 72
     0
 73
     1
 74
     1
 75
     1
 76
     1
 77
     0
 78
     7
170
     0
171
     2
172
     0
173
     1
174
     0
175
     0
176
   256
177
   256
178
   255
  0
DIMSTYLE
  2
AM_ANSI$0
 70
     0
  3

  4
"
  5

  6

  7

 40
1.0
 41
3.5
 42
1.0
 43
10.0
 44
1.0
 45
0.0
 46
0.0
 47
0.1
 48
0.1
140
3.5
141
0.0
142
0.0
143
0.0393701
144
1.0
145
0.0
146
0.71
147
1.5
 71
     0
 72
     0
 73
     1
 74
     1
 75
     0
 76
     0
 77
     0
 78
     8
170
     0
171
     2
172
     0
173
     0
174
     0
175
     0
176
   256
177
   256
178
     2
  0
DIMSTYLE
  2
LORO
 70
     0
  3

  4

  5

  6

  7

 40
1.0
 41
3.5
 42
1.0
 43
0.38
 44
1.0
 45
0.0
 46
0.0
 47
0.0
 48
0.000000001
140
3.5
141
0.09
142
0.0
143
25.3999999999999986
144
2.0
145
0.0
146
0.5
147
1.5
 71
     0
 72
     0
 73
     0
 74
     0
 75
     0
 76
     0
 77
     1
 78
     8
170
     0
171
     2
172
     1
173
     0
174
     0
175
     0
176
     0
177
     0
178
     1
  0
ENDTAB
  0
ENDSEC
  0
SECTION
  2
BLOCKS
  0
BLOCK
  8
0
  2
$MODEL_SPACE
 70
     0
 10
0.0
 20
0.0
 30
0.0
  3
$MODEL_SPACE
  1

  0
ENDBLK
  5
38
  8
0
  0
BLOCK
 67
     1
  8
0
  2
$PAPER_SPACE
 70
     2
 10
0.0
 20
0.0
 30
0.0
  3
$PAPER_SPACE
  1

  0
ENDBLK
  5
36
 67
     1
  8
0
  0
BLOCK
  8
0
  2
GENAXEH
 70
     0
 10
0.0
 20
0.0
 30
0.0
  3
GENAXEH
  1

  0
LINE
  5
1721
  8
0
 10
-1.0
 20
0.0
 30
0.0
 11
1.0
 21
0.0
 31
0.0
  0
ENDBLK
  5
1723
  8
0
  0
BLOCK
  8
0
  2
*S1
 70
     1
 10
0.0
 20
0.0
 30
0.0
  3
*S1
  1

  0
ENDBLK
  5
2101
  8
0
  0
BLOCK
  8
0
  2
*U2
 70
     1
 10
0.0
 20
0.0
 30
0.0
  3
*U2
  1

  0
ENDBLK
  5
3EBB
  8
0
  0
BLOCK
  8
0
  2
A$C45BE0E09
 70
     0
 10
0.0
 20
0.0
 30
0.0
  3
A$C45BE0E09
  1

  0
CIRCLE
  5
243B8
  8
0
  6
CONTINUOUS
 62
     3
 10
-70.0000000000006253
 20
200.0
 30
-0.0000000000000444
 40
57.9995501064835324
  0
CIRCLE
  5
243B9
  8
0
  6
CONTINUOUS
 62
     3
 10
69.9999999999994031
 20
200.0
 30
-0.0000000000000444
 40
57.9995501064835324
  0
CIRCLE
  5
243BA
  8
0
  6
CONTINUOUS
 62
     3
 10
250.0
 20
380.0000000000002274
 30
0.0
 40
3.0
210
0.0
220
-0.0000000000000002
230
-1.0
  0
CIRCLE
  5
243BB
  8
0
  6
CONTINUOUS
 62
     3
 10
-250.0000000000001137
 20
20.0
 30
0.0
 40
3.0
210
0.0
220
-0.0000000000000002
230
-1.0
  0
CIRCLE
  5
243BC
  8
0
  6
CONTINUOUS
 62
     3
 10
-250.0000000000001137
 20
380.0000000000002274
 30
0.0
 40
3.0
210
0.0
220
-0.0000000000000002
230
-1.0
  0
CIRCLE
  5
243BD
  8
0
  6
CONTINUOUS
 62
     3
 10
250.0
 20
20.0
 30
0.0
 40
3.0
210
0.0
220
-0.0000000000000002
230
-1.0
  0
ARC
  5
243BE
  8
0
  6
CONTINUOUS
 62
     3
 10
-250.0000000000001137
 20
380.0000000000001137
 30
0.0
 40
20.0000000000000107
210
0.0
220
-0.0000000000000002
230
-1.0
 50
89.9999999999999432
 51
180.0
  0
LINE
  5
243BF
  8
0
  6
CONTINUOUS
 62
     3
 10
270.0000000000001137
 20
20.0
 30
-0.0000000000000044
 11
270.0000000000001137
 21
380.0000000000001137
 31
-0.0000000000000844
210
0.0
220
1.0
230
-0.0000000000000002
  0
ARC
  5
243C0
  8
0
  6
CONTINUOUS
 62
     3
 10
-250.0000000000001137
 20
20.0
 30
0.0
 40
20.0
210
0.0
220
-0.0000000000000002
230
-1.0
 50
180.0
 51
270.0
  0
ARC
  5
243C1
  8
0
  6
CONTINUOUS
 62
     3
 10
250.0
 20
380.0000000000001137
 30
0.0
 40
20.0
210
0.0
220
-0.0000000000000002
230
-1.0
 50
0.0
 51
90.0
  0
LINE
  5
243C2
  8
0
  6
CONTINUOUS
 62
     3
 10
-269.9999999999998863
 20
380.0000000000001137
 30
-0.0000000000000844
 11
-269.9999999999998863
 21
20.0
 31
-0.0000000000000044
210
0.0
220
1.0
230
-0.0000000000000002
  0
ARC
  5
243C3
  8
0
  6
CONTINUOUS
 62
     3
 10
250.0
 20
20.0
 30
0.0
 40
20.0
210
0.0
220
-0.0000000000000002
230
-1.0
 50
270.0
 51
0.0
  0
LINE
  5
243C4
  8
0
  6
CONTINUOUS
 62
     3
 10
-250.0
 20
0.0
 30
0.0
 11
250.0
 21
0.0
 31
0.0
210
0.0
220
1.0
230
-0.0000000000000002
  0
LINE
  5
243C5
  8
0
  6
CONTINUOUS
 62
     3
 10
250.0000000000001137
 20
400.0
 30
-0.0000000000000888
 11
-249.9999999999998863
 21
400.0
 31
-0.0000000000000888
210
0.0
220
1.0
230
-0.0000000000000002
  0
CIRCLE
  5
243C6
  8
0
  6
CONTINUOUS
 62
     3
 10
69.9999999999996589
 20
200.0
 30
0.0
 40
49.6000000000003567
210
0.0
220
-0.0000000000000002
230
-1.0
  0
CIRCLE
  5
243C7
  8
0
  6
CONTINUOUS
 62
     3
 10
70.0000000000002274
 20
200.0
 30
0.0
 40
48.7296797270312396
210
0.0
220
-0.0000000000000002
230
-1.0
  0
CIRCLE
  5
243C8
  8
0
  6
CONTINUOUS
 62
     3
 10
69.9999999999996589
 20
200.0
 30
0.0
 40
57.9000000000003183
210
0.0
220
-0.0000000000000002
230
-1.0
  0
CIRCLE
  5
243C9
  8
0
  6
CONTINUOUS
 62
     3
 10
69.9999999999996589
 20
200.0
 30
0.0
 40
54.287569344444357
210
0.0
220
-0.0000000000000002
230
-1.0
  0
CIRCLE
  5
243CA
  8
0
  6
CONTINUOUS
 62
     3
 10
69.9999999999996589
 20
200.0
 30
0.0
 40
53.2000000000002728
210
0.0
220
-0.0000000000000002
230
-1.0
  0
CIRCLE
  5
243CB
  8
0
  6
CONTINUOUS
 62
     3
 10
69.9999999999996589
 20
200.0
 30
0.0
 40
52.7000000000000384
210
0.0
220
-0.0000000000000002
230
-1.0
  0
CIRCLE
  5
243CC
  8
0
  6
CONTINUOUS
 62
     3
 10
-70.0000000000003411
 20
200.0
 30
0.0
 40
49.6000000000003567
210
0.0
220
-0.0000000000000002
230
-1.0
  0
CIRCLE
  5
243CD
  8
0
  6
CONTINUOUS
 62
     3
 10
-69.9999999999997726
 20
200.0
 30
0.0
 40
48.7296797270312396
210
0.0
220
-0.0000000000000002
230
-1.0
  0
CIRCLE
  5
243CE
  8
0
  6
CONTINUOUS
 62
     3
 10
-70.0000000000003411
 20
200.0
 30
0.0
 40
57.9000000000003183
210
0.0
220
-0.0000000000000002
230
-1.0
  0
CIRCLE
  5
243CF
  8
0
  6
CONTINUOUS
 62
     3
 10
-70.0000000000003411
 20
200.0
 30
0.0
 40
54.287569344444357
210
0.0
220
-0.0000000000000002
230
-1.0
  0
CIRCLE
  5
243D0
  8
0
  6
CONTINUOUS
 62
     3
 10
-70.0000000000003411
 20
200.0
 30
0.0
 40
53.2000000000002728
210
0.0
220
-0.0000000000000002
230
-1.0
  0
CIRCLE
  5
243D1
  8
0
  6
CONTINUOUS
 62
     3
 10
-70.0000000000003411
 20
200.0
 30
0.0
 40
52.7000000000000384
210
0.0
220
-0.0000000000000002
230
-1.0
  0
CIRCLE
  5
243D2
  8
0
  6
VERDECKT
 62
     1
 10
-70.0000000000006253
 20
200.0
 30
-0.0000000000000444
 40
58.9957448045752173
  0
CIRCLE
  5
243D3
  8
0
  6
VERDECKT
 62
     1
 10
69.9999999999994031
 20
200.0
 30
-0.0000000000000444
 40
58.9957448045752173
  0
CIRCLE
  5
243D4
  8
0
  6
VERDECKT
 62
     1
 10
69.9999999999996589
 20
200.0
 30
0.0
 40
50.7999999999999474
210
0.0
220
-0.0000000000000002
230
-1.0
  0
CIRCLE
  5
243D5
  8
0
  6
VERDECKT
 62
     1
 10
70.0000000000002274
 20
200.0
 30
0.0
 40
49.925113364741037
210
0.0
220
-0.0000000000000002
230
-1.0
  0
CIRCLE
  5
243D6
  8
0
  6
VERDECKT
 62
     1
 10
69.9999999999996589
 20
200.0
 30
0.0
 40
53.9000000000000909
210
0.0
220
-0.0000000000000002
230
-1.0
  0
CIRCLE
  5
243D7
  8
0
  6
VERDECKT
 62
     1
 10
69.9999999999996589
 20
200.0
 30
0.0
 40
56.7000000000000526
210
0.0
220
-0.0000000000000002
230
-1.0
  0
CIRCLE
  5
243D8
  8
0
  6
VERDECKT
 62
     1
 10
-70.0000000000003411
 20
200.0
 30
0.0
 40
50.7999999999999474
210
0.0
220
-0.0000000000000002
230
-1.0
  0
CIRCLE
  5
243D9
  8
0
  6
VERDECKT
 62
     1
 10
-69.9999999999997726
 20
200.0
 30
0.0
 40
49.925113364741037
210
0.0
220
-0.0000000000000002
230
-1.0
  0
CIRCLE
  5
243DA
  8
0
  6
VERDECKT
 62
     1
 10
-70.0000000000003411
 20
200.0
 30
0.0
 40
53.9000000000000909
210
0.0
220
-0.0000000000000002
230
-1.0
  0
CIRCLE
  5
243DB
  8
0
  6
VERDECKT
 62
     1
 10
-70.0000000000003411
 20
200.0
 30
0.0
 40
56.7000000000000526
210
0.0
220
-0.0000000000000002
230
-1.0
  0
ENDBLK
  5
243DD
  8
0
  0
BLOCK
  8
0
  2
A$C12F08EC0
 70
     0
 10
0.0
 20
0.0
 30
0.0
  3
A$C12F08EC0
  1

  0
LINE
  5
243E1
  8
0
  6
CONTINUOUS
 62
     3
 10
-128.9957448045757928
 20
13.0000000000000693
 30
-0.0000000000000284
 11
-11.00425519542536
 21
13.0000000000000409
 31
0.0
  0
LINE
  5
243E2
  8
0
  6
CONTINUOUS
 62
     3
 10
11.0042551954242196
 20
13.0000000000000107
 30
0.0
 11
128.9957448045747128
 21
12.9999999999999893
 31
0.0000000000000284
  0
LINE
  5
243E3
  8
0
  6
CONTINUOUS
 62
     3
 10
270.0000000000002274
 20
-0.0000000000001174
 30
0.0000000000000568
 11
250.000000000000199
 21
-0.0000000000001137
 31
0.0000000000000568
  0
LINE
  5
243E4
  8
0
  6
CONTINUOUS
 62
     3
 10
270.0000000000002274
 20
-0.0000000000001137
 30
0.0000000000000568
 11
270.0000000000002274
 21
0.9999999999998863
 31
0.0000000000000568
  0
LINE
  5
243E5
  8
0
  6
CONTINUOUS
 62
     3
 10
250.000000000000199
 20
0.9999999999997726
 30
0.0000000000000568
 11
270.0000000000002274
 21
0.9999999999997689
 31
0.0000000000000568
  0
LINE
  5
243E6
  8
0
  6
CONTINUOUS
 62
     3
 10
-269.9999999999998863
 20
0.99999999999989
 30
-0.0000000000000568
 11
-249.9999999999998863
 21
0.9999999999998863
 31
-0.0000000000000568
  0
LINE
  5
243E7
  8
0
  6
CONTINUOUS
 62
     3
 10
-249.9999999999998863
 20
1.0
 30
-0.0000000000000568
 11
250.0000000000001137
 21
0.9999999999999081
 31
0.0000000000000542
  0
LINE
  5
243E8
  8
0
  6
CONTINUOUS
 62
     3
 10
-249.9999999999998863
 20
0.0
 30
-0.0000000000000568
 11
-269.9999999999998863
 21
0.0000000000000037
 31
-0.0000000000000568
  0
LINE
  5
243E9
  8
0
  6
CONTINUOUS
 62
     3
 10
-269.9999999999998863
 20
1.0
 30
-0.0000000000000568
 11
-269.9999999999998863
 21
0.0
 31
-0.0000000000000568
  0
LINE
  5
243EA
  8
0
  6
CONTINUOUS
 62
     3
 10
250.000000000000199
 20
-0.0000000000001137
 30
0.0000000000000568
 11
-249.999999999999801
 21
-0.0000000000000218
 31
-0.0000000000000542
  0
LINE
  5
243EB
  8
0
  6
CONTINUOUS
 62
     3
 10
-11.0042551954253796
 20
13.0000000000000409
 30
0.0
 11
-9.9943229951514763
 21
1.45642212862621
 31
0.0000000000000002
  0
LINE
  5
243EC
  8
0
  6
CONTINUOUS
 62
     3
 10
-128.9957448045757076
 20
13.0000000000000497
 30
-0.0000000000000284
 11
-130.0056770048497015
 21
1.45642212862622
 31
-0.0000000000000286
  0
ARC
  5
243ED
  8
0
  6
CONTINUOUS
 62
     3
 10
-130.5037743538954942
 20
1.499999999999978
 30
-0.0000000000000284
 40
0.4999999999999135
 50
269.9999999999968168
 51
355.0000000000080718
  0
ARC
  5
243EE
  8
0
  6
CONTINUOUS
 62
     3
 10
-9.4962256461055965
 20
1.4999999999999909
 30
0.0
 40
0.4999999999999454
 50
184.9999999999944862
 51
270.0
  0
LINE
  5
243EF
  8
0
  6
CONTINUOUS
 62
     3
 10
128.9957448045745991
 20
12.9999999999999893
 30
0.0000000000000284
 11
130.0056770048485077
 21
1.4564221286261529
 31
0.0000000000000286
  0
LINE
  5
243F0
  8
0
  6
CONTINUOUS
 62
     3
 10
11.0042551954242498
 20
13.0000000000000497
 30
0.0
 11
9.9943229951503447
 21
1.45642212862622
 31
-0.0000000000000002
  0
ARC
  5
243F1
  8
0
  6
CONTINUOUS
 62
     3
 10
9.4962256461044632
 20
1.4999999999999529
 30
0.0
 40
0.4999999999999432
 50
270.0
 51
355.0000000000111982
  0
ARC
  5
243F2
  8
0
  6
CONTINUOUS
 62
     3
 10
130.5037743538944142
 20
1.4999999999999221
 30
0.0000000000000284
 40
0.4999999999999339
 50
184.9999999999930083
 51
270.0
  0
LINE
  5
243F3
  8
0
  6
CONTINUOUS
 62
     3
 10
-20.0748866352590909
 20
398.0000000000014211
 30
0.0
 11
-119.9251133647411933
 21
398.0000000000014211
 31
-0.0000000000000284
  0
LINE
  5
243F4
  8
0
  6
CONTINUOUS
 62
     3
 10
-15.7124306555552504
 20
-1.9999999999989759
 30
0.0
 11
-124.2875693444439946
 21
-1.9999999999989759
 31
-0.0000000000000284
  0
ARC
  5
243F5
  8
0
  6
CONTINUOUS
 62
     3
 10
-20.2000000000017685
 20
387.9563390570943966
 30
0.0
 40
1.000000000001549
 50
0.0000000000032823
 51
4.9999999999920552
  0
ARC
  5
243F6
  8
0
  6
CONTINUOUS
 62
     3
 10
-119.7999999999967002
 20
387.9563390570943966
 30
-0.0000000000000284
 40
1.0000000000034099
 50
175.0000000000173088
 51
179.9999999999967031
  0
LINE
  5
243F7
  8
0
  6
CONTINUOUS
 62
     3
 10
-120.8000000000000966
 20
72.3875453695811046
 30
-0.0000000000000284
 11
-120.8000000000000966
 21
387.9563390570943966
 31
-0.0000000000000284
  0
LINE
  5
243F8
  8
0
  6
CONTINUOUS
 62
     3
 10
-19.2000000000002089
 20
72.3875453695811046
 30
0.0
 11
-19.2000000000002089
 21
387.9563390570945103
 31
0.0
  0
LINE
  5
243F9
  8
0
  6
CONTINUOUS
 62
     3
 10
-20.0748866352587889
 20
398.0000000000014211
 30
0.0
 11
-19.2038053019084707
 21
388.043494799842108
 31
0.0000000000000002
  0
LINE
  5
243FA
  8
0
  6
CONTINUOUS
 62
     3
 10
-119.9251133647416054
 20
398.0000000000014211
 30
-0.0000000000000284
 11
-120.7961946980918952
 21
388.043494799842108
 31
-0.0000000000000286
  0
LINE
  5
243FB
  8
0
  6
CONTINUOUS
 62
     3
 10
-123.8999999999993946
 20
42.5002005306826121
 30
-0.0000000000000284
 11
-123.8999999999993946
 21
61.0725111230534594
 31
-0.0000000000000284
  0
LINE
  5
243FC
  8
0
  6
CONTINUOUS
 62
     3
 10
-16.0999999999997492
 20
42.5002005306826121
 30
0.0
 11
-16.0999999999997492
 21
61.0725111230534594
 31
0.0
  0
ARC
  5
243FD
  8
0
  6
CONTINUOUS
 62
     3
 10
-3.2999999999981742
 20
42.5002005306823776
 30
0.0
 40
12.8000000000013507
 50
179.9999999999990052
 51
206.8880476177193088
  0
ARC
  5
243FE
  8
0
  6
CONTINUOUS
 62
     3
 10
-136.7000000000010118
 20
42.5002005306823918
 30
-0.0000000000000284
 40
12.8000000000013703
 50
333.1119523822807764
 51
0.0000000000009669
  0
ARC
  5
243FF
  8
0
  6
CONTINUOUS
 62
     3
 10
-36.3000000000010417
 20
25.76700000000071
 30
0.0
 40
24.2000000000012889
 50
0.000000000001145
 51
26.8880476177238705
  0
ARC
  5
24400
  8
0
  6
CONTINUOUS
 62
     3
 10
-103.6999999999981981
 20
25.7670000000007313
 30
-0.0000000000000284
 40
24.2000000000012108
 50
153.1119523822760868
 51
179.9999999999988916
  0
LINE
  5
24401
  8
0
  6
CONTINUOUS
 62
     3
 10
-127.899999999999693
 20
13.0000000000000693
 30
-0.0000000000000284
 11
-127.899999999999693
 21
25.7670000000011896
 31
-0.0000000000000284
  0
LINE
  5
24402
  8
0
  6
CONTINUOUS
 62
     3
 10
-12.09999999999952
 20
13.0000000000000409
 30
0.0
 11
-12.09999999999952
 21
25.7670000000011896
 31
0.0
  0
LINE
  5
24403
  8
0
  6
CONTINUOUS
 62
     3
 10
-124.2875693444437957
 20
-1.99999999999892
 30
-0.0000000000000284
 11
-125.2201846607533042
 21
-0.000000000000026
 31
-0.0000000000000286
  0
LINE
  5
24404
  8
0
  6
CONTINUOUS
 62
     3
 10
-15.7124306555553694
 20
-1.99999999999892
 30
0.0
 11
-14.7798153392459106
 21
-0.0000000000000497
 31
0.0000000000000002
  0
ARC
  5
24405
  8
0
  6
CONTINUOUS
 62
     3
 10
-11.2000000000019195
 20
72.3875453695809057
 30
0.0
 40
7.9999999999977449
 50
179.9999999999984084
 51
210.6429317629539923
  0
ARC
  5
24406
  8
0
  6
CONTINUOUS
 62
     3
 10
-128.7999999999971124
 20
72.3875453695808488
 30
-0.0000000000000284
 40
7.9999999999975842
 50
329.3570682370457803
 51
0.0000000000019338
  0
ARC
  5
24407
  8
0
  6
CONTINUOUS
 62
     3
 10
-30.2999999999984517
 20
61.0725111230585611
 30
0.0
 40
14.1999999999986901
 50
359.9999999999794227
 51
30.6429317629312514
  0
ARC
  5
24408
  8
0
  6
CONTINUOUS
 62
     3
 10
-109.7000000000007987
 20
61.0725111230585611
 30
-0.0000000000000284
 40
14.1999999999986901
 50
149.3570682370688019
 51
180.0000000000206057
  0
LINE
  5
24409
  8
0
  6
CONTINUOUS
 62
     3
 10
119.9251133647408949
 20
398.0000000000014211
 30
0.0000000000000284
 11
20.0748866352587783
 21
398.0000000000014211
 31
0.0
  0
LINE
  5
2440A
  8
0
  6
CONTINUOUS
 62
     3
 10
124.2875693444447052
 20
-1.9999999999989759
 30
0.0000000000000284
 11
15.7124306555560196
 21
-1.9999999999989759
 31
0.0
  0
ARC
  5
2440B
  8
0
  6
CONTINUOUS
 62
     3
 10
119.7999999999963023
 20
387.9563390570943966
 30
0.0000000000000284
 40
1.0000000000034071
 50
0.0000000000032314
 51
4.9999999999826921
  0
ARC
  5
2440C
  8
0
  6
CONTINUOUS
 62
     3
 10
20.2000000000013884
 20
387.9563390570943966
 30
0.0
 40
1.0000000000015481
 50
175.0000000000079012
 51
179.9999999999967031
  0
LINE
  5
2440D
  8
0
  6
CONTINUOUS
 62
     3
 10
19.1999999999998501
 20
72.3875453695811046
 30
0.0
 11
19.1999999999998501
 21
387.9563390570943966
 31
0.0
  0
LINE
  5
2440E
  8
0
  6
CONTINUOUS
 62
     3
 10
120.7999999999997982
 20
72.3875453695811046
 30
0.0000000000000284
 11
120.7999999999997982
 21
387.9563390570945103
 31
0.0000000000000284
  0
LINE
  5
2440F
  8
0
  6
CONTINUOUS
 62
     3
 10
119.9251133647411933
 20
398.0000000000014211
 30
0.0000000000000284
 11
120.7961946980914973
 21
388.043494799842108
 31
0.0000000000000286
  0
LINE
  5
24410
  8
0
  6
CONTINUOUS
 62
     3
 10
20.0748866352584301
 20
398.0000000000014211
 30
0.0
 11
19.2038053019081012
 21
388.043494799842108
 31
-0.0000000000000002
  0
LINE
  5
24411
  8
0
  6
CONTINUOUS
 62
     3
 10
16.1000000000005201
 20
42.5002005306826121
 30
0.0
 11
16.1000000000005201
 21
61.0725111230534594
 31
0.0
  0
LINE
  5
24412
  8
0
  6
CONTINUOUS
 62
     3
 10
123.9000000000002046
 20
42.5002005306826121
 30
0.0000000000000284
 11
123.9000000000002046
 21
61.0725111230534594
 31
0.0000000000000284
  0
ARC
  5
24413
  8
0
  6
CONTINUOUS
 62
     3
 10
136.7000000000016087
 20
42.5002005306823492
 30
0.0000000000000284
 40
12.8000000000011696
 50
179.9999999999988063
 51
206.8880476177195078
  0
ARC
  5
24414
  8
0
  6
CONTINUOUS
 62
     3
 10
3.2999999999989842
 20
42.5002005306823705
 30
0.0
 40
12.8000000000013099
 50
333.1119523822807196
 51
0.0000000000010178
  0
ARC
  5
24415
  8
0
  6
CONTINUOUS
 62
     3
 10
103.6999999999988944
 20
25.76700000000071
 30
0.0000000000000284
 40
24.2000000000013316
 50
0.0000000000011196
 51
26.8880476177238101
  0
ARC
  5
24416
  8
0
  6
CONTINUOUS
 62
     3
 10
36.3000000000017593
 20
25.7670000000007207
 30
0.0
 40
24.2000000000012392
 50
153.1119523822760868
 51
179.9999999999988916
  0
LINE
  5
24417
  8
0
  6
CONTINUOUS
 62
     3
 10
12.1000000000002892
 20
13.0000000000000107
 30
0.0
 11
12.1000000000002892
 21
25.7670000000011896
 31
0.0
  0
LINE
  5
24418
  8
0
  6
CONTINUOUS
 62
     3
 10
127.9000000000005031
 20
12.9999999999999893
 30
0.0000000000000284
 11
127.9000000000005031
 21
25.7670000000011896
 31
0.0000000000000284
  0
LINE
  5
24419
  8
0
  6
CONTINUOUS
 62
     3
 10
15.7124306555561404
 20
-1.99999999999892
 30
0.0
 11
14.7798153392466904
 21
-0.0000000000000657
 31
-0.0000000000000002
  0
LINE
  5
2441A
  8
0
  6
CONTINUOUS
 62
     3
 10
124.2875693444446057
 20
-1.99999999999892
 30
0.0000000000000284
 11
125.2201846607540006
 21
-0.0000000000000984
 31
0.0000000000000286
  0
ARC
  5
2441B
  8
0
  6
CONTINUOUS
 62
     3
 10
128.7999999999979082
 20
72.3875453695808488
 30
0.0000000000000284
 40
7.9999999999975842
 50
179.9999999999980105
 51
210.6429317629541913
  0
ARC
  5
2441C
  8
0
  6
CONTINUOUS
 62
     3
 10
11.2000000000026905
 20
72.3875453695809057
 30
0.0
 40
7.999999999997736
 50
329.3570682370460077
 51
0.0000000000015267
  0
ARC
  5
2441D
  8
0
  6
CONTINUOUS
 62
     3
 10
109.700000000001495
 20
61.0725111230585611
 30
0.0000000000000284
 40
14.1999999999986901
 50
359.9999999999794227
 51
30.6429317629312514
  0
ARC
  5
2441E
  8
0
  6
CONTINUOUS
 62
     3
 10
30.2999999999991694
 20
61.0725111230585895
 30
0.0
 40
14.1999999999986404
 50
149.3570682370686882
 51
180.000000000020691
  0
LINE
  5
2441F
  8
0
  6
VERDECKT
 62
     1
 10
-127.9995501064840937
 20
12.9128442572524094
 30
-0.0000000000000284
 11
-12.0004498935170592
 21
12.9128442572523898
 31
0.0
  0
LINE
  5
24420
  8
0
  6
VERDECKT
 62
     1
 10
12.0004498935159205
 20
12.9128442572523507
 30
0.0
 11
127.9995501064829995
 21
12.9128442572523294
 31
0.0000000000000284
  0
ARC
  5
24421
  8
0
  6
VERDECKT
 62
     1
 10
-130.5037743538954942
 20
1.5000000000001039
 30
-0.0000000000000284
 40
1.4999999999999849
 50
270.0
 51
355.0000000000005116
  0
ARC
  5
24422
  8
0
  6
VERDECKT
 62
     1
 10
-9.4962256461055983
 20
1.5000000000001039
 30
0.0
 40
1.499999999999988
 50
184.999999999999801
 51
270.0
  0
LINE
  5
24423
  8
0
  6
VERDECKT
 62
     1
 10
-12.0004498935170592
 20
12.9128442572523898
 30
0.0
 11
-10.9905176932432003
 21
1.3692663858786209
 31
0.0000000000000002
  0
LINE
  5
24424
  8
0
  6
VERDECKT
 62
     1
 10
-127.9995501064840937
 20
12.9128442572524005
 30
-0.0000000000000284
 11
-129.0094823067578886
 21
1.3692663858786309
 31
-0.0000000000000286
  0
LINE
  5
24425
  8
0
  6
VERDECKT
 62
     1
 10
-127.9995501064840937
 20
12.9128442572524094
 30
-0.0000000000000284
 11
-128.9957448045757928
 21
13.0000000000000693
 31
-0.0000000000000286
  0
LINE
  5
24426
  8
0
  6
VERDECKT
 62
     1
 10
-12.0004498935170503
 20
12.9128442572523898
 30
0.0
 11
-11.0042551954253494
 21
13.0000000000000409
 31
0.0000000000000002
  0
ARC
  5
24427
  8
0
  6
VERDECKT
 62
     1
 10
9.4962256461044632
 20
1.5000000000000679
 30
0.0
 40
1.499999999999988
 50
270.0000000000001137
 51
355.0000000000018758
  0
ARC
  5
24428
  8
0
  6
VERDECKT
 62
     1
 10
130.5037743538944142
 20
1.50000000000003
 30
0.0000000000000284
 40
1.4999999999999709
 50
184.9999999999982094
 51
270.0
  0
LINE
  5
24429
  8
0
  6
VERDECKT
 62
     1
 10
127.9995501064829995
 20
12.9128442572523294
 30
0.0000000000000284
 11
129.0094823067568086
 21
1.3692663858785641
 31
0.0000000000000286
  0
LINE
  5
2442A
  8
0
  6
VERDECKT
 62
     1
 10
12.0004498935159294
 20
12.9128442572524005
 30
0.0
 11
10.9905176932420705
 21
1.3692663858786309
 31
-0.0000000000000002
  0
LINE
  5
2442B
  8
0
  6
VERDECKT
 62
     1
 10
12.0004498935159205
 20
12.9128442572523507
 30
0.0
 11
11.0042551954242196
 21
13.0000000000000107
 31
-0.0000000000000002
  0
LINE
  5
2442C
  8
0
  6
VERDECKT
 62
     1
 10
127.9995501064829995
 20
12.9128442572523294
 30
0.0000000000000284
 11
128.9957448045745991
 21
12.9999999999999893
 31
0.0000000000000286
  0
LINE
  5
2442D
  8
0
  6
VERDECKT
 62
     1
 10
-246.999999999999801
 20
0.9999999999998863
 30
-0.0000000000000568
 11
-246.999999999999801
 21
0.0
 31
-0.0000000000000568
  0
LINE
  5
2442E
  8
0
  6
VERDECKT
 62
     1
 10
-252.999999999999801
 20
0.9999999999998872
 30
-0.0000000000000568
 11
-252.999999999999801
 21
0.0000000000000009
 31
-0.0000000000000568
  0
LINE
  5
2442F
  8
0
  6
VERDECKT
 62
     1
 10
247.000000000000199
 20
-0.0000000000001137
 30
0.0000000000000568
 11
247.000000000000199
 21
0.9999999999997726
 31
0.0000000000000568
  0
LINE
  5
24430
  8
0
  6
VERDECKT
 62
     1
 10
253.000000000000199
 20
-0.0000000000001146
 30
0.0000000000000568
 11
253.000000000000199
 21
0.9999999999997717
 31
0.0000000000000568
  0
LINE
  5
24431
  8
0
  6
VERDECKT
 62
     1
 10
-21.2703202729688989
 20
397.8954131087041901
 30
0.0
 11
-118.7296797270313959
 21
397.8954131087041901
 31
-0.0000000000000284
  0
LINE
  5
24432
  8
0
  6
VERDECKT
 62
     1
 10
-16.7999999999993399
 20
-1.492858085910143
 30
0.0
 11
-123.1999999999999034
 21
-1.492858085910143
 31
-0.0000000000000284
  0
ARC
  5
24433
  8
0
  6
VERDECKT
 62
     1
 10
-21.3999999999982116
 20
387.9040451755852814
 30
0.0
 40
0.9999999999981831
 50
359.9999999999968168
 51
5.000049850945202
  0
ARC
  5
24434
  8
0
  6
VERDECKT
 62
     1
 10
-118.5999999999965979
 20
387.9040451755851109
 30
-0.0000000000000284
 40
1.000000000003765
 50
174.9999501490663931
 51
179.9999999999870113
  0
LINE
  5
24435
  8
0
  6
VERDECKT
 62
     1
 10
-119.600000000000307
 20
72.3875453695774809
 30
-0.0000000000000284
 11
-119.600000000000307
 21
387.9040451755852246
 31
-0.0000000000000284
  0
LINE
  5
24436
  8
0
  6
VERDECKT
 62
     1
 10
-20.4000000000000306
 20
72.3875453695774809
 30
0.0
 11
-20.4000000000000306
 21
387.9040451755852814
 31
0.0
  0
LINE
  5
24437
  8
0
  6
VERDECKT
 62
     1
 10
-21.2703202729690517
 20
397.8954131087041901
 30
0.0
 11
-20.4038053777396513
 21
387.9912017850850816
 31
0.0000000000000002
  0
LINE
  5
24438
  8
0
  6
VERDECKT
 62
     1
 10
-118.7296797270312965
 20
397.8954131087041901
 30
-0.0000000000000284
 11
-119.5961946222606969
 21
387.9912017850850816
 31
-0.0000000000000286
  0
LINE
  5
24439
  8
0
  6
VERDECKT
 62
     1
 10
-20.0748866352590305
 20
398.0000000000014211
 30
0.0
 11
-21.2703202729687284
 21
397.8954131087041901
 31
-0.0000000000000003
  0
LINE
  5
2443A
  8
0
  6
VERDECKT
 62
     1
 10
-118.7296797270316944
 20
397.8954131087043038
 30
-0.0000000000000284
 11
-119.925113364741307
 21
398.0000000000014211
 31
-0.0000000000000287
  0
LINE
  5
2443B
  8
0
  6
VERDECKT
 62
     1
 10
-127.899999999999693
 20
11.1118933766609906
 30
-0.0000000000000284
 11
-127.899999999999693
 21
13.0000000000000693
 31
-0.0000000000000284
  0
LINE
  5
2443C
  8
0
  6
VERDECKT
 62
     1
 10
-12.09999999999952
 20
11.1118933766609906
 30
0.0
 11
-12.09999999999952
 21
13.0000000000000409
 31
0.0
  0
ARC
  5
2443D
  8
0
  6
VERDECKT
 62
     1
 10
-36.3000000000001819
 20
11.1118933766610795
 30
0.0
 40
24.2000000000008804
 50
335.0000000000003979
 51
359.9999999999997726
  0
ARC
  5
2443E
  8
0
  6
VERDECKT
 62
     1
 10
-103.6999999999988944
 20
11.1118933766611008
 30
-0.0000000000000284
 40
24.2000000000010083
 50
180.000000000000199
 51
204.9999999999994031
  0
LINE
  5
2443F
  8
0
  6
VERDECKT
 62
     1
 10
-125.2201846607533042
 20
-0.000000000000026
 30
-0.0000000000000284
 11
-125.6326484462866944
 21
0.8845314425359962
 31
-0.0000000000000285
  0
LINE
  5
24440
  8
0
  6
VERDECKT
 62
     1
 10
-14.7798153392459106
 20
-0.0000000000000497
 30
0.0
 11
-14.3673515537124707
 21
0.8845314425359962
 31
0.0000000000000001
  0
LINE
  5
24441
  8
0
  6
VERDECKT
 62
     1
 10
-16.7999999999993399
 20
-1.492858085910143
 30
0.0
 11
-15.7124306555552504
 21
-1.9999999999989759
 31
0.0000000000000002
  0
LINE
  5
24442
  8
0
  6
VERDECKT
 62
     1
 10
-123.1999999999999034
 20
-1.492858085910143
 30
-0.0000000000000284
 11
-124.2875693444439946
 21
-1.9999999999989759
 31
-0.0000000000000287
  0
LINE
  5
24443
  8
0
  6
VERDECKT
 62
     1
 10
-123.1999999999997044
 20
-1.4928580859100911
 30
-0.0000000000000284
 11
-124.5450791018426031
 21
1.391673356624834
 31
-0.0000000000000287
  0
LINE
  5
24444
  8
0
  6
VERDECKT
 62
     1
 10
-16.79999999999945
 20
-1.4928580859100911
 30
0.0
 11
-15.4549208981565709
 21
1.391673356624834
 31
0.0000000000000003
  0
ARC
  5
24445
  8
0
  6
VERDECKT
 62
     1
 10
-36.2999999999985974
 20
11.1118933766604098
 30
0.0
 40
22.9999999999990408
 50
335.0000000000001137
 51
0.0000000000014249
  0
ARC
  5
24446
  8
0
  6
VERDECKT
 62
     1
 10
-103.7000000000007987
 20
11.1118933766603494
 30
-0.0000000000000284
 40
22.9999999999988809
 50
179.9999999999984084
 51
204.999999999999801
  0
LINE
  5
24447
  8
0
  6
VERDECKT
 62
     1
 10
-126.6999999999996049
 20
11.1118933766609906
 30
-0.0000000000000284
 11
-126.6999999999996049
 21
25.7670000000011896
 31
-0.0000000000000284
  0
LINE
  5
24448
  8
0
  6
VERDECKT
 62
     1
 10
-13.2999999999995708
 20
11.1118933766609906
 30
0.0
 11
-13.2999999999995708
 21
25.7670000000011896
 31
0.0
  0
ARC
  5
24449
  8
0
  6
VERDECKT
 62
     1
 10
-36.2999999999961034
 20
25.7670000000024508
 30
0.0
 40
22.9999999999963087
 50
359.9999999999968168
 51
26.8880476177245811
  0
ARC
  5
2444A
  8
0
  6
VERDECKT
 62
     1
 10
-103.7000000000028024
 20
25.7670000000023904
 30
-0.0000000000000284
 40
22.9999999999965716
 50
153.1119523822756037
 51
180.000000000002899
  0
ARC
  5
2444B
  8
0
  6
VERDECKT
 62
     1
 10
-3.300000000001174
 20
42.5002005306822497
 30
0.0
 40
13.9999999999984102
 50
179.9999999999986073
 51
206.8880476177263006
  0
ARC
  5
2444C
  8
0
  6
VERDECKT
 62
     1
 10
-136.6999999999981981
 20
42.5002005306822923
 30
-0.0000000000000284
 40
13.9999999999985594
 50
333.1119523822738984
 51
0.0000000000013231
  0
LINE
  5
2444D
  8
0
  6
VERDECKT
 62
     1
 10
-122.6999999999996049
 20
42.5002005306826121
 30
-0.0000000000000284
 11
-122.6999999999996049
 21
61.0725111230534594
 31
-0.0000000000000284
  0
LINE
  5
2444E
  8
0
  6
VERDECKT
 62
     1
 10
-17.2999999999995708
 20
42.5002005306826121
 30
0.0
 11
-17.2999999999995708
 21
61.0725111230534594
 31
0.0
  0
ARC
  5
2444F
  8
0
  6
VERDECKT
 62
     1
 10
-30.2999999999995495
 20
61.0725111230547171
 30
0.0
 40
12.9999999999999805
 50
359.9999999999943725
 51
30.6429317629328715
  0
ARC
  5
24450
  8
0
  6
VERDECKT
 62
     1
 10
-109.6999999999995055
 20
61.0725111230546887
 30
-0.0000000000000284
 40
13.0000000000001101
 50
149.3570682370672955
 51
180.0000000000054001
  0
ARC
  5
24451
  8
0
  6
VERDECKT
 62
     1
 10
-11.2000000000003492
 20
72.3875453695773103
 30
0.0
 40
9.1999999999988926
 50
179.9999999999988916
 51
210.6429317629417142
  0
ARC
  5
24452
  8
0
  6
VERDECKT
 62
     1
 10
-128.799999999998704
 20
72.3875453695772535
 30
-0.0000000000000284
 40
9.1999999999987239
 50
329.3570682370581721
 51
0.0000000000014249
  0
LINE
  5
24453
  8
0
  6
VERDECKT
 62
     1
 10
118.7296797270310975
 20
397.8954131087041901
 30
0.0000000000000284
 11
21.2703202729685898
 21
397.8954131087041901
 31
0.0
  0
LINE
  5
24454
  8
0
  6
VERDECKT
 62
     1
 10
123.2000000000005997
 20
-1.492858085910143
 30
0.0000000000000284
 11
16.8000000000001108
 21
-1.492858085910143
 31
0.0
  0
ARC
  5
24455
  8
0
  6
VERDECKT
 62
     1
 10
118.5999999999962
 20
387.9040451755851109
 30
0.0000000000000284
 40
1.000000000003767
 50
0.0000000000130276
 51
5.0000498509335731
  0
ARC
  5
24456
  8
0
  6
VERDECKT
 62
     1
 10
21.3999999999978385
 20
387.9040451755852814
 30
0.0
 40
0.999999999998181
 50
174.9999501490515001
 51
180.0
  0
LINE
  5
24457
  8
0
  6
VERDECKT
 62
     1
 10
20.3999999999996611
 20
72.3875453695774809
 30
0.0
 11
20.3999999999996611
 21
387.9040451755852246
 31
0.0
  0
LINE
  5
24458
  8
0
  6
VERDECKT
 62
     1
 10
119.5999999999998948
 20
72.3875453695774809
 30
0.0000000000000284
 11
119.5999999999998948
 21
387.9040451755852814
 31
0.0000000000000284
  0
LINE
  5
24459
  8
0
  6
VERDECKT
 62
     1
 10
118.7296797270308986
 20
397.8954131087041901
 30
0.0000000000000284
 11
119.596194622260299
 21
387.9912017850850816
 31
0.0000000000000286
  0
LINE
  5
2445A
  8
0
  6
VERDECKT
 62
     1
 10
21.2703202729686893
 20
397.8954131087041901
 30
0.0
 11
20.4038053777392783
 21
387.9912017850850816
 31
-0.0000000000000002
  0
LINE
  5
2445B
  8
0
  6
VERDECKT
 62
     1
 10
119.9251133647408949
 20
398.0000000000014211
 30
0.0000000000000284
 11
118.7296797270312965
 21
397.8954131087041901
 31
0.0000000000000282
  0
LINE
  5
2445C
  8
0
  6
VERDECKT
 62
     1
 10
21.2703202729683305
 20
397.8954131087043038
 30
0.0
 11
20.0748866352586397
 21
398.0000000000014211
 31
-0.0000000000000003
  0
LINE
  5
2445D
  8
0
  6
VERDECKT
 62
     1
 10
12.1000000000002892
 20
11.1118933766609906
 30
0.0
 11
12.1000000000002892
 21
13.0000000000000107
 31
0.0
  0
LINE
  5
2445E
  8
0
  6
VERDECKT
 62
     1
 10
127.9000000000005031
 20
11.1118933766609906
 30
0.0000000000000284
 11
127.9000000000005031
 21
12.9999999999999893
 31
0.0000000000000284
  0
ARC
  5
2445F
  8
0
  6
VERDECKT
 62
     1
 10
103.6999999999997044
 20
11.1118933766611008
 30
0.0000000000000284
 40
24.2000000000009905
 50
335.0000000000005116
 51
359.9999999999997158
  0
ARC
  5
24460
  8
0
  6
VERDECKT
 62
     1
 10
36.3000000000010772
 20
11.1118933766611097
 30
0.0
 40
24.2000000000010189
 50
180.0000000000003126
 51
204.9999999999994884
  0
LINE
  5
24461
  8
0
  6
VERDECKT
 62
     1
 10
14.7798153392466904
 20
-0.0000000000000657
 30
0.0
 11
14.3673515537132506
 21
0.8845314425359962
 31
-0.0000000000000001
  0
LINE
  5
24462
  8
0
  6
VERDECKT
 62
     1
 10
125.2201846607540006
 20
-0.0000000000000984
 30
0.0000000000000284
 11
125.6326484462875044
 21
0.8845314425359962
 31
0.0000000000000285
  0
LINE
  5
24463
  8
0
  6
VERDECKT
 62
     1
 10
123.2000000000005997
 20
-1.492858085910143
 30
0.0000000000000284
 11
124.2875693444447052
 21
-1.9999999999989759
 31
0.0000000000000287
  0
LINE
  5
24464
  8
0
  6
VERDECKT
 62
     1
 10
16.8000000000001108
 20
-1.492858085910143
 30
0.0
 11
15.7124306555560196
 21
-1.9999999999989759
 31
-0.0000000000000002
  0
LINE
  5
24465
  8
0
  6
VERDECKT
 62
     1
 10
16.800000000000221
 20
-1.4928580859100911
 30
0.0
 11
15.4549208981573507
 21
1.391673356624834
 31
-0.0000000000000003
  0
LINE
  5
24466
  8
0
  6
VERDECKT
 62
     1
 10
123.2000000000005002
 20
-1.4928580859100911
 30
0.0000000000000284
 11
124.5450791018433989
 21
1.391673356624834
 31
0.0000000000000287
  0
ARC
  5
24467
  8
0
  6
VERDECKT
 62
     1
 10
103.700000000001495
 20
11.1118933766603405
 30
0.0000000000000284
 40
22.9999999999988916
 50
335.0000000000002274
 51
0.0000000000016284
  0
ARC
  5
24468
  8
0
  6
VERDECKT
 62
     1
 10
36.2999999999993719
 20
11.1118933766604098
 30
0.0
 40
22.9999999999990301
 50
179.9999999999986073
 51
204.999999999999801
  0
LINE
  5
24469
  8
0
  6
VERDECKT
 62
     1
 10
13.30000000000034
 20
11.1118933766609906
 30
0.0
 11
13.30000000000034
 21
25.7670000000011896
 31
0.0
  0
LINE
  5
2446A
  8
0
  6
VERDECKT
 62
     1
 10
126.7000000000004007
 20
11.1118933766609906
 30
0.0000000000000284
 11
126.7000000000004007
 21
25.7670000000011896
 31
0.0000000000000284
  0
ARC
  5
2446B
  8
0
  6
VERDECKT
 62
     1
 10
103.7000000000040956
 20
25.7670000000025112
 30
0.0000000000000284
 40
22.9999999999960707
 50
359.9999999999968168
 51
26.8880476177247303
  0
ARC
  5
2446C
  8
0
  6
VERDECKT
 62
     1
 10
36.2999999999969702
 20
25.7670000000024402
 30
0.0
 40
22.9999999999964011
 50
153.1119523822754047
 51
180.000000000003098
  0
ARC
  5
2446D
  8
0
  6
VERDECKT
 62
     1
 10
136.6999999999987949
 20
42.5002005306822426
 30
0.0000000000000284
 40
13.9999999999983302
 50
179.9999999999984936
 51
206.8880476177263859
  0
ARC
  5
2446E
  8
0
  6
VERDECKT
 62
     1
 10
3.3000000000020768
 20
42.500200530682207
 30
0.0
 40
13.9999999999982805
 50
333.1119523822736141
 51
0.0000000000016284
  0
LINE
  5
2446F
  8
0
  6
VERDECKT
 62
     1
 10
17.3000000000003418
 20
42.5002005306826121
 30
0.0
 11
17.3000000000003418
 21
61.0725111230534594
 31
0.0
  0
LINE
  5
24470
  8
0
  6
VERDECKT
 62
     1
 10
122.7000000000004007
 20
42.5002005306826121
 30
0.0000000000000284
 11
122.7000000000004007
 21
61.0725111230534594
 31
0.0000000000000284
  0
ARC
  5
24471
  8
0
  6
VERDECKT
 62
     1
 10
109.7000000000003013
 20
61.0725111230546887
 30
0.0000000000000284
 40
13.0000000000001101
 50
359.9999999999944862
 51
30.642931762932669
  0
ARC
  5
24472
  8
0
  6
VERDECKT
 62
     1
 10
30.3000000000004093
 20
61.0725111230546887
 30
0.0
 40
13.0000000000000693
 50
149.3570682370672102
 51
180.0000000000054001
  0
ARC
  5
24473
  8
0
  6
VERDECKT
 62
     1
 10
128.7999999999994998
 20
72.3875453695772535
 30
0.0000000000000284
 40
9.1999999999987505
 50
179.9999999999984936
 51
210.6429317629417142
  0
ARC
  5
24474
  8
0
  6
VERDECKT
 62
     1
 10
11.2000000000011095
 20
72.3875453695773103
 30
0.0
 40
9.1999999999989033
 50
329.3570682370585132
 51
0.0000000000010687
  0
ENDBLK
  5
24476
  8
0
  0
BLOCK
  8
0
  2
A$C4E95DFA0
 70
     0
 10
0.0
 20
0.0
 30
0.0
  3
A$C4E95DFA0
  1

  0
LINE
  5
2447A
  8
0
  6
CONTINUOUS
 62
     3
 10
13.0000000000000604
 20
258.9957448045752813
 30
-0.0000000000000575
 11
13.0000000000000302
 21
141.004255195424804
 31
-0.0000000000000313
210
0.0000000000000002
220
1.0
230
-0.0000000000000002
  0
LINE
  5
2447B
  8
0
  6
CONTINUOUS
 62
     3
 10
-0.000000000000033
 20
380.0000000000001137
 30
-0.0000000000000844
 11
-0.0000000000000249
 21
400.0
 31
-0.0000000000000888
210
0.0000000000000002
220
1.0
230
-0.0000000000000002
  0
LINE
  5
2447C
  8
0
  6
CONTINUOUS
 62
     3
 10
0.9999999999998614
 20
400.0
 30
-0.0000000000000888
 11
0.9999999999998532
 21
380.0000000000001137
 31
-0.0000000000000844
210
0.0000000000000002
220
1.0
230
-0.0000000000000002
  0
LINE
  5
2447D
  8
0
  6
CONTINUOUS
 62
     3
 10
0.9999999999999751
 20
400.0
 30
-0.0000000000000888
 11
-0.0000000000000249
 21
400.0
 31
-0.0000000000000888
210
0.0000000000000002
220
1.0
230
-0.0000000000000002
  0
LINE
  5
2447E
  8
0
  6
CONTINUOUS
 62
     3
 10
0.9999999999999706
 20
380.0000000000001137
 30
-0.0000000000000844
 11
0.9999999999998908
 21
20.0
 31
-0.0000000000000044
210
0.0000000000000002
220
1.0
230
-0.0000000000000002
  0
LINE
  5
2447F
  8
0
  6
CONTINUOUS
 62
     3
 10
0.9999999999997733
 20
20.0
 30
-0.0000000000000044
 11
0.9999999999997726
 21
-0.0000000000000002
 31
0.0
210
0.0000000000000002
220
1.0
230
-0.0000000000000002
  0
LINE
  5
24480
  8
0
  6
CONTINUOUS
 62
     3
 10
-0.0000000000001092
 20
20.0
 30
-0.0000000000000044
 11
-0.0000000000000293
 21
380.0000000000001137
 31
-0.0000000000000844
210
0.0000000000000002
220
1.0
230
-0.0000000000000002
  0
LINE
  5
24481
  8
0
  6
CONTINUOUS
 62
     3
 10
-0.0000000000001137
 20
0.0
 30
0.0
 11
-0.0000000000001129
 21
20.0
 31
-0.0000000000000044
210
0.0000000000000002
220
1.0
230
-0.0000000000000002
  0
LINE
  5
24482
  8
0
  6
CONTINUOUS
 62
     3
 10
-0.0000000000001137
 20
0.0
 30
0.0
 11
0.9999999999998863
 21
-0.0000000000000002
 31
0.0
210
0.0000000000000002
220
1.0
230
-0.0000000000000002
  0
LINE
  5
24483
  8
0
  6
CONTINUOUS
 62
     3
 10
13.0000000000000302
 20
141.004255195424804
 30
-0.0000000000000313
 11
1.456422128626194
 21
139.9943229951508954
 31
-0.0000000000000311
210
0.0000000000000002
220
1.0
230
-0.0000000000000002
  0
LINE
  5
24484
  8
0
  6
CONTINUOUS
 62
     3
 10
13.0000000000000497
 20
258.9957448045752813
 30
-0.0000000000000575
 11
1.4564221286262209
 21
260.0056770048491899
 31
-0.0000000000000577
210
0.0000000000000002
220
1.0
230
-0.0000000000000002
  0
ARC
  5
24485
  8
0
  6
CONTINUOUS
 62
     3
 10
-1.4999999999999269
 20
260.5037743538949826
 30
0.0
 40
0.4999999999998527
210
0.0
220
-0.0000000000000002
230
-1.0
 50
274.9999999999868123
 51
0.0000000000065281
  0
ARC
  5
24486
  8
0
  6
CONTINUOUS
 62
     3
 10
-1.4999999999999469
 20
139.4962256461051027
 30
0.0
 40
0.4999999999999166
210
0.0
220
-0.0000000000000002
230
-1.0
 50
359.9999999999968168
 51
85.0000000000086544
  0
LINE
  5
24487
  8
0
  6
CONTINUOUS
 62
     3
 10
398.0000000000014211
 20
150.0748866352587925
 30
-0.0000000000000333
 11
398.0000000000014211
 21
199.9999990577344136
 31
-0.0000000000000444
210
0.0000000000000002
220
1.0
230
-0.0000000000000002
  0
LINE
  5
24488
  8
0
  6
CONTINUOUS
 62
     3
 10
398.0000000000014211
 20
199.9999990577344136
 30
-0.0000000000000444
 11
398.0000000000014211
 21
249.9251133647410086
 31
-0.0000000000000555
210
0.0000000000000002
220
1.0
230
-0.0000000000000002
  0
LINE
  5
24489
  8
0
  6
CONTINUOUS
 62
     3
 10
-1.9999999999989639
 20
145.7124306555556075
 30
-0.0000000000000324
 11
-1.999999999998932
 21
200.0
 31
-0.0000000000000444
210
0.0000000000000002
220
1.0
230
-0.0000000000000002
  0
LINE
  5
2448A
  8
0
  6
CONTINUOUS
 62
     3
 10
-1.999999999998932
 20
200.0
 30
-0.0000000000000444
 11
-1.9999999999989
 21
254.2875693444443925
 31
-0.0000000000000565
210
0.0000000000000002
220
1.0
230
-0.0000000000000002
  0
ARC
  5
2448B
  8
0
  6
CONTINUOUS
 62
     3
 10
-387.9563390570945103
 20
150.200000000003314
 30
0.0
 40
1.0000000000034071
210
0.0
220
-0.0000000000000002
230
-1.0
 50
265.0000000000172804
 51
269.9999999999968168
  0
ARC
  5
2448C
  8
0
  6
CONTINUOUS
 62
     3
 10
-387.9563390570945103
 20
249.7999999999964871
 30
0.0
 40
1.0000000000034099
210
0.0
220
-0.0000000000000002
230
-1.0
 50
90.0000000000032827
 51
94.9999999999827338
  0
LINE
  5
2448D
  8
0
  6
CONTINUOUS
 62
     3
 10
72.3875453695811757
 20
250.8000000000000114
 30
-0.0000000000000557
 11
387.9563390570945103
 21
250.7999999999998977
 31
-0.0000000000000557
210
0.0000000000000002
220
1.0
230
-0.0000000000000002
  0
LINE
  5
2448E
  8
0
  6
CONTINUOUS
 62
     3
 10
72.3875453695811473
 20
149.1999999999999886
 30
-0.0000000000000331
 11
387.9563390570945103
 21
149.1999999999999034
 31
-0.0000000000000331
210
0.0000000000000002
220
1.0
230
-0.0000000000000002
  0
LINE
  5
2448F
  8
0
  6
CONTINUOUS
 62
     3
 10
398.0000000000014779
 20
150.0748866352585082
 30
-0.0000000000000333
 11
388.043494799842108
 21
149.2038053019080905
 31
-0.0000000000000331
210
0.0000000000000002
220
1.0
230
-0.0000000000000002
  0
LINE
  5
24490
  8
0
  6
CONTINUOUS
 62
     3
 10
398.0000000000014779
 20
249.9251133647414065
 30
-0.0000000000000555
 11
388.043494799842108
 21
250.7961946980917105
 31
-0.0000000000000557
210
0.0000000000000002
220
1.0
230
-0.0000000000000002
  0
LINE
  5
24491
  8
0
  6
CONTINUOUS
 62
     3
 10
42.5002005306826689
 20
253.899999999999892
 30
-0.0000000000000564
 11
61.0725111230535234
 21
253.899999999999892
 31
-0.0000000000000564
210
0.0000000000000002
220
1.0
230
-0.0000000000000002
  0
LINE
  5
24492
  8
0
  6
CONTINUOUS
 62
     3
 10
42.5002005306826334
 20
146.100000000000108
 30
-0.0000000000000324
 11
61.0725111230534807
 21
146.100000000000108
 31
-0.0000000000000324
210
0.0000000000000002
220
1.0
230
-0.0000000000000002
  0
ARC
  5
24493
  8
0
  6
CONTINUOUS
 62
     3
 10
-42.5002005306823705
 20
133.299999999998704
 30
0.0
 40
12.8000000000012104
210
0.0
220
-0.0000000000000002
230
-1.0
 50
63.1119523822805277
 51
90.0000000000011511
  0
ARC
  5
24494
  8
0
  6
CONTINUOUS
 62
     3
 10
-42.5002005306824628
 20
266.7000000000015802
 30
0.0
 40
12.8000000000014893
210
0.0
220
-0.0000000000000002
230
-1.0
 50
270.0
 51
296.8880476177199057
  0
ARC
  5
24495
  8
0
  6
CONTINUOUS
 62
     3
 10
-25.7670000000008592
 20
166.3000000000008924
 30
0.0
 40
24.2000000000007987
210
0.0
220
-0.0000000000000002
230
-1.0
 50
243.1119523822758879
 51
269.9999999999992042
  0
ARC
  5
24496
  8
0
  6
CONTINUOUS
 62
     3
 10
-25.7670000000010688
 20
233.6999999999995907
 30
0.0
 40
24.2000000000002515
210
0.0
220
-0.0000000000000002
230
-1.0
 50
90.0000000000004405
 51
116.8880476177241974
  0
LINE
  5
24497
  8
0
  6
CONTINUOUS
 62
     3
 10
13.0000000000000497
 20
257.9000000000000909
 30
-0.0000000000000573
 11
25.76700000000125
 21
257.9000000000000909
 31
-0.0000000000000573
210
0.0000000000000002
220
1.0
230
-0.0000000000000002
  0
LINE
  5
24498
  8
0
  6
CONTINUOUS
 62
     3
 10
13.0000000000000302
 20
142.0999999999999091
 30
-0.0000000000000316
 11
25.7670000000012109
 21
142.0999999999999091
 31
-0.0000000000000316
210
0.0000000000000002
220
1.0
230
-0.0000000000000002
  0
LINE
  5
24499
  8
0
  6
CONTINUOUS
 62
     3
 10
-1.9999999999988569
 20
254.2875693444443073
 30
-0.0000000000000565
 11
-0.0000000000000643
 21
255.2201846607536879
 31
-0.0000000000000567
210
0.0000000000000002
220
1.0
230
-0.0000000000000002
  0
LINE
  5
2449A
  8
0
  6
CONTINUOUS
 62
     3
 10
-1.9999999999988951
 20
145.7124306555558064
 30
-0.0000000000000324
 11
-0.0000000000000926
 21
144.7798153392463121
 31
-0.0000000000000321
210
0.0000000000000002
220
1.0
230
-0.0000000000000002
  0
ARC
  5
2449B
  8
0
  6
CONTINUOUS
 62
     3
 10
-72.3875453695809767
 20
141.2000000000020918
 30
0.0
 40
7.9999999999979297
210
0.0
220
-0.0000000000000002
230
-1.0
 50
59.3570682370464411
 51
90.0000000000012363
  0
ARC
  5
2449C
  8
0
  6
CONTINUOUS
 62
     3
 10
-72.3875453695810194
 20
258.7999999999980218
 30
0.0
 40
7.9999999999979554
210
0.0
220
-0.0000000000000002
230
-1.0
 50
270.0
 51
300.6429317629546176
  0
ARC
  5
2449D
  8
0
  6
CONTINUOUS
 62
     3
 10
-61.0725111230585966
 20
160.2999999999987892
 30
0.0
 40
14.1999999999986795
210
0.0
220
-0.0000000000000002
230
-1.0
 50
239.3570682370686882
 51
270.0000000000205773
  0
ARC
  5
2449E
  8
0
  6
CONTINUOUS
 62
     3
 10
-61.0725111230586108
 20
239.7000000000012108
 30
0.0
 40
14.1999999999987097
210
0.0
220
-0.0000000000000002
230
-1.0
 50
89.9999999999794369
 51
120.6429317629311981
  0
LINE
  5
2449F
  8
0
  6
VERDECKT
 62
     1
 10
12.9128442572524005
 20
257.9995501064835821
 30
-0.0000000000000573
 11
12.9128442572523792
 21
142.0004498935165032
 31
-0.0000000000000315
210
0.0000000000000002
220
1.0
230
-0.0000000000000002
  0
ARC
  5
244A0
  8
0
  6
VERDECKT
 62
     1
 10
-1.500000000000153
 20
260.5037743538950963
 30
0.0
 40
1.5000000000000471
210
0.0
220
-0.0000000000000002
230
-1.0
 50
275.00000000000108
 51
359.9999999999977831
  0
ARC
  5
244A1
  8
0
  6
VERDECKT
 62
     1
 10
-1.5000000000000719
 20
139.496225646104989
 30
0.0
 40
1.4999999999999709
210
0.0
220
-0.0000000000000002
230
-1.0
 50
0.0000000000000127
 51
85.000000000000739
  0
LINE
  5
244A2
  8
0
  6
VERDECKT
 62
     1
 10
12.9128442572523792
 20
142.0004498935165032
 30
-0.0000000000000315
 11
1.3692663858786061
 21
140.9905176932425945
 31
-0.0000000000000313
210
0.0000000000000002
220
1.0
230
-0.0000000000000002
  0
LINE
  5
244A3
  8
0
  6
VERDECKT
 62
     1
 10
12.9128442572524005
 20
257.9995501064835821
 30
-0.0000000000000573
 11
1.369266385878632
 21
259.009482306757377
 31
-0.0000000000000575
210
0.0000000000000002
220
1.0
230
-0.0000000000000002
  0
LINE
  5
244A4
  8
0
  6
VERDECKT
 62
     1
 10
12.9128442572524005
 20
257.9995501064835821
 30
-0.0000000000000573
 11
13.0000000000000604
 21
258.9957448045752813
 31
-0.0000000000000575
210
0.0000000000000002
220
1.0
230
-0.0000000000000002
  0
LINE
  5
244A5
  8
0
  6
VERDECKT
 62
     1
 10
12.9128442572523792
 20
142.0004498935165032
 30
-0.0000000000000315
 11
13.0000000000000302
 21
141.004255195424804
 31
-0.0000000000000313
210
0.0000000000000002
220
1.0
230
-0.0000000000000002
  0
LINE
  5
244A6
  8
0
  6
VERDECKT
 62
     1
 10
0.9999999999997763
 20
17.0
 30
-0.0000000000000038
 11
-0.0000000000001099
 21
17.0
 31
-0.0000000000000038
210
0.0000000000000002
220
1.0
230
-0.0000000000000002
  0
LINE
  5
244A7
  8
0
  6
VERDECKT
 62
     1
 10
0.9999999999997777
 20
23.0
 30
-0.0000000000000051
 11
-0.0000000000001086
 21
23.0
 31
-0.0000000000000051
210
0.0000000000000002
220
1.0
230
-0.0000000000000002
  0
LINE
  5
244A8
  8
0
  6
VERDECKT
 62
     1
 10
-0.0000000000000286
 20
383.0000000000002274
 30
-0.000000000000085
 11
0.9999999999998577
 21
383.0000000000002274
 31
-0.000000000000085
210
0.0000000000000002
220
1.0
230
-0.0000000000000002
  0
LINE
  5
244A9
  8
0
  6
VERDECKT
 62
     1
 10
-0.00000000000003
 20
377.0000000000002274
 30
-0.0000000000000837
 11
0.9999999999998562
 21
377.0000000000002274
 31
-0.0000000000000837
210
0.0000000000000002
220
1.0
230
-0.0000000000000002
  0
LINE
  5
244AA
  8
0
  6
VERDECKT
 62
     1
 10
397.8954131087041901
 20
151.2703202729686893
 30
-0.0000000000000336
 11
397.8954131087041901
 21
199.9999990577344136
 31
-0.0000000000000444
210
0.0000000000000002
220
1.0
230
-0.0000000000000002
  0
LINE
  5
244AB
  8
0
  6
VERDECKT
 62
     1
 10
397.8954131087041901
 20
199.9999990577344136
 30
-0.0000000000000444
 11
397.8954131087041901
 21
248.729679727031197
 31
-0.0000000000000552
210
0.0000000000000002
220
1.0
230
-0.0000000000000002
  0
LINE
  5
244AC
  8
0
  6
VERDECKT
 62
     1
 10
-1.492858085910129
 20
146.7999999999996987
 30
-0.0000000000000326
 11
-1.4928580859100979
 21
200.0
 31
-0.0000000000000444
210
0.0000000000000002
220
1.0
230
-0.0000000000000002
  0
LINE
  5
244AD
  8
0
  6
VERDECKT
 62
     1
 10
-1.4928580859100979
 20
200.0
 30
-0.0000000000000444
 11
-1.4928580859100671
 21
253.2000000000003013
 31
-0.0000000000000562
210
0.0000000000000002
220
1.0
230
-0.0000000000000002
  0
ARC
  5
244AE
  8
0
  6
VERDECKT
 62
     1
 10
-387.9040451755856225
 20
151.3999999999959982
 30
0.0
 40
0.9999999999963053
210
0.0
220
-0.0000000000000002
230
-1.0
 50
264.9999501490585203
 51
270.0000000000163141
  0
ARC
  5
244AF
  8
0
  6
VERDECKT
 62
     1
 10
-387.9040451755856225
 20
248.6000000000038028
 30
0.0
 40
0.9999999999963053
210
0.0
220
-0.0000000000000002
230
-1.0
 50
89.9999999999837144
 51
95.000049850941565
  0
LINE
  5
244B0
  8
0
  6
VERDECKT
 62
     1
 10
72.3875453695812325
 20
249.6000000000001933
 30
-0.0000000000000554
 11
387.9040451755852814
 21
249.600000000000108
 31
-0.0000000000000554
210
0.0000000000000002
220
1.0
230
-0.0000000000000002
  0
LINE
  5
244B1
  8
0
  6
VERDECKT
 62
     1
 10
72.3875453695775093
 20
150.3999999999998067
 30
-0.0000000000000334
 11
387.9040451755852814
 21
150.399999999999693
 31
-0.0000000000000334
210
0.0000000000000002
220
1.0
230
-0.0000000000000002
  0
LINE
  5
244B2
  8
0
  6
VERDECKT
 62
     1
 10
397.8954131087043038
 20
151.270320272968803
 30
-0.0000000000000336
 11
387.9912017850851953
 21
150.4038053777393031
 31
-0.0000000000000334
210
0.0000000000000002
220
1.0
230
-0.0000000000000002
  0
LINE
  5
244B3
  8
0
  6
VERDECKT
 62
     1
 10
397.8954131087043038
 20
248.7296797270311117
 30
-0.0000000000000552
 11
387.9912017850851953
 21
249.5961946222604979
 31
-0.0000000000000554
210
0.0000000000000002
220
1.0
230
-0.0000000000000002
  0
LINE
  5
244B4
  8
0
  6
VERDECKT
 62
     1
 10
398.0000000000014211
 20
150.0748866352587072
 30
-0.0000000000000333
 11
397.8954131087043038
 21
151.2703202729684051
 31
-0.0000000000000336
210
0.0000000000000002
220
1.0
230
-0.0000000000000002
  0
LINE
  5
244B5
  8
0
  6
VERDECKT
 62
     1
 10
397.8954131087043038
 20
248.7296797270313959
 30
-0.0000000000000552
 11
398.0000000000014211
 21
249.9251133647410938
 31
-0.0000000000000555
210
0.0000000000000002
220
1.0
230
-0.0000000000000002
  0
LINE
  5
244B6
  8
0
  6
VERDECKT
 62
     1
 10
11.1118933766610493
 20
257.9000000000000909
 30
-0.0000000000000573
 11
13.0000000000000497
 21
257.9000000000000909
 31
-0.0000000000000573
210
0.0000000000000002
220
1.0
230
-0.0000000000000002
  0
LINE
  5
244B7
  8
0
  6
VERDECKT
 62
     1
 10
11.1118933766610102
 20
142.0999999999999091
 30
-0.0000000000000316
 11
13.0000000000000302
 21
142.0999999999999091
 31
-0.0000000000000316
210
0.0000000000000002
220
1.0
230
-0.0000000000000002
  0
ARC
  5
244B8
  8
0
  6
VERDECKT
 62
     1
 10
-11.1118933766610706
 20
166.3000000000002103
 30
0.0
 40
24.200000000000589
210
0.0
220
-0.0000000000000002
230
-1.0
 50
270.0
 51
294.9999999999997158
  0
ARC
  5
244B9
  8
0
  6
VERDECKT
 62
     1
 10
-11.1118933766610901
 20
233.6999999999999886
 30
0.0
 40
24.2000000000004292
210
0.0
220
-0.0000000000000002
230
-1.0
 50
65.0000000000000853
 51
89.9999999999998863
  0
LINE
  5
244BA
  8
0
  6
VERDECKT
 62
     1
 10
-0.0000000000000643
 20
255.2201846607536879
 30
-0.0000000000000567
 11
0.8845314425360594
 21
255.6326484462871917
 31
-0.0000000000000568
210
0.0000000000000002
220
1.0
230
-0.0000000000000002
  0
LINE
  5
244BB
  8
0
  6
VERDECKT
 62
     1
 10
-0.0000000000000926
 20
144.7798153392463121
 30
-0.0000000000000321
 11
0.8845314425360215
 21
144.3673515537128935
 31
-0.0000000000000321
210
0.0000000000000002
220
1.0
230
-0.0000000000000002
  0
LINE
  5
244BC
  8
0
  6
VERDECKT
 62
     1
 10
-1.492858085910117
 20
146.7999999999996987
 30
-0.0000000000000326
 11
-1.9999999999989511
 21
145.7124306555556075
 31
-0.0000000000000324
210
0.0000000000000002
220
1.0
230
-0.0000000000000002
  0
LINE
  5
244BD
  8
0
  6
VERDECKT
 62
     1
 10
-1.49285808591008
 20
253.2000000000003013
 30
-0.0000000000000562
 11
-1.9999999999989131
 21
254.2875693444443925
 31
-0.0000000000000565
210
0.0000000000000002
220
1.0
230
-0.0000000000000002
  0
LINE
  5
244BE
  8
0
  6
VERDECKT
 62
     1
 10
-1.4928580859100291
 20
253.2000000000001876
 30
-0.0000000000000562
 11
1.391673356624898
 21
254.5450791018431005
 31
-0.0000000000000565
210
0.0000000000000002
220
1.0
230
-0.0000000000000002
  0
LINE
  5
244BF
  8
0
  6
VERDECKT
 62
     1
 10
-1.4928580859100651
 20
146.7999999999998124
 30
-0.0000000000000326
 11
1.39167335662486
 21
145.4549208981570132
 31
-0.0000000000000323
210
0.0000000000000002
220
1.0
230
-0.0000000000000002
  0
ARC
  5
244C0
  8
0
  6
VERDECKT
 62
     1
 10
-11.1118933766603796
 20
166.2999999999987892
 30
0.0
 40
22.99999999999892
210
0.0
220
-0.0000000000000002
230
-1.0
 50
270.0
 51
295.0000000000014211
  0
ARC
  5
244C1
  8
0
  6
VERDECKT
 62
     1
 10
-11.1118933766603405
 20
233.7000000000018076
 30
0.0
 40
22.9999999999982983
210
0.0
220
-0.0000000000000002
230
-1.0
 50
64.9999999999996732
 51
90.0000000000017479
  0
LINE
  5
244C2
  8
0
  6
VERDECKT
 62
     1
 10
11.1118933766610493
 20
256.7000000000001023
 30
-0.000000000000057
 11
25.76700000000125
 21
256.7000000000001023
 31
-0.000000000000057
210
0.0000000000000002
220
1.0
230
-0.0000000000000002
  0
LINE
  5
244C3
  8
0
  6
VERDECKT
 62
     1
 10
11.1118933766610102
 20
143.2999999999998977
 30
-0.0000000000000318
 11
25.7670000000012109
 21
143.2999999999998977
 31
-0.0000000000000318
210
0.0000000000000002
220
1.0
230
-0.0000000000000002
  0
ARC
  5
244C4
  8
0
  6
VERDECKT
 62
     1
 10
-25.7670000000024402
 20
166.2999999999966008
 30
0.0
 40
22.9999999999964011
210
0.0
220
-0.0000000000000002
230
-1.0
 50
243.1119523822754047
 51
270.0000000000031264
  0
ARC
  5
244C5
  8
0
  6
VERDECKT
 62
     1
 10
-25.767000000002529
 20
233.7000000000039961
 30
0.0
 40
22.9999999999959108
210
0.0
220
-0.0000000000000002
230
-1.0
 50
89.999999999996831
 51
116.8880476177249932
  0
ARC
  5
244C6
  8
0
  6
VERDECKT
 62
     1
 10
-42.5002005306823918
 20
133.3000000000010914
 30
0.0
 40
13.9999999999988596
210
0.0
220
-0.0000000000000002
230
-1.0
 50
63.1119523822740618
 51
90.0000000000008953
  0
ARC
  5
244C7
  8
0
  6
VERDECKT
 62
     1
 10
-42.5002005306824486
 20
266.6999999999989086
 30
0.0
 40
13.9999999999987796
210
0.0
220
-0.0000000000000002
230
-1.0
 50
270.0
 51
296.8880476177270111
  0
LINE
  5
244C8
  8
0
  6
VERDECKT
 62
     1
 10
42.5002005306826689
 20
252.7000000000001023
 30
-0.0000000000000561
 11
61.0725111230535234
 21
252.7000000000001023
 31
-0.0000000000000561
210
0.0000000000000002
220
1.0
230
-0.0000000000000002
  0
LINE
  5
244C9
  8
0
  6
VERDECKT
 62
     1
 10
42.5002005306826334
 20
147.2999999999998977
 30
-0.0000000000000327
 11
61.0725111230534807
 21
147.2999999999998977
 31
-0.0000000000000327
210
0.0000000000000002
220
1.0
230
-0.0000000000000002
  0
ARC
  5
244CA
  8
0
  6
VERDECKT
 62
     1
 10
-61.0725111230548166
 20
160.2999999999994998
 30
0.0
 40
12.9999999999995808
210
0.0
220
-0.0000000000000002
230
-1.0
 50
239.3570682370664997
 51
270.0000000000059117
  0
ARC
  5
244CB
  8
0
  6
VERDECKT
 62
     1
 10
-61.0725111230548094
 20
239.7000000000001876
 30
0.0
 40
12.9999999999999396
210
0.0
220
-0.0000000000000002
230
-1.0
 50
89.9999999999943157
 51
120.6429317629327045
  0
ARC
  5
244CC
  8
0
  6
VERDECKT
 62
     1
 10
-72.3875453695774809
 20
141.2000000000001023
 30
0.0
 40
9.1999999999995037
210
0.0
220
-0.0000000000000002
230
-1.0
 50
59.3570682370595932
 51
90.0000000000002132
  0
ARC
  5
244CD
  8
0
  6
VERDECKT
 62
     1
 10
-72.3875453695773814
 20
258.7999999999992724
 30
0.0
 40
9.1999999999989104
210
0.0
220
-0.0000000000000002
230
-1.0
 50
270.0
 51
300.6429317629654747
  0
ENDBLK
  5
244CF
  8
0
  0
ENDSEC
  0
SECTION
  2
ENTITIES
  0
TEXT
  5
5DDE
  8
VOLL
 10
78.076754716981128
 20
31.025947764705851
 30
0.0
 40
1.8
  1

  7
GREEKS
  0
INSERT
  5
5DDF
  8
ADSK_ASSOC_ENTITY_BACKUPS
  2
*S1
 10
0.0
 20
0.0
 30
0.0
  0
INSERT
  5
243DE
  8
STEMPEL
  2
A$C45BE0E09
 10
0.0
 20
0.0
 30
0.0
  0
INSERT
  5
24477
  8
STEMPEL
  2
A$C12F08EC0
 10
0.0
 20
-500.0
 30
0.0
  0
INSERT
  5
244D0
  8
STEMPEL
  2
A$C4E95DFA0
 10
-750.0
 20
0.0
 30
0.0
  0
VIEWPORT
  5
1571
 67
     1
  8
0
 10
296.7500014119777916
 20
209.7500005963595129
 30
0.0
 40
795.6883637233961508
 41
422.1649484536084174
 68
     1
 69
     1
1001
ACAD
1000
MVIEW
1002
{
1070
    16
1010
0.0
1020
0.0
1030
0.0
1010
0.0
1020
0.0
1030
1.0
1040
0.0
1040
422.1649484536084174
1040
296.7500014119777916
1040
209.7500005963595129
1040
50.0
1040
0.0
1040
0.0
1070
     0
1070
  1500
1070
     1
1070
     1
1070
     0
1070
     0
1070
     0
1070
     0
1040
0.0
1040
0.0
1040
0.0
1040
10.0
1040
10.0
1040
10.0
1040
10.0
1070
     0
1002
{
1002
}
1002
}
1001
GENIUS_GENOBJ-N-SDF_13
1002
{
1000
OWNER
1000
GEN
1002
}
1001
GENIUS_GENODEF_13
1002
{
1000
HIER
1070
     0
1002
}
1002
{
1000
MANEDIT
1070
     0
1002
}
1002
{
1000
NOSEL
1070
     0
1002
}
1002
{
1000
BEHIND
1070
     0
1002
}
1002
{
1000
OTHER
1070
     0
1002
}
1002
{
1000
REACTOR
1002
}
1001
GENIUS_GENSCREG_15
1000
PF
1040
1.0
1000
DF
1040
1.0
1000
MIN
1011
-98.3237311841076007
1021
0.0
1031
0.0
1021
-84.5929851452383446
1031
0.0
1000
MAX
1011
756.7695330154733711
1021
0.0
1031
0.0
1021
339.8977580961391141
1031
0.0
1000
FLAGS
1070
     4
  0
ENDSEC
  0
EOF
