  0
SECTION
  2
HEADER
  9
$ACADVER
  1
AC1009
  9
$INSBASE
 10
509.9391017861535147
 20
-118.0350180316795985
 30
403.1361558984037856
  9
$EXTMIN
 10
-752.0000013682761164
 20
-502.0000007942016964
 30
-0.0000000116415251
  9
$EXTMAX
 10
269.999998987625986
 20
399.9999993734672898
 30
-0.0000000116415251
  9
$LIMMIN
 10
0.0
 20
0.000000000000008
  9
$LIMMAX
 10
594.0
 20
840.0
  9
$ORTHOMODE
 70
     1
  9
$REGENMODE
 70
     1
  9
$FILLMODE
 70
     1
  9
$QTEXTMODE
 70
     0
  9
$MIRRTEXT
 70
     1
  9
$DRAGMODE
 70
     2
  9
$LTSCALE
 40
20.0
  9
$OSMODE
 70
   511
  9
$ATTMODE
 70
     1
  9
$TEXTSIZE
 40
2.0
  9
$TRACEWID
 40
1.0
  9
$TEXTSTYLE
  7
STANDARD
  9
$CLAYER
  8
STEMPEL
  9
$CELTYPE
  6
BYLAYER
  9
$CECOLOR
 62
   256
  9
$DIMSCALE
 40
1.0
  9
$DIMASZ
 40
3.5
  9
$DIMEXO
 40
1.0
  9
$DIMDLI
 40
0.38
  9
$DIMRND
 40
0.0
  9
$DIMDLE
 40
0.0
  9
$DIMEXE
 40
1.0
  9
$DIMTP
 40
0.0
  9
$DIMTM
 40
0.000000001
  9
$DIMTXT
 40
3.5
  9
$DIMCEN
 40
0.09
  9
$DIMTSZ
 40
0.0
  9
$DIMTOL
 70
     0
  9
$DIMLIM
 70
     0
  9
$DIMTIH
 70
     0
  9
$DIMTOH
 70
     0
  9
$DIMSE1
 70
     0
  9
$DIMSE2
 70
     0
  9
$DIMTAD
 70
     1
  9
$DIMZIN
 70
     8
  9
$DIMBLK
  1

  9
$DIMASO
 70
     1
  9
$DIMSHO
 70
     0
  9
$DIMPOST
  1

  9
$DIMAPOST
  1

  9
$DIMALT
 70
     0
  9
$DIMALTD
 70
     2
  9
$DIMALTF
 40
25.3999999999999986
  9
$DIMLFAC
 40
2.0
  9
$DIMTOFL
 70
     1
  9
$DIMTVP
 40
0.0
  9
$DIMTIX
 70
     0
  9
$DIMSOXD
 70
     0
  9
$DIMSAH
 70
     0
  9
$DIMBLK1
  1

  9
$DIMBLK2
  1

  9
$DIMSTYLE
  2
LORO
  9
$DIMCLRD
 70
     0
  9
$DIMCLRE
 70
     0
  9
$DIMCLRT
 70
     1
  9
$DIMTFAC
 40
0.5
  9
$DIMGAP
 40
1.5
  9
$LUNITS
 70
     2
  9
$LUPREC
 70
     2
  9
$SKETCHINC
 40
1.0
  9
$FILLETRAD
 40
6.5
  9
$AUNITS
 70
     0
  9
$AUPREC
 70
     0
  9
$MENU
  1
ACAD
  9
$ELEVATION
 40
0.0
  9
$PELEVATION
 40
0.0
  9
$THICKNESS
 40
0.0
  9
$LIMCHECK
 70
     0
  9
$BLIPMODE
 70
     0
  9
$CHAMFERA
 40
0.0
  9
$CHAMFERB
 40
0.0
  9
$SKPOLY
 70
     0
  9
$TDCREATE
 40
2455397.867048610933125
  9
$TDUPDATE
 40
2460560.5723726851865649
  9
$TDINDWG
 40
1.7020207986
  9
$TDUSRTIMER
 40
1.7020207986
  9
$USRTIMER
 70
     1
  9
$ANGBASE
 50
0.0
  9
$ANGDIR
 70
     0
  9
$PDMODE
 70
     0
  9
$PDSIZE
 40
0.0
  9
$PLINEWID
 40
0.0
  9
$COORDS
 70
     1
  9
$SPLFRAME
 70
     0
  9
$SPLINETYPE
 70
     6
  9
$SPLINESEGS
 70
     8
  9
$ATTDIA
 70
     1
  9
$ATTREQ
 70
     1
  9
$HANDLING
 70
     1
  9
$HANDSEED
  5
242DA
  9
$SURFTAB1
 70
     6
  9
$SURFTAB2
 70
     6
  9
$SURFTYPE
 70
     6
  9
$SURFU
 70
     6
  9
$SURFV
 70
     6
  9
$UCSNAME
  2

  9
$UCSORG
 10
0.0
 20
0.0
 30
0.0
  9
$UCSXDIR
 10
1.0
 20
0.0
 30
0.0
  9
$UCSYDIR
 10
0.0
 20
1.0
 30
0.0
  9
$PUCSNAME
  2

  9
$PUCSORG
 10
0.0
 20
0.0
 30
0.0
  9
$PUCSXDIR
 10
1.0
 20
0.0
 30
0.0
  9
$PUCSYDIR
 10
0.0
 20
1.0
 30
0.0
  9
$USERI1
 70
     0
  9
$USERI2
 70
     0
  9
$USERI3
 70
     0
  9
$USERI4
 70
     0
  9
$USERI5
 70
     0
  9
$USERR1
 40
0.0
  9
$USERR2
 40
0.0
  9
$USERR3
 40
0.0
  9
$USERR4
 40
0.0
  9
$USERR5
 40
0.0
  9
$WORLDVIEW
 70
     1
  9
$SHADEDGE
 70
     3
  9
$SHADEDIF
 70
    70
  9
$TILEMODE
 70
     1
  9
$MAXACTVP
 70
    16
  9
$PLIMCHECK
 70
     0
  9
$PEXTMIN
 10
1.0000000000000000E+20
 20
1.0000000000000000E+20
 30
1.0000000000000000E+20
  9
$PEXTMAX
 10
-1.0000000000000000E+20
 20
-1.0000000000000000E+20
 30
-1.0000000000000000E+20
  9
$PLIMMIN
 10
-0.2499985880222653
 20
-0.2499994036405724
  9
$PLIMMAX
 10
593.7500014119777916
 20
419.7500005963594845
  9
$UNITMODE
 70
     0
  9
$VISRETAIN
 70
     0
  9
$PLINEGEN
 70
     0
  9
$PSLTSCALE
 70
     0
  0
ENDSEC
  0
SECTION
  2
TABLES
  0
TABLE
  2
VPORT
 70
     1
  0
VPORT
  2
*ACTIVE
 70
     0
 10
0.0
 20
0.0
 11
1.0
 21
1.0
 12
-305.000001190325122
 22
-250.0000007103672033
 13
0.0
 23
0.0
 14
1.0
 24
1.0
 15
10.0
 25
10.0
 16
0.0000000000018332
 26
0.0
 36
8246.2832011792852427
 17
64.0
 27
199.0
 37
-0.0000000000000444
 40
906.6494847046158156
 41
1.8847807394668961
 42
207.9750642040671949
 43
0.0
 44
0.0
 50
0.0
 51
0.0
 71
     0
 72
  1500
 73
     1
 74
     0
 75
     0
 76
     0
 77
     0
 78
     0
  0
ENDTAB
  0
TABLE
  2
LTYPE
 70
    13
  0
LTYPE
  2
CONTINUOUS
 70
     0
  3
Solid line
 72
    65
 73
     0
 40
0.0
  0
LTYPE
  2
STRICHPUNKT
 70
     0
  3
__ . __ . __ . __ . __ . __ . __ . __ . __ . __
 72
    65
 73
     4
 40
1.0
 49
0.5
 49
-0.25
 49
0.0
 49
-0.25
  0
LTYPE
  2
HIDDEN
 70
     0
  3
Hidden __ __ __ __ __ __ __ __ __ __ __ __ __ __
 72
    65
 73
     2
 40
0.375
 49
0.25
 49
-0.125
  0
LTYPE
  2
PHANTOM2
 70
     0
  3
Phantom (.5x) ___ _ _ ___ _ _ ___ _ _ ___ _ _
 72
    65
 73
     6
 40
1.25
 49
0.625
 49
-0.125
 49
0.125
 49
-0.125
 49
0.125
 49
-0.125
  0
LTYPE
  2
CENTER
 70
     0
  3
Center ____ _ ____ _ ____ _ ____ _ ____ _ ____
 72
    65
 73
     4
 40
2.0
 49
1.25
 49
-0.25
 49
0.25
 49
-0.25
  0
LTYPE
  2
AMCONSTR
 70
     0
  3
_______________________
 72
    65
 73
     2
 40
9999.0
 49
9999.0
 49
0.0
  0
LTYPE
  2
CENTER2
 70
     0
  3
Center (.5x) ___ _ ___ _ ___ _ ___ _ ___ _ ___
 72
    65
 73
     4
 40
1.125
 49
0.75
 49
-0.125
 49
0.125
 49
-0.125
  0
LTYPE
  2
HIDDEN2
 70
     0
  3
Hidden (.5x) _ _ _ _ _ _ _ _ _ _ _ _ _ _ _ _ _
 72
    65
 73
     2
 40
0.1875
 49
0.125
 49
-0.0625
  0
LTYPE
  2
AMZIGZAG2
 70
     0
  3
/\/-/\/-/\/-/\/-/\/-/\/
 72
    65
 73
     2
 40
0.4401
 49
0.0001
 49
-0.4400000000000001
  0
LTYPE
  2
ACANSTGB
 70
     0
  3
__ . . __ . .
 72
    65
 73
     6
 40
0.35433070866
 49
0.15748031496
 49
-0.03937007874
 49
0.03937007874
 49
-0.03937007874
 49
0.03937007874
 49
-0.03937007874
  0
LTYPE
  2
ACANSTGL
 70
     0
  3
_ _ _ _ _
 72
    65
 73
     2
 40
0.11811023622
 49
0.07874015748
 49
-0.03937007874
  0
LTYPE
  2
AUSGEZOGEN
 70
     0
  3
Ausgezogene Linie
 72
    65
 73
     0
 40
0.0
  0
LTYPE
  2
VERDECKT
 70
     0
  3
Verdeckt __ __ __ __ __ __ __ __ __ __ __ __ __
 72
    65
 73
     2
 40
0.375
 49
0.25
 49
-0.125
  0
ENDTAB
  0
TABLE
  2
LAYER
 70
     6
  0
LAYER
  2
0
 70
     0
 62
     7
  6
CONTINUOUS
  0
LAYER
  2
VOLL
 70
     0
 62
     1
  6
CONTINUOUS
  0
LAYER
  2
STEMPEL
 70
     0
 62
     3
  6
CONTINUOUS
  0
LAYER
  2
ADSK_ASSOC_ENTITY_BACKUPS
 70
     1
 62
    -7
  6
CONTINUOUS
  0
ENDTAB
  0
TABLE
  2
STYLE
 70
     4
  0
STYLE
  2
STANDARD
 70
     0
 40
0.0
 41
0.8
 50
0.0
 71
     0
 42
2.0
  3
simplex.shx
  4

  0
STYLE
  2
GREEKS
 70
     0
 40
0.0
 41
0.8
 50
0.0
 71
     0
 42
2.5
  3
SIMPLEX.shx
  4

  0
STYLE
  2

 70
     1
 40
0.0
 41
1.0
 50
0.0
 71
     0
 42
2.5
  3
genltshp.shx
  4

  0
STYLE
  2
ACANSGDT
 70
     0
 40
0.0
 41
1.0
 50
0.0
 71
     0
 42
2.5
  3
amgdt.shx
  4

  0
ENDTAB
  0
TABLE
  2
VIEW
 70
     0
  0
ENDTAB
  0
TABLE
  2
UCS
 70
     0
  0
ENDTAB
  0
TABLE
  2
APPID
 70
    49
  0
APPID
  2
ACAD
 70
     0
  0
APPID
  2
ACAD_NAV_VCDISPLAY
 70
     0
  0
APPID
  2
GRADIENTCOLOR1ACI
 70
     0
  0
APPID
  2
GRADIENTCOLOR2ACI
 70
     0
  0
APPID
  2
ACAD_DSTYLE_DIMRADIAL_EXTENSION
 70
     0
  0
APPID
  2
ACADANNOMONITORALERTICONDI
 70
     0
  0
APPID
  2
ACAD_EXEMPT_FROM_CAD_STANDARDS
 70
     0
  0
APPID
  2
ACAD_MLEADERVER
 70
     0
  0
APPID
  2
ACAD_PSEXT
 70
     0
  0
APPID
  2
ACAECLAYERSTANDARD
 70
     0
  0
APPID
  2
ACCMTRANSPARENCY
 70
     0
  0
APPID
  2
ACAD_OBJECT_CHANGE_GUID
 70
     0
  0
APPID
  2
MCAD_NO_VIS
 70
     0
  0
APPID
  2
ACAD_TEMP_GRAPHIC
 70
     0
  0
APPID
  2
ACATTRIBSERVICES
 70
     0
  0
APPID
  2
DESIGNERASSEMBLIES
 70
     0
  0
APPID
  2
ACAD_DSTYLE_DIMJAG
 70
     0
  0
APPID
  2
ACAD_DSTYLE_DIMBREAK
 70
     0
  0
APPID
  2
GENIUS_GENSCREG_15
 70
     0
  0
APPID
  2
GENIUS_GENOBJ-N-SDF_13
 70
     0
  0
APPID
  2
GENIUS_GENODEF_13
 70
     0
  0
APPID
  2
ACAD_STEPID
 70
     0
  0
APPID
  2
ACAD_DSTYLE_DIMARC_LENGTH_
 70
     0
  0
APPID
  2
ACAD_DSTYLE_DIM_LINETYPE
 70
     0
  0
APPID
  2
ACAD_DSTYLE_DIM_EXT1_LINETYPE
 70
     0
  0
APPID
  2
ACAD_DSTYLE_DIM_EXT2_LINETYPE
 70
     0
  0
APPID
  2
RAK
 70
     0
  0
APPID
  2
ACADANNOPO
 70
     0
  0
APPID
  2
ACSYNERGY
 70
     0
  0
APPID
  2
SYNERGY_BODY_TBR_ID
 70
     0
  0
APPID
  2
ACAD_VIEW_EDGE_ID
 70
     0
  0
APPID
  2
ACSYNERGYSKETCH
 70
     0
  0
APPID
  2
ACAD_MODELDOC_XFORM
 70
     0
  0
APPID
  2
GENIUS_GENDTOL_13
 70
     0
  0
APPID
  2
ACAD_DSTYLE_DIMINSPECT
 70
     0
  0
APPID
  2
ACAD_DSTYLE_DIMANGULAR_EXT
 70
     0
  0
APPID
  2
PLOTTRANSPARENCY
 70
     0
  0
APPID
  2
ACAUTHENVIRON
 70
     0
  0
APPID
  2
ACDBDYNAMICBLOCKTRUENAME
 70
     0
  0
APPID
  2
ACDBDYNAMICBLOCKGUID
 70
     0
  0
APPID
  2
PE_URL
 70
     0
  0
APPID
  2
ACADANNOAV
 70
     0
  0
APPID
  2
ACAD_TC
 70
     0
  0
APPID
  2
ACAD_DIMASSOC_CALC_DIMLFAC
 70
     0
  0
APPID
  2
ACAD_DIMASSOC_DIMLFAC
 70
     0
  0
APPID
  2
ACAD_DIMASSOC_OVERRIDDEN_D
 70
     0
  0
APPID
  2
ACAD_DSTYLE_DIMTALN
 70
     0
  0
APPID
  2
ACADANNOTATIVE
 70
     0
  0
APPID
  2
HATCHBACKGROUNDCOLOR
 70
     0
  0
ENDTAB
  0
TABLE
  2
DIMSTYLE
 70
    10
  0
DIMSTYLE
  2
AM_ANSI
 70
     0
  3

  4
mm
  5

  6

  7

 40
1.0
 41
0.12
 42
0.05
 43
0.5
 44
0.1
 45
0.0
 46
0.0
 47
0.1
 48
0.1
140
0.12
141
0.0
142
0.0
143
25.3999999999999986
144
1.0
145
0.0
146
0.71
147
0.06
 71
     0
 72
     0
 73
     1
 74
     1
 75
     0
 76
     0
 77
     0
 78
     7
170
     0
171
     2
172
     0
173
     0
174
     0
175
     0
176
   256
177
   256
178
   255
  0
DIMSTYLE
  2
AM_ANSI$3
 70
     0
  3

  4
mm
  5

  6

  7

 40
1.0
 41
0.12
 42
0.05
 43
0.5
 44
0.1
 45
0.0
 46
0.0
 47
0.1
 48
0.1
140
0.12
141
0.0
142
0.0
143
25.3999999999999986
144
1.0
145
0.0
146
0.71
147
0.06
 71
     0
 72
     0
 73
     1
 74
     1
 75
     0
 76
     0
 77
     0
 78
     7
170
     0
171
     2
172
     0
173
     0
174
     0
175
     0
176
   256
177
   256
178
   255
  0
DIMSTYLE
  2
AM_ANSI$4
 70
     0
  3

  4
mm
  5

  6

  7

 40
1.0
 41
0.12
 42
0.05
 43
0.5
 44
0.1
 45
0.0
 46
0.0
 47
0.1
 48
0.1
140
0.12
141
0.0
142
0.0
143
25.3999999999999986
144
1.0
145
0.0
146
0.71
147
0.06
 71
     0
 72
     0
 73
     1
 74
     1
 75
     0
 76
     0
 77
     0
 78
     7
170
     0
171
     2
172
     0
173
     0
174
     0
175
     0
176
   256
177
   256
178
   255
  0
DIMSTYLE
  2
AM_ANSI$7
 70
     0
  3

  4
mm
  5

  6

  7

 40
1.0
 41
0.12
 42
0.05
 43
0.5
 44
0.1
 45
0.0
 46
0.0
 47
0.1
 48
0.1
140
0.12
141
0.0
142
0.0
143
25.3999999999999986
144
1.0
145
0.0
146
0.71
147
0.06
 71
     0
 72
     0
 73
     1
 74
     1
 75
     0
 76
     0
 77
     0
 78
     7
170
     0
171
     2
172
     0
173
     0
174
     0
175
     0
176
   256
177
   256
178
   255
  0
DIMSTYLE
  2
AM_ANSI$SF
 70
     0
  3

  4
mm
  5

  6

  7

 40
1.0
 41
0.12
 42
0.05
 43
0.5
 44
0.1
 45
0.0
 46
0.0
 47
0.1
 48
0.1
140
0.12
141
0.0
142
0.0
143
25.3999999999999986
144
1.0
145
0.0
146
0.71
147
0.06
 71
     0
 72
     0
 73
     1
 74
     1
 75
     1
 76
     1
 77
     0
 78
     7
170
     0
171
     2
172
     0
173
     0
174
     0
175
     0
176
   256
177
   256
178
   255
  0
DIMSTYLE
  2
AM_ANSI$SH
 70
     0
  3

  4
mm
  5

  6
GENAXEH
  7

 40
1.0
 41
0.12
 42
0.05
 43
0.5
 44
0.1
 45
0.0
 46
0.0
 47
0.1
 48
0.1
140
0.12
141
0.0
142
0.0
143
25.3999999999999986
144
1.0
145
0.0
146
0.71
147
0.06
 71
     0
 72
     0
 73
     1
 74
     1
 75
     1
 76
     1
 77
     0
 78
     7
170
     0
171
     2
172
     0
173
     1
174
     0
175
     0
176
   256
177
   256
178
   255
  0
DIMSTYLE
  2
AM_ANSI$0
 70
     0
  3

  4
"
  5

  6

  7

 40
1.0
 41
3.5
 42
1.0
 43
10.0
 44
1.0
 45
0.0
 46
0.0
 47
0.1
 48
0.1
140
3.5
141
0.0
142
0.0
143
0.0393701
144
1.0
145
0.0
146
0.71
147
1.5
 71
     0
 72
     0
 73
     1
 74
     1
 75
     0
 76
     0
 77
     0
 78
     8
170
     0
171
     2
172
     0
173
     0
174
     0
175
     0
176
   256
177
   256
178
     2
  0
DIMSTYLE
  2
LORO
 70
     0
  3

  4

  5

  6

  7

 40
1.0
 41
3.5
 42
1.0
 43
0.38
 44
1.0
 45
0.0
 46
0.0
 47
0.0
 48
0.000000001
140
3.5
141
0.09
142
0.0
143
25.3999999999999986
144
2.0
145
0.0
146
0.5
147
1.5
 71
     0
 72
     0
 73
     0
 74
     0
 75
     0
 76
     0
 77
     1
 78
     8
170
     0
171
     2
172
     1
173
     0
174
     0
175
     0
176
     0
177
     0
178
     1
  0
ENDTAB
  0
ENDSEC
  0
SECTION
  2
BLOCKS
  0
BLOCK
  8
0
  2
$MODEL_SPACE
 70
     0
 10
0.0
 20
0.0
 30
0.0
  3
$MODEL_SPACE
  1

  0
ENDBLK
  5
38
  8
0
  0
BLOCK
 67
     1
  8
0
  2
$PAPER_SPACE
 70
     2
 10
0.0
 20
0.0
 30
0.0
  3
$PAPER_SPACE
  1

  0
ENDBLK
  5
36
 67
     1
  8
0
  0
BLOCK
  8
0
  2
GENAXEH
 70
     0
 10
0.0
 20
0.0
 30
0.0
  3
GENAXEH
  1

  0
LINE
  5
1721
  8
0
 10
-1.0
 20
0.0
 30
0.0
 11
1.0
 21
0.0
 31
0.0
  0
ENDBLK
  5
1723
  8
0
  0
BLOCK
  8
0
  2
*S1
 70
     1
 10
0.0
 20
0.0
 30
0.0
  3
*S1
  1

  0
ENDBLK
  5
2101
  8
0
  0
BLOCK
  8
0
  2
*U2
 70
     1
 10
0.0
 20
0.0
 30
0.0
  3
*U2
  1

  0
ENDBLK
  5
3EBB
  8
0
  0
BLOCK
  8
0
  2
A$CD8E4B089
 70
     0
 10
0.0
 20
0.0
 30
0.0
  3
A$CD8E4B089
  1

  0
CIRCLE
  5
2416B
  8
0
  6
CONTINUOUS
 62
     3
 10
70.0
 20
200.0
 30
0.0
 40
34.6921457176084687
210
0.0
220
-0.0000000000000002
230
-1.0
  0
CIRCLE
  5
2416C
  8
0
  6
CONTINUOUS
 62
     3
 10
-70.0000000000009095
 20
200.0000000000001137
 30
-0.0000000000000444
 40
35.2999999999999616
  0
CIRCLE
  5
2416D
  8
0
  6
CONTINUOUS
 62
     3
 10
-70.0000000000009095
 20
200.0000000000001137
 30
-0.0000000000000444
 40
39.2594616805545229
  0
CIRCLE
  5
2416E
  8
0
  6
CONTINUOUS
 62
     3
 10
-70.0000000000009095
 20
200.0000000000001137
 30
-0.0000000000000444
 40
38.1718923361102114
  0
CIRCLE
  5
2416F
  8
0
  6
CONTINUOUS
 62
     3
 10
-70.0000000000009095
 20
200.0000000000001137
 30
-0.0000000000000444
 40
41.8999999999996291
  0
CIRCLE
  5
24170
  8
0
  6
CONTINUOUS
 62
     3
 10
70.0000000000009095
 20
200.0000000000001137
 30
0.0
 40
41.9000862159354028
210
0.0
220
-0.0000000000000002
230
-1.0
  0
CIRCLE
  5
24171
  8
0
  6
CONTINUOUS
 62
     3
 10
70.0
 20
200.0
 30
-0.0000000000000444
 40
34.6921457176084687
  0
CIRCLE
  5
24172
  8
0
  6
CONTINUOUS
 62
     3
 10
-70.0000000000009095
 20
200.0000000000001137
 30
0.0
 40
35.2999999999999616
210
0.0
220
-0.0000000000000002
230
-1.0
  0
CIRCLE
  5
24173
  8
0
  6
CONTINUOUS
 62
     3
 10
-70.0000000000009095
 20
200.0000000000001137
 30
0.0
 40
39.2594616805545229
210
0.0
220
-0.0000000000000002
230
-1.0
  0
CIRCLE
  5
24174
  8
0
  6
CONTINUOUS
 62
     3
 10
-70.0000000000009095
 20
200.0000000000001137
 30
0.0
 40
38.1718923361102114
210
0.0
220
-0.0000000000000002
230
-1.0
  0
CIRCLE
  5
24175
  8
0
  6
CONTINUOUS
 62
     3
 10
-70.0000000000009095
 20
200.0000000000001137
 30
0.0
 40
41.8999999999996291
210
0.0
220
-0.0000000000000002
230
-1.0
  0
CIRCLE
  5
24176
  8
0
  6
CONTINUOUS
 62
     3
 10
-70.0000000000009095
 20
200.0000000000001137
 30
0.0
 40
41.9000862159354028
210
0.0
220
-0.0000000000000002
230
-1.0
  0
CIRCLE
  5
24177
  8
0
  6
CONTINUOUS
 62
     3
 10
-70.0000000000002842
 20
200.0
 30
-0.0000000000000444
 40
42.0999999999999091
  0
CIRCLE
  5
24178
  8
0
  6
CONTINUOUS
 62
     3
 10
69.9999999999997442
 20
200.0
 30
-0.0000000000000444
 40
42.0999999999999091
  0
CIRCLE
  5
24179
  8
0
  6
CONTINUOUS
 62
     3
 10
250.0
 20
380.0000000000002274
 30
0.0
 40
3.0
210
0.0
220
-0.0000000000000002
230
-1.0
  0
CIRCLE
  5
2417A
  8
0
  6
CONTINUOUS
 62
     3
 10
-250.0000000000001137
 20
20.0
 30
0.0
 40
3.0
210
0.0
220
-0.0000000000000002
230
-1.0
  0
CIRCLE
  5
2417B
  8
0
  6
CONTINUOUS
 62
     3
 10
-250.0000000000001137
 20
380.0000000000002274
 30
0.0
 40
3.0
210
0.0
220
-0.0000000000000002
230
-1.0
  0
CIRCLE
  5
2417C
  8
0
  6
CONTINUOUS
 62
     3
 10
250.0
 20
20.0
 30
0.0
 40
3.0
210
0.0
220
-0.0000000000000002
230
-1.0
  0
ARC
  5
2417D
  8
0
  6
CONTINUOUS
 62
     3
 10
-250.0000000000001137
 20
380.0000000000001137
 30
0.0
 40
20.0000000000000107
210
0.0
220
-0.0000000000000002
230
-1.0
 50
89.9999999999999432
 51
180.0
  0
LINE
  5
2417E
  8
0
  6
CONTINUOUS
 62
     3
 10
270.0000000000001137
 20
20.0
 30
-0.0000000000000044
 11
270.0000000000001137
 21
380.0000000000001137
 31
-0.0000000000000844
210
0.0
220
1.0
230
-0.0000000000000002
  0
ARC
  5
2417F
  8
0
  6
CONTINUOUS
 62
     3
 10
-250.0000000000001137
 20
20.0
 30
0.0
 40
20.0
210
0.0
220
-0.0000000000000002
230
-1.0
 50
180.0
 51
270.0
  0
ARC
  5
24180
  8
0
  6
CONTINUOUS
 62
     3
 10
250.0
 20
380.0000000000001137
 30
0.0
 40
20.0
210
0.0
220
-0.0000000000000002
230
-1.0
 50
0.0
 51
90.0
  0
LINE
  5
24181
  8
0
  6
CONTINUOUS
 62
     3
 10
-269.9999999999998863
 20
380.0000000000001137
 30
-0.0000000000000844
 11
-269.9999999999998863
 21
20.0
 31
-0.0000000000000044
210
0.0
220
1.0
230
-0.0000000000000002
  0
ARC
  5
24182
  8
0
  6
CONTINUOUS
 62
     3
 10
250.0
 20
20.0
 30
0.0
 40
20.0
210
0.0
220
-0.0000000000000002
230
-1.0
 50
270.0
 51
0.0
  0
LINE
  5
24183
  8
0
  6
CONTINUOUS
 62
     3
 10
-250.0
 20
0.0
 30
0.0
 11
250.0
 21
0.0
 31
0.0
210
0.0
220
1.0
230
-0.0000000000000002
  0
LINE
  5
24184
  8
0
  6
CONTINUOUS
 62
     3
 10
250.0000000000001137
 20
400.0
 30
-0.0000000000000888
 11
-249.9999999999998863
 21
400.0
 31
-0.0000000000000888
210
0.0
220
1.0
230
-0.0000000000000002
  0
CIRCLE
  5
24185
  8
0
  6
VERDECKT
 62
     1
 10
70.0
 20
200.0
 30
0.0
 40
35.8875793553185076
210
0.0
220
-0.0000000000000002
230
-1.0
  0
CIRCLE
  5
24186
  8
0
  6
VERDECKT
 62
     1
 10
-70.0000000000009095
 20
200.0000000000001137
 30
-0.0000000000000444
 40
36.5
  0
CIRCLE
  5
24187
  8
0
  6
VERDECKT
 62
     1
 10
-70.0000000000009095
 20
200.0000000000001137
 30
-0.0000000000000444
 40
40.6999999999995907
  0
CIRCLE
  5
24188
  8
0
  6
VERDECKT
 62
     1
 10
-70.0000000000009095
 20
200.0000000000001137
 30
-0.0000000000000444
 40
38.1999999999995907
  0
CIRCLE
  5
24189
  8
0
  6
VERDECKT
 62
     1
 10
-70.0000000000009095
 20
200.0000000000001137
 30
-0.0000000000000444
 40
39.3999999999996433
  0
CIRCLE
  5
2418A
  8
0
  6
VERDECKT
 62
     1
 10
70.0000000000009095
 20
200.0000000000001137
 30
0.0
 40
40.7000862159353431
210
0.0
220
-0.0000000000000002
230
-1.0
  0
CIRCLE
  5
2418B
  8
0
  6
VERDECKT
 62
     1
 10
70.0
 20
200.0
 30
-0.0000000000000444
 40
35.8875793553185076
  0
CIRCLE
  5
2418C
  8
0
  6
VERDECKT
 62
     1
 10
-70.0000000000009095
 20
200.0000000000001137
 30
0.0
 40
36.5
210
0.0
220
-0.0000000000000002
230
-1.0
  0
CIRCLE
  5
2418D
  8
0
  6
VERDECKT
 62
     1
 10
-70.0000000000009095
 20
200.0000000000001137
 30
0.0
 40
40.6999999999995907
210
0.0
220
-0.0000000000000002
230
-1.0
  0
CIRCLE
  5
2418E
  8
0
  6
VERDECKT
 62
     1
 10
-70.0000000000009095
 20
200.0000000000001137
 30
0.0
 40
38.1999999999995907
210
0.0
220
-0.0000000000000002
230
-1.0
  0
CIRCLE
  5
2418F
  8
0
  6
VERDECKT
 62
     1
 10
-70.0000000000009095
 20
200.0000000000001137
 30
0.0
 40
39.3999999999996433
210
0.0
220
-0.0000000000000002
230
-1.0
  0
CIRCLE
  5
24190
  8
0
  6
VERDECKT
 62
     1
 10
-70.0000000000009095
 20
200.0000000000001137
 30
0.0
 40
40.7000862159353431
210
0.0
220
-0.0000000000000002
230
-1.0
  0
CIRCLE
  5
24191
  8
0
  6
VERDECKT
 62
     1
 10
-70.0000000000002842
 20
200.0
 30
-0.0000000000000444
 40
43.0961946980916579
  0
CIRCLE
  5
24192
  8
0
  6
VERDECKT
 62
     1
 10
69.9999999999997442
 20
200.0
 30
-0.0000000000000444
 40
43.0961946980916579
  0
ENDBLK
  5
24194
  8
0
  0
BLOCK
  8
0
  2
A$C5DEB7FE4
 70
     0
 10
0.0
 20
0.0
 30
0.0
  3
A$C5DEB7FE4
  1

  0
LINE
  5
24198
  8
0
  6
CONTINUOUS
 62
     3
 10
398.0000000000014211
 20
235.8875793553183939
 30
-0.0000000000000524
 11
398.0000000000014211
 21
164.1124206446814071
 31
-0.0000000000000364
210
0.0000000000000002
220
1.0
230
-0.0000000000000002
  0
LINE
  5
24199
  8
0
  6
CONTINUOUS
 62
     3
 10
-1.999999999999059
 20
160.7405383194453918
 30
-0.0000000000000357
 11
-1.9999999999990461
 21
200.0000000000001137
 31
-0.0000000000000444
210
0.0000000000000002
220
1.0
230
-0.0000000000000002
  0
LINE
  5
2419A
  8
0
  6
CONTINUOUS
 62
     3
 10
-1.9999999999990461
 20
200.0000000000001137
 30
-0.0000000000000444
 11
-1.9999999999990321
 21
239.2594616805546082
 31
-0.0000000000000531
210
0.0000000000000002
220
1.0
230
-0.0000000000000002
  0
ARC
  5
2419B
  8
0
  6
CONTINUOUS
 62
     3
 10
-390.9563390570942829
 20
235.5000000000100897
 30
0.0
 40
0.9999999999898253
210
0.0
220
-0.0000000000000002
230
-1.0
 50
89.9999999999837144
 51
95.0000000000377156
  0
ARC
  5
2419C
  8
0
  6
CONTINUOUS
 62
     3
 10
-390.956339057093885
 20
164.5000000000019895
 30
0.0
 40
1.000000000002105
210
0.0
220
-0.0000000000000002
230
-1.0
 50
265.0000000000106866
 51
269.9999999999968168
  0
LINE
  5
2419D
  8
0
  6
CONTINUOUS
 62
     3
 10
398.0000000000014211
 20
164.1124206446814071
 30
-0.0000000000000364
 11
391.0434947998415964
 21
163.5038053019081019
 31
-0.0000000000000363
210
0.0000000000000002
220
1.0
230
-0.0000000000000002
  0
LINE
  5
2419E
  8
0
  6
CONTINUOUS
 62
     3
 10
398.0000000000014211
 20
235.8875793553183939
 30
-0.0000000000000524
 11
391.0434947998417101
 21
236.4961946980916139
 31
-0.0000000000000525
210
0.0000000000000002
220
1.0
230
-0.0000000000000002
  0
LINE
  5
2419F
  8
0
  6
CONTINUOUS
 62
     3
 10
390.9563390570939987
 20
163.4999999999998863
 30
-0.0000000000000363
 11
57.4930577797119113
 21
163.5
 31
-0.0000000000000363
210
0.0000000000000002
220
1.0
230
-0.0000000000000002
  0
LINE
  5
241A0
  8
0
  6
CONTINUOUS
 62
     3
 10
390.9563390570939987
 20
236.4999999999998863
 30
-0.0000000000000525
 11
57.4930577797120392
 21
236.5
 31
-0.0000000000000525
210
0.0000000000000002
220
1.0
230
-0.0000000000000002
  0
ARC
  5
241A1
  8
0
  6
CONTINUOUS
 62
     3
 10
-57.493057779705822
 20
244.4999999999830891
 30
0.0
 40
7.9999999999830047
210
0.0
220
-0.0000000000000002
230
-1.0
 50
270.0
 51
301.3206695884816781
  0
ARC
  5
241A2
  8
0
  6
CONTINUOUS
 62
     3
 10
-57.4930577797058788
 20
155.500000000016712
 30
0.0
 40
7.9999999999833733
210
0.0
220
-0.0000000000000002
230
-1.0
 50
58.6793304115637326
 51
90.0000000000432294
  0
ARC
  5
241A3
  8
0
  6
CONTINUOUS
 62
     3
 10
-47.1484939899689621
 20
227.4999999999920135
 30
0.0
 40
11.9000000000076795
210
0.0
220
-0.0000000000000002
230
-1.0
 50
90.000000000014623
 51
121.3206695884063038
  0
ARC
  5
241A4
  8
0
  6
CONTINUOUS
 62
     3
 10
-47.1484939899689195
 20
172.5000000000081002
 30
0.0
 40
11.9000000000077293
210
0.0
220
-0.0000000000000002
230
-1.0
 50
238.6793304115938099
 51
269.9999999999852776
  0
LINE
  5
241A5
  8
0
  6
CONTINUOUS
 62
     3
 10
26.8718289426870491
 20
239.399999999999693
 30
-0.0000000000000532
 11
47.148493989971989
 21
239.399999999999693
 31
-0.0000000000000532
210
0.0000000000000002
220
1.0
230
-0.0000000000000002
  0
LINE
  5
241A6
  8
0
  6
CONTINUOUS
 62
     3
 10
26.8718289426870207
 20
160.6000000000003922
 30
-0.0000000000000357
 11
47.1484939899719677
 21
160.6000000000003922
 31
-0.0000000000000357
210
0.0000000000000002
220
1.0
230
-0.0000000000000002
  0
ARC
  5
241A7
  8
0
  6
CONTINUOUS
 62
     3
 10
-26.8718289426804411
 20
251.8999999999664965
 30
0.0
 40
12.4999999999668105
210
0.0
220
-0.0000000000000002
230
-1.0
 50
270.0
 51
291.1668520398416149
  0
ARC
  5
241A8
  8
0
  6
CONTINUOUS
 62
     3
 10
-26.8718289426803913
 20
148.1000000000335888
 30
0.0
 40
12.4999999999667502
210
0.0
220
-0.0000000000000002
230
-1.0
 50
68.8331479601886969
 51
90.000000000030397
  0
ARC
  5
241A9
  8
0
  6
CONTINUOUS
 62
     3
 10
-13.4262594256527699
 20
216.9941909850604134
 30
0.0
 40
24.9058952308750783
210
0.0
220
-0.0000000000000002
230
-1.0
 50
89.8492419712254673
 51
111.0160940109913952
  0
ARC
  5
241AA
  8
0
  6
CONTINUOUS
 62
     3
 10
-13.4262594256528196
 20
183.0058090149391035
 30
0.0
 40
24.9058952308744317
210
0.0
220
-0.0000000000000002
230
-1.0
 50
248.9839059890080932
 51
270.1507580287747032
  0
LINE
  5
241AB
  8
0
  6
CONTINUOUS
 62
     3
 10
13.0000000000001101
 20
241.899999999999693
 30
-0.0000000000000537
 11
13.3607265125970702
 21
241.899999999999693
 31
-0.0000000000000537
210
0.0000000000000002
220
1.0
230
-0.0000000000000002
  0
LINE
  5
241AC
  8
0
  6
CONTINUOUS
 62
     3
 10
13.0000000000000906
 20
158.1000000000003922
 30
-0.0000000000000351
 11
13.36072651259704
 21
158.1000000000003922
 31
-0.0000000000000351
210
0.0000000000000002
220
1.0
230
-0.0000000000000002
  0
ARC
  5
241AD
  8
0
  6
CONTINUOUS
 62
     3
 10
-9.1828497997170668
 20
217.0000000000700027
 30
0.0
 40
24.899999999929971
210
0.0
220
-0.0000000000000002
230
-1.0
 50
64.9999999999588027
 51
68.3590396899818131
  0
ARC
  5
241AE
  8
0
  6
CONTINUOUS
 62
     3
 10
-9.1828497997173972
 20
182.9999999999309068
 30
0.0
 40
24.8999999999308308
210
0.0
220
-0.0000000000000002
230
-1.0
 50
291.6409603100182153
 51
295.0000000000410978
  0
LINE
  5
241AF
  8
0
  6
CONTINUOUS
 62
     3
 10
-1.9999999999990321
 20
239.2594616805546082
 30
-0.0000000000000531
 11
-1.3403449176129789
 21
239.5670638972115967
 31
-0.0000000000000532
210
0.0000000000000002
220
1.0
230
-0.0000000000000002
  0
LINE
  5
241B0
  8
0
  6
CONTINUOUS
 62
     3
 10
-1.999999999999059
 20
160.7405383194455055
 30
-0.0000000000000357
 11
-1.3403449176130069
 21
160.4329361027884886
 31
-0.0000000000000356
210
0.0000000000000002
220
1.0
230
-0.0000000000000002
  0
LINE
  5
241B1
  8
0
  6
CONTINUOUS
 62
     3
 10
13.0000000000001101
 20
243.0961946980916935
 30
-0.000000000000054
 11
13.0000000000000906
 21
156.9038053019083065
 31
-0.0000000000000348
210
0.0000000000000002
220
1.0
230
-0.0000000000000002
  0
LINE
  5
241B2
  8
0
  6
CONTINUOUS
 62
     3
 10
0.0000000000000239
 20
380.0000000000001137
 30
-0.0000000000000844
 11
0.000000000000032
 21
400.0
 31
-0.0000000000000888
210
0.0000000000000002
220
1.0
230
-0.0000000000000002
  0
LINE
  5
241B3
  8
0
  6
CONTINUOUS
 62
     3
 10
0.9999999999999182
 20
400.0
 30
-0.0000000000000888
 11
0.9999999999999101
 21
380.0000000000001137
 31
-0.0000000000000844
210
0.0000000000000002
220
1.0
230
-0.0000000000000002
  0
LINE
  5
241B4
  8
0
  6
CONTINUOUS
 62
     3
 10
1.0000000000000311
 20
400.0
 30
-0.0000000000000888
 11
0.000000000000032
 21
400.0
 31
-0.0000000000000888
210
0.0000000000000002
220
1.0
230
-0.0000000000000002
  0
LINE
  5
241B5
  8
0
  6
CONTINUOUS
 62
     3
 10
1.0000000000000271
 20
380.0000000000001137
 30
-0.0000000000000844
 11
0.9999999999999475
 21
20.0
 31
-0.0000000000000044
210
0.0000000000000002
220
1.0
230
-0.0000000000000002
  0
LINE
  5
241B6
  8
0
  6
CONTINUOUS
 62
     3
 10
0.9999999999998301
 20
20.0
 30
-0.0000000000000044
 11
0.9999999999998294
 21
-0.0000000000000002
 31
0.0
210
0.0000000000000002
220
1.0
230
-0.0000000000000002
  0
LINE
  5
241B7
  8
0
  6
CONTINUOUS
 62
     3
 10
-0.0000000000000524
 20
20.0
 30
-0.0000000000000044
 11
0.0000000000000275
 21
380.0000000000001137
 31
-0.0000000000000844
210
0.0000000000000002
220
1.0
230
-0.0000000000000002
  0
LINE
  5
241B8
  8
0
  6
CONTINUOUS
 62
     3
 10
-0.0000000000000568
 20
0.0
 30
0.0
 11
-0.0000000000000561
 21
20.0
 31
-0.0000000000000044
210
0.0000000000000002
220
1.0
230
-0.0000000000000002
  0
LINE
  5
241B9
  8
0
  6
CONTINUOUS
 62
     3
 10
-0.0000000000000568
 20
0.0
 30
0.0
 11
0.999999999999943
 21
-0.0000000000000002
 31
0.0
210
0.0000000000000002
220
1.0
230
-0.0000000000000002
  0
LINE
  5
241BA
  8
0
  6
CONTINUOUS
 62
     3
 10
13.0000000000000906
 20
156.9038053019083065
 30
-0.0000000000000348
 11
1.4564221286395611
 21
155.8938731016280883
 31
-0.0000000000000346
210
0.0000000000000002
220
1.0
230
-0.0000000000000002
  0
LINE
  5
241BB
  8
0
  6
CONTINUOUS
 62
     3
 10
13.0000000000001101
 20
243.0961946980916935
 30
-0.000000000000054
 11
1.4564221286395811
 21
244.106126898371997
 31
-0.0000000000000542
210
0.0000000000000002
220
1.0
230
-0.0000000000000002
  0
ARC
  5
241BC
  8
0
  6
CONTINUOUS
 62
     3
 10
-1.500000000003342
 20
244.6042242474219961
 30
0.0
 40
0.5000000000031763
210
0.0
220
-0.0000000000000002
230
-1.0
 50
274.9999999988096988
 51
359.9999999988046966
  0
ARC
  5
241BD
  8
0
  6
CONTINUOUS
 62
     3
 10
-1.500000000003322
 20
155.3957757525780892
 30
0.0
 40
0.5000000000031747
210
0.0
220
-0.0000000000000002
230
-1.0
 50
0.0000000011952906
 51
85.0000000011902443
  0
LINE
  5
241BE
  8
0
  6
VERDECKT
 62
     1
 10
397.8954131087041901
 20
234.6921457176084118
 30
-0.0000000000000521
 11
397.8954131087041901
 21
165.3078542823913892
 31
-0.0000000000000367
210
0.0000000000000002
220
1.0
230
-0.0000000000000002
  0
LINE
  5
241BF
  8
0
  6
VERDECKT
 62
     1
 10
-1.4928580859109071
 20
161.8281076638897105
 30
-0.0000000000000359
 11
-1.492858085910894
 21
200.0000000000001137
 31
-0.0000000000000444
210
0.0000000000000002
220
1.0
230
-0.0000000000000002
  0
LINE
  5
241C0
  8
0
  6
VERDECKT
 62
     1
 10
-1.492858085910894
 20
200.0000000000001137
 30
-0.0000000000000444
 11
-1.4928580859108811
 21
238.1718923361102043
 31
-0.0000000000000529
210
0.0000000000000002
220
1.0
230
-0.0000000000000002
  0
ARC
  5
241C1
  8
0
  6
VERDECKT
 62
     1
 10
-390.9039459256052282
 20
234.3000000000054968
 30
0.0
 40
0.9999999999943726
210
0.0
220
-0.0000000000000002
230
-1.0
 50
89.9999999999902371
 51
95.0000000000247411
  0
ARC
  5
241C2
  8
0
  6
VERDECKT
 62
     1
 10
-390.9039459256050009
 20
165.7000000000053035
 30
0.0
 40
1.000000000005371
210
0.0
220
-0.0000000000000002
230
-1.0
 50
265.0000000000205773
 51
269.9999999999934062
  0
LINE
  5
241C3
  8
0
  6
VERDECKT
 62
     1
 10
397.8954131087041901
 20
165.3078542823913892
 30
-0.0000000000000367
 11
390.991101668352826
 21
164.7038053019080905
 31
-0.0000000000000366
210
0.0000000000000002
220
1.0
230
-0.0000000000000002
  0
LINE
  5
241C4
  8
0
  6
VERDECKT
 62
     1
 10
397.8954131087041901
 20
234.6921457176082981
 30
-0.0000000000000521
 11
390.9911016683528828
 21
235.2961946980915968
 31
-0.0000000000000522
210
0.0000000000000002
220
1.0
230
-0.0000000000000002
  0
LINE
  5
241C5
  8
0
  6
VERDECKT
 62
     1
 10
390.9039459256050009
 20
164.6999999999999034
 30
-0.0000000000000366
 11
57.4930577797128208
 21
164.6999999999999886
 31
-0.0000000000000366
210
0.0000000000000002
220
1.0
230
-0.0000000000000002
  0
LINE
  5
241C6
  8
0
  6
VERDECKT
 62
     1
 10
390.9039459256050009
 20
235.2999999999998977
 30
-0.0000000000000522
 11
57.4930577797120392
 21
235.3000000000000114
 31
-0.0000000000000522
210
0.0000000000000002
220
1.0
230
-0.0000000000000002
  0
LINE
  5
241C7
  8
0
  6
VERDECKT
 62
     1
 10
397.8954131087041901
 20
234.6921457176084118
 30
-0.0000000000000521
 11
398.0000000000014211
 21
235.8875793553183939
 31
-0.0000000000000524
210
0.0000000000000002
220
1.0
230
-0.0000000000000002
  0
LINE
  5
241C8
  8
0
  6
VERDECKT
 62
     1
 10
397.8954131087041901
 20
165.3078542823913892
 30
-0.0000000000000367
 11
398.0000000000014211
 21
164.1124206446814071
 31
-0.0000000000000364
210
0.0000000000000002
220
1.0
230
-0.0000000000000002
  0
LINE
  5
241C9
  8
0
  6
VERDECKT
 62
     1
 10
-1.4928580859108631
 20
161.8281076638897957
 30
-0.0000000000000359
 11
-1.9999999999990159
 21
160.7405383194455055
 31
-0.0000000000000357
210
0.0000000000000002
220
1.0
230
-0.0000000000000002
  0
LINE
  5
241CA
  8
0
  6
VERDECKT
 62
     1
 10
-1.4928580859108369
 20
238.1718923361102895
 30
-0.0000000000000529
 11
-1.999999999998989
 21
239.2594616805546082
 31
-0.0000000000000531
210
0.0000000000000002
220
1.0
230
-0.0000000000000002
  0
LINE
  5
241CB
  8
0
  6
VERDECKT
 62
     1
 10
-1.4928580859108811
 20
238.1718923361102895
 30
-0.0000000000000529
 11
-0.8332030035249157
 21
238.4794945527671928
 31
-0.000000000000053
210
0.0000000000000002
220
1.0
230
-0.0000000000000002
  0
LINE
  5
241CC
  8
0
  6
VERDECKT
 62
     1
 10
-1.4928580859109071
 20
161.8281076638897957
 30
-0.0000000000000359
 11
-0.833203003524942
 21
161.5205054472328925
 31
-0.0000000000000359
210
0.0000000000000002
220
1.0
230
-0.0000000000000002
  0
ARC
  5
241CD
  8
0
  6
VERDECKT
 62
     1
 10
-9.1828497997162124
 20
217.0000000000709122
 30
0.0
 40
23.6999999999287994
210
0.0
220
-0.0000000000000002
230
-1.0
 50
64.9999999999556337
 51
90.0000000000073044
  0
ARC
  5
241CE
  8
0
  6
VERDECKT
 62
     1
 10
-9.1828497997161982
 20
182.9999999999292868
 30
0.0
 40
23.6999999999288313
210
0.0
220
-0.0000000000000002
230
-1.0
 50
270.0
 51
295.0000000000517275
  0
LINE
  5
241CF
  8
0
  6
VERDECKT
 62
     1
 10
9.1828497997192375
 20
240.6999999999997044
 30
-0.0000000000000534
 11
13.3623247367284499
 21
240.6999999999997044
 31
-0.0000000000000534
210
0.0000000000000002
220
1.0
230
-0.0000000000000002
  0
LINE
  5
241D0
  8
0
  6
VERDECKT
 62
     1
 10
9.1828497997192091
 20
159.3000000000004093
 30
-0.0000000000000354
 11
13.3623247367284304
 21
159.3000000000004093
 31
-0.0000000000000354
210
0.0000000000000002
220
1.0
230
-0.0000000000000002
  0
ARC
  5
241D1
  8
0
  6
VERDECKT
 62
     1
 10
-13.4262594256539902
 20
216.9941909850674051
 30
0.0
 40
23.7058952308680411
210
0.0
220
-0.0000000000000002
230
-1.0
 50
89.8454733624219841
 51
111.0124127937333043
  0
ARC
  5
241D2
  8
0
  6
VERDECKT
 62
     1
 10
-13.4262594256539796
 20
183.0058090149327938
 30
0.0
 40
23.7058952308680411
210
0.0
220
-0.0000000000000002
230
-1.0
 50
248.9875872062667099
 51
270.1545266375779875
  0
ARC
  5
241D3
  8
0
  6
VERDECKT
 62
     1
 10
-26.8718289426836385
 20
251.8999999999711861
 30
0.0
 40
13.6999999999715101
210
0.0
220
-0.0000000000000002
230
-1.0
 50
270.0
 51
291.1600167708655817
  0
ARC
  5
241D4
  8
0
  6
VERDECKT
 62
     1
 10
-26.8718289426835888
 20
148.1000000000290129
 30
0.0
 40
13.6999999999714497
210
0.0
220
-0.0000000000000002
230
-1.0
 50
68.8399832291511444
 51
90.0000000000166835
  0
LINE
  5
241D5
  8
0
  6
VERDECKT
 62
     1
 10
26.8718289426876211
 20
238.1999999999997044
 30
-0.0000000000000529
 11
47.148493989971989
 21
238.1999999999997044
 31
-0.0000000000000529
210
0.0000000000000002
220
1.0
230
-0.0000000000000002
  0
LINE
  5
241D6
  8
0
  6
VERDECKT
 62
     1
 10
26.8718289426875891
 20
161.8000000000004093
 30
-0.0000000000000359
 11
47.1484939899719677
 21
161.8000000000004093
 31
-0.0000000000000359
210
0.0000000000000002
220
1.0
230
-0.0000000000000002
  0
ARC
  5
241D7
  8
0
  6
VERDECKT
 62
     1
 10
-47.1484939899700777
 20
227.4999999999955094
 30
0.0
 40
10.7000000000041702
210
0.0
220
-0.0000000000000002
230
-1.0
 50
90.0000000000102318
 51
121.3206695884108939
  0
ARC
  5
241D8
  8
0
  6
VERDECKT
 62
     1
 10
-47.1484939899700635
 20
172.5000000000046043
 30
0.0
 40
10.7000000000041595
210
0.0
220
-0.0000000000000002
230
-1.0
 50
238.6793304115890919
 51
269.999999999989825
  0
ARC
  5
241D9
  8
0
  6
VERDECKT
 62
     1
 10
-57.493057779705822
 20
244.4999999999830891
 30
0.0
 40
9.1999999999831061
210
0.0
220
-0.0000000000000002
230
-1.0
 50
270.0
 51
301.3206695884715032
  0
ARC
  5
241DA
  8
0
  6
VERDECKT
 62
     1
 10
-57.4930577797057509
 20
155.5000000000171099
 30
0.0
 40
9.1999999999829676
210
0.0
220
-0.0000000000000002
230
-1.0
 50
58.6793304115671219
 51
90.0000000000439542
  0
LINE
  5
241DB
  8
0
  6
VERDECKT
 62
     1
 10
9.1828497997193512
 20
241.899999999999693
 30
-0.0000000000000537
 11
13.0000000000001101
 21
241.899999999999693
 31
-0.0000000000000537
210
0.0000000000000002
220
1.0
230
-0.0000000000000002
  0
LINE
  5
241DC
  8
0
  6
VERDECKT
 62
     1
 10
9.1828497997193228
 20
158.1000000000003922
 30
-0.0000000000000351
 11
13.0000000000000906
 21
158.1000000000003922
 31
-0.0000000000000351
210
0.0000000000000002
220
1.0
230
-0.0000000000000002
  0
ARC
  5
241DD
  8
0
  6
VERDECKT
 62
     1
 10
-9.1828497997160259
 20
217.0000000000719922
 30
0.0
 40
24.8999999999277399
210
0.0
220
-0.0000000000000002
230
-1.0
 50
68.3590396899823531
 51
90.0000000000076454
  0
ARC
  5
241DE
  8
0
  6
VERDECKT
 62
     1
 10
-9.1828497997160135
 20
182.9999999999280078
 30
0.0
 40
24.8999999999276795
210
0.0
220
-0.0000000000000002
230
-1.0
 50
270.0
 51
291.6409603100253207
  0
LINE
  5
241DF
  8
0
  6
VERDECKT
 62
     1
 10
12.9128442572524502
 20
242.0999999999999943
 30
-0.0000000000000538
 11
12.9128442572524396
 21
157.9000000000000909
 31
-0.0000000000000351
210
0.0000000000000002
220
1.0
230
-0.0000000000000002
  0
LINE
  5
241E0
  8
0
  6
VERDECKT
 62
     1
 10
12.9128442572524502
 20
242.0999999999999943
 30
-0.0000000000000538
 11
13.0000000000001101
 21
243.0961946980916935
 31
-0.000000000000054
210
0.0000000000000002
220
1.0
230
-0.0000000000000002
  0
LINE
  5
241E1
  8
0
  6
VERDECKT
 62
     1
 10
12.9128442572524396
 20
157.9000000000000909
 30
-0.0000000000000351
 11
13.0000000000000906
 21
156.9038053019083065
 31
-0.0000000000000348
210
0.0000000000000002
220
1.0
230
-0.0000000000000002
  0
ARC
  5
241E2
  8
0
  6
VERDECKT
 62
     1
 10
-1.4999999999964031
 20
244.6042242474293005
 30
0.0
 40
1.4999999999962299
210
0.0
220
-0.0000000000000002
230
-1.0
 50
274.9999999993187885
 51
359.9999999993193001
  0
ARC
  5
241E3
  8
0
  6
VERDECKT
 62
     1
 10
-1.499999999996382
 20
155.3957757525708132
 30
0.0
 40
1.499999999996245
210
0.0
220
-0.0000000000000002
230
-1.0
 50
0.0000000006807023
 51
85.0000000006812542
  0
LINE
  5
241E4
  8
0
  6
VERDECKT
 62
     1
 10
12.9128442572524396
 20
157.9000000000000909
 30
-0.0000000000000351
 11
1.369266385892991
 21
156.8900677997062019
 31
-0.0000000000000348
210
0.0000000000000002
220
1.0
230
-0.0000000000000002
  0
LINE
  5
241E5
  8
0
  6
VERDECKT
 62
     1
 10
12.9128442572524502
 20
242.0999999999999943
 30
-0.0000000000000538
 11
1.3692663858930101
 21
243.1099322002939118
 31
-0.000000000000054
210
0.0000000000000002
220
1.0
230
-0.0000000000000002
  0
LINE
  5
241E6
  8
0
  6
VERDECKT
 62
     1
 10
0.9999999999998332
 20
17.0
 30
-0.0000000000000038
 11
-0.0000000000000531
 21
17.0
 31
-0.0000000000000038
210
0.0000000000000002
220
1.0
230
-0.0000000000000002
  0
LINE
  5
241E7
  8
0
  6
VERDECKT
 62
     1
 10
0.9999999999998346
 20
23.0
 30
-0.0000000000000051
 11
-0.0000000000000517
 21
23.0
 31
-0.0000000000000051
210
0.0000000000000002
220
1.0
230
-0.0000000000000002
  0
LINE
  5
241E8
  8
0
  6
VERDECKT
 62
     1
 10
0.0000000000000282
 20
383.0000000000002274
 30
-0.000000000000085
 11
0.9999999999999145
 21
383.0000000000002274
 31
-0.000000000000085
210
0.0000000000000002
220
1.0
230
-0.0000000000000002
  0
LINE
  5
241E9
  8
0
  6
VERDECKT
 62
     1
 10
0.0000000000000269
 20
377.0000000000002274
 30
-0.0000000000000837
 11
0.9999999999999131
 21
377.0000000000002274
 31
-0.0000000000000837
210
0.0000000000000002
220
1.0
230
-0.0000000000000002
  0
ENDBLK
  5
241EB
  8
0
  0
BLOCK
  8
0
  2
A$C3FE62E72
 70
     0
 10
0.0
 20
0.0
 30
0.0
  3
A$C3FE62E72
  1

  0
LINE
  5
241EF
  8
0
  6
CONTINUOUS
 62
     3
 10
-34.1124206446816132
 20
398.0000000000014211
 30
0.0
 11
-105.8875793553183939
 21
398.0000000000014211
 31
0.0
  0
LINE
  5
241F0
  8
0
  6
CONTINUOUS
 62
     3
 10
-109.259461680555404
 20
-1.9999999999990901
 30
0.0
 11
-30.7405383194463901
 21
-1.9999999999990901
 31
0.0
  0
ARC
  5
241F1
  8
0
  6
CONTINUOUS
 62
     3
 10
-34.5000000000016414
 20
390.956339057093885
 30
0.0
 40
1.000000000001642
 50
0.0000000000032314
 51
4.9999999999948033
  0
ARC
  5
241F2
  8
0
  6
CONTINUOUS
 62
     3
 10
-105.5000000000021032
 20
390.9563390570939987
 30
0.0
 40
0.999999999997911
 50
174.9999999999930083
 51
180.0000000000032117
  0
LINE
  5
241F3
  8
0
  6
CONTINUOUS
 62
     3
 10
-34.1124206446815421
 20
398.0000000000014211
 30
0.0
 11
-33.5038053019082511
 21
391.0434947998415964
 31
0.0
  0
LINE
  5
241F4
  8
0
  6
CONTINUOUS
 62
     3
 10
-105.8875793553183939
 20
398.0000000000014211
 30
0.0
 11
-106.4961946980916991
 21
391.0434947998415964
 31
0.0
  0
LINE
  5
241F5
  8
0
  6
CONTINUOUS
 62
     3
 10
-106.5
 20
57.4930577797119895
 30
0.0
 11
-106.5
 21
390.956339057093885
 31
0.0
  0
LINE
  5
241F6
  8
0
  6
CONTINUOUS
 62
     3
 10
-33.5
 20
57.4930577797119895
 30
0.0
 11
-33.5
 21
390.956339057093885
 31
0.0
  0
ARC
  5
241F7
  8
0
  6
CONTINUOUS
 62
     3
 10
-114.4999999999838991
 20
57.4930577797057509
 30
0.0
 40
7.9999999999830029
 50
328.6793304115628871
 51
0.0000000000446804
  0
ARC
  5
241F8
  8
0
  6
CONTINUOUS
 62
     3
 10
-25.5000000000179305
 20
57.4930577797057367
 30
0.0
 40
7.9999999999829861
 50
179.9999999999552074
 51
211.3206695884369992
  0
ARC
  5
241F9
  8
0
  6
CONTINUOUS
 62
     3
 10
-97.4999999999928377
 20
47.1484939899688911
 30
0.0
 40
11.9000000000077009
 50
148.6793304115936962
 51
179.999999999985306
  0
ARC
  5
241FA
  8
0
  6
CONTINUOUS
 62
     3
 10
-42.5000000000091518
 20
47.1484939899688484
 30
0.0
 40
11.9000000000078803
 50
0.0000000000148596
 51
31.3206695884060089
  0
LINE
  5
241FB
  8
0
  6
CONTINUOUS
 62
     3
 10
-30.6000000000012697
 20
47.1484939899719393
 30
0.0
 11
-30.6000000000012697
 21
26.8718289426869887
 31
0.0
  0
LINE
  5
241FC
  8
0
  6
CONTINUOUS
 62
     3
 10
-109.4000000000005031
 20
47.1484939899719393
 30
0.0
 11
-109.4000000000005031
 21
26.8718289426869887
 31
0.0
  0
ARC
  5
241FD
  8
0
  6
CONTINUOUS
 62
     3
 10
-121.899999999967207
 20
26.8718289426803594
 30
0.0
 40
12.4999999999667093
 50
338.8331479601886826
 51
0.0000000000303807
  0
ARC
  5
241FE
  8
0
  6
CONTINUOUS
 62
     3
 10
-18.100000000034921
 20
26.8718289426802883
 30
0.0
 40
12.4999999999663505
 50
179.9999999999693046
 51
201.1668520398116868
  0
ARC
  5
241FF
  8
0
  6
CONTINUOUS
 62
     3
 10
-86.9941909850615787
 20
13.4262594256527503
 30
0.0
 40
24.9058952308747301
 50
158.9839059890084059
 51
180.1507580287745895
  0
ARC
  5
24200
  8
0
  6
CONTINUOUS
 62
     3
 10
-53.0058090149400485
 20
13.4262594256527894
 30
0.0
 40
24.9058952308745489
 50
359.8492419712252968
 51
21.0160940109917291
  0
LINE
  5
24201
  8
0
  6
CONTINUOUS
 62
     3
 10
-28.1000000000012804
 20
13.3607265125970098
 30
0.0
 11
-28.1000000000012804
 21
13.0000000000000995
 31
0.0
  0
LINE
  5
24202
  8
0
  6
CONTINUOUS
 62
     3
 10
-111.9000000000005031
 20
13.3607265125970098
 30
0.0
 11
-111.9000000000005031
 21
13.0000000000001208
 31
0.0
  0
ARC
  5
24203
  8
0
  6
CONTINUOUS
 62
     3
 10
-87.0000000000656257
 20
9.1828497997191914
 30
0.0
 40
24.8999999999356199
 50
201.6409603100181869
 51
205.0000000000406999
  0
ARC
  5
24204
  8
0
  6
CONTINUOUS
 62
     3
 10
-52.9999999999234888
 20
9.1828497997136367
 30
0.0
 40
24.8999999999217607
 50
334.999999999958618
 51
338.3590396899829216
  0
LINE
  5
24205
  8
0
  6
CONTINUOUS
 62
     3
 10
-109.259461680555404
 20
-1.9999999999990901
 30
0.0
 11
-109.5670638972124067
 21
-1.3403449176130371
 31
0.0
  0
LINE
  5
24206
  8
0
  6
CONTINUOUS
 62
     3
 10
-30.7405383194463901
 20
-1.9999999999990901
 30
0.0
 11
-30.4329361027894301
 21
-1.3403449176130371
 31
0.0
  0
LINE
  5
24207
  8
0
  6
CONTINUOUS
 62
     3
 10
34.1124206446816132
 20
398.0000000000014211
 30
0.0
 11
105.8875793553183939
 21
398.0000000000014211
 31
0.0
  0
LINE
  5
24208
  8
0
  6
CONTINUOUS
 62
     3
 10
109.259461680555404
 20
-1.9999999999990901
 30
0.0
 11
30.7405383194463901
 21
-1.9999999999990901
 31
0.0
  0
ARC
  5
24209
  8
0
  6
CONTINUOUS
 62
     3
 10
34.5000000000016414
 20
390.956339057093885
 30
0.0
 40
1.0000000000016409
 50
175.0000000000084128
 51
180.0
  0
ARC
  5
2420A
  8
0
  6
CONTINUOUS
 62
     3
 10
105.5000000000021032
 20
390.9563390570939987
 30
0.0
 40
0.9999999999979099
 50
359.9999999999968168
 51
5.0000000000070157
  0
LINE
  5
2420B
  8
0
  6
CONTINUOUS
 62
     3
 10
105.8875793553183939
 20
398.0000000000014211
 30
0.0
 11
106.4961946980916991
 21
391.0434947998415964
 31
0.0
  0
LINE
  5
2420C
  8
0
  6
CONTINUOUS
 62
     3
 10
34.1124206446815421
 20
398.0000000000014211
 30
0.0
 11
33.5038053019082511
 21
391.0434947998415964
 31
0.0
  0
LINE
  5
2420D
  8
0
  6
CONTINUOUS
 62
     3
 10
106.5
 20
390.956339057093885
 30
0.0
 11
106.5
 21
57.4930577797119895
 31
0.0
  0
LINE
  5
2420E
  8
0
  6
CONTINUOUS
 62
     3
 10
33.5
 20
390.956339057093885
 30
0.0
 11
33.5
 21
57.4930577797119895
 31
0.0
  0
ARC
  5
2420F
  8
0
  6
CONTINUOUS
 62
     3
 10
25.5000000000179092
 20
57.4930577797057509
 30
0.0
 40
7.9999999999829958
 50
328.6793304115628871
 51
0.0000000000446804
  0
ARC
  5
24210
  8
0
  6
CONTINUOUS
 62
     3
 10
114.4999999999838991
 20
57.4930577797057367
 30
0.0
 40
7.9999999999829869
 50
179.9999999999552074
 51
211.3206695884369992
  0
ARC
  5
24211
  8
0
  6
CONTINUOUS
 62
     3
 10
42.5000000000090594
 20
47.1484939899688698
 30
0.0
 40
11.9000000000077897
 50
148.6793304115938099
 51
179.9999999999851923
  0
ARC
  5
24212
  8
0
  6
CONTINUOUS
 62
     3
 10
97.4999999999928377
 20
47.1484939899688911
 30
0.0
 40
11.9000000000077097
 50
0.0000000000146051
 51
31.3206695884062398
  0
LINE
  5
24213
  8
0
  6
CONTINUOUS
 62
     3
 10
30.6000000000012697
 20
26.8718289426869887
 30
0.0
 11
30.6000000000012697
 21
47.1484939899719393
 31
0.0
  0
LINE
  5
24214
  8
0
  6
CONTINUOUS
 62
     3
 10
109.4000000000005031
 20
26.8718289426869887
 30
0.0
 11
109.4000000000005031
 21
47.1484939899719393
 31
0.0
  0
ARC
  5
24215
  8
0
  6
CONTINUOUS
 62
     3
 10
18.1000000000350596
 20
26.8718289426802599
 30
0.0
 40
12.4999999999662101
 50
338.8331479601882847
 51
0.0000000000308387
  0
ARC
  5
24216
  8
0
  6
CONTINUOUS
 62
     3
 10
121.8999999999673065
 20
26.87182894268037
 30
0.0
 40
12.4999999999667608
 50
179.9999999999695888
 51
201.1668520398112889
  0
ARC
  5
24217
  8
0
  6
CONTINUOUS
 62
     3
 10
53.0058090149399419
 20
13.4262594256528196
 30
0.0
 40
24.9058952308744317
 50
158.9839059890082069
 51
180.1507580287747032
  0
ARC
  5
24218
  8
0
  6
CONTINUOUS
 62
     3
 10
86.9941909850615787
 20
13.4262594256527592
 30
0.0
 40
24.9058952308747408
 50
359.8492419712254105
 51
21.0160940109916297
  0
LINE
  5
24219
  8
0
  6
CONTINUOUS
 62
     3
 10
28.1000000000012804
 20
13.0000000000000604
 30
0.0
 11
28.1000000000012804
 21
13.3607265125970098
 31
0.0
  0
LINE
  5
2421A
  8
0
  6
CONTINUOUS
 62
     3
 10
111.9000000000005031
 20
13.0000000000000497
 30
0.0
 11
111.9000000000005031
 21
13.3607265125970098
 31
0.0
  0
ARC
  5
2421B
  8
0
  6
CONTINUOUS
 62
     3
 10
52.9999999999251514
 20
9.1828497997143614
 30
0.0
 40
24.899999999923569
 50
201.6409603100173058
 51
205.0000000000414104
  0
ARC
  5
2421C
  8
0
  6
CONTINUOUS
 62
     3
 10
87.0000000000826219
 20
9.1828497997119136
 30
0.0
 40
24.8999999999171386
 50
334.9999999999579927
 51
338.3590396899828079
  0
LINE
  5
2421D
  8
0
  6
CONTINUOUS
 62
     3
 10
30.7405383194463901
 20
-1.9999999999990901
 30
0.0
 11
30.4329361027894301
 21
-1.3403449176130371
 31
0.0
  0
LINE
  5
2421E
  8
0
  6
CONTINUOUS
 62
     3
 10
109.259461680555404
 20
-1.9999999999990901
 30
0.0
 11
109.5670638972124067
 21
-1.3403449176130371
 31
0.0
  0
LINE
  5
2421F
  8
0
  6
CONTINUOUS
 62
     3
 10
-113.0961946980919066
 20
13.0000000000001208
 30
0.0
 11
-26.9038053019086192
 21
13.0000000000000995
 31
0.0
  0
LINE
  5
24220
  8
0
  6
CONTINUOUS
 62
     3
 10
26.9038053019080792
 20
13.0000000000000604
 30
0.0
 11
113.096194698091395
 21
13.0000000000000497
 31
0.0
  0
LINE
  5
24221
  8
0
  6
CONTINUOUS
 62
     3
 10
270.0000000000001137
 20
-0.0000000000000605
 30
0.0
 11
250.0000000000001137
 21
-0.0000000000000568
 31
0.0
  0
LINE
  5
24222
  8
0
  6
CONTINUOUS
 62
     3
 10
270.0000000000001137
 20
-0.0000000000000568
 30
0.0
 11
270.0000000000001137
 21
0.999999999999943
 31
0.0
  0
LINE
  5
24223
  8
0
  6
CONTINUOUS
 62
     3
 10
250.0000000000001137
 20
0.9999999999998294
 30
0.0
 11
270.0000000000001137
 21
0.9999999999998257
 31
0.0
  0
LINE
  5
24224
  8
0
  6
CONTINUOUS
 62
     3
 10
-269.9999999999998863
 20
0.9999999999999468
 30
0.0
 11
-250.0
 21
0.999999999999943
 31
0.0
  0
LINE
  5
24225
  8
0
  6
CONTINUOUS
 62
     3
 10
-250.0
 20
1.000000000000056
 30
0.0
 11
250.0
 21
0.999999999999965
 31
0.0
  0
LINE
  5
24226
  8
0
  6
CONTINUOUS
 62
     3
 10
-250.0
 20
0.0000000000000568
 30
0.0
 11
-269.9999999999998863
 21
0.0000000000000605
 31
0.0
  0
LINE
  5
24227
  8
0
  6
CONTINUOUS
 62
     3
 10
-269.9999999999998863
 20
1.000000000000056
 30
0.0
 11
-269.9999999999998863
 21
0.0000000000000568
 31
0.0
  0
LINE
  5
24228
  8
0
  6
CONTINUOUS
 62
     3
 10
250.0000000000001137
 20
-0.0000000000000568
 30
0.0
 11
-249.9999999999998863
 21
0.000000000000035
 31
0.0
  0
LINE
  5
24229
  8
0
  6
CONTINUOUS
 62
     3
 10
-26.9038053019086298
 20
13.0000000000000995
 30
0.0
 11
-25.8938731016283903
 21
1.4564221286395751
 31
0.0
  0
LINE
  5
2422A
  8
0
  6
CONTINUOUS
 62
     3
 10
-113.0961946980919066
 20
13.0000000000001101
 30
0.0
 11
-114.1061268983721959
 21
1.456422128639584
 31
0.0
  0
ARC
  5
2422B
  8
0
  6
CONTINUOUS
 62
     3
 10
-114.6042242474220956
 20
1.5000000000033471
 30
0.0
 40
0.5000000000031624
 50
270.0000000011904149
 51
355.0000000011899033
  0
ARC
  5
2422C
  8
0
  6
CONTINUOUS
 62
     3
 10
-25.3957757525783983
 20
1.500000000003346
 30
0.0
 40
0.5000000000031846
 50
184.9999999988106936
 51
269.9999999988046966
  0
LINE
  5
2422D
  8
0
  6
CONTINUOUS
 62
     3
 10
113.096194698091395
 20
13.0000000000000497
 30
0.0
 11
114.1061268983715991
 21
1.456422128639518
 31
0.0
  0
LINE
  5
2422E
  8
0
  6
CONTINUOUS
 62
     3
 10
26.9038053019081005
 20
13.0000000000001101
 30
0.0
 11
25.8938731016278503
 21
1.456422128639584
 31
0.0
  0
ARC
  5
2422F
  8
0
  6
CONTINUOUS
 62
     3
 10
25.3957757525778582
 20
1.500000000003308
 30
0.0
 40
0.5000000000031873
 50
270.0000000011957013
 51
355.0000000011946213
  0
ARC
  5
24230
  8
0
  6
CONTINUOUS
 62
     3
 10
114.6042242474215982
 20
1.5000000000032709
 30
0.0
 40
0.5000000000031662
 50
184.9999999988087893
 51
269.9999999988062882
  0
LINE
  5
24231
  8
0
  6
VERDECKT
 62
     1
 10
-35.3078542823914177
 20
397.8954131087040764
 30
0.0
 11
-104.6921457176085966
 21
397.8954131087040764
 31
0.0
  0
LINE
  5
24232
  8
0
  6
VERDECKT
 62
     1
 10
-108.1718923361112985
 20
-1.4928580859109379
 30
0.0
 11
-31.8281076638904814
 21
-1.4928580859109379
 31
0.0
  0
ARC
  5
24233
  8
0
  6
VERDECKT
 62
     1
 10
-35.6999999999986315
 20
390.9039459256050009
 30
0.0
 40
0.9999999999985802
 50
359.9999999999968168
 51
5.0000000000069154
  0
ARC
  5
24234
  8
0
  6
VERDECKT
 62
     1
 10
-104.300000000001404
 20
390.9039459256050009
 30
0.0
 40
0.9999999999985647
 50
174.9999999999930083
 51
180.0000000000032117
  0
LINE
  5
24235
  8
0
  6
VERDECKT
 62
     1
 10
-35.3078542823915882
 20
397.8954131087040764
 30
0.0
 11
-34.7038053019082966
 21
390.9911016683527123
 31
0.0
  0
LINE
  5
24236
  8
0
  6
VERDECKT
 62
     1
 10
-104.6921457176083976
 20
397.8954131087040764
 30
0.0
 11
-105.2961946980916963
 21
390.991101668352826
 31
0.0
  0
LINE
  5
24237
  8
0
  6
VERDECKT
 62
     1
 10
-105.2999999999998977
 20
57.4930577797127924
 30
0.0
 11
-105.2999999999998977
 21
390.9039459256050009
 31
0.0
  0
LINE
  5
24238
  8
0
  6
VERDECKT
 62
     1
 10
-34.7000000000000526
 20
57.4930577797127924
 30
0.0
 11
-34.7000000000000526
 21
390.9039459256050009
 31
0.0
  0
LINE
  5
24239
  8
0
  6
VERDECKT
 62
     1
 10
-104.6921457176083976
 20
397.8954131087040764
 30
0.0
 11
-105.8875793553184934
 21
398.0000000000014211
 31
0.0
  0
LINE
  5
2423A
  8
0
  6
VERDECKT
 62
     1
 10
-35.3078542823918724
 20
397.8954131087040764
 30
0.0
 11
-34.1124206446816132
 21
398.0000000000014211
 31
0.0
  0
LINE
  5
2423B
  8
0
  6
VERDECKT
 62
     1
 10
-31.828107663890691
 20
-1.4928580859108951
 30
0.0
 11
-30.7405383194463688
 21
-1.9999999999990461
 31
0.0
  0
LINE
  5
2423C
  8
0
  6
VERDECKT
 62
     1
 10
-108.1718923361112985
 20
-1.4928580859109819
 30
0.0
 11
-109.259461680555404
 21
-1.9999999999990461
 31
0.0
  0
LINE
  5
2423D
  8
0
  6
VERDECKT
 62
     1
 10
-108.1718923361110996
 20
-1.4928580859108509
 30
0.0
 11
-108.4794945527681023
 21
-0.833203003524799
 31
0.0
  0
LINE
  5
2423E
  8
0
  6
VERDECKT
 62
     1
 10
-31.8281076638907088
 20
-1.4928580859109379
 30
0.0
 11
-31.5205054472337807
 21
-0.8332030035249733
 31
0.0
  0
ARC
  5
2423F
  8
0
  6
VERDECKT
 62
     1
 10
-87.0000000000712959
 20
9.1828497997162408
 30
0.0
 40
23.6999999999292008
 50
179.9999999999928093
 51
205.0000000000437126
  0
ARC
  5
24240
  8
0
  6
VERDECKT
 62
     1
 10
-52.9999999999303668
 20
9.1828497997162142
 30
0.0
 40
23.6999999999290516
 50
334.9999999999557758
 51
0.0000000000071753
  0
LINE
  5
24241
  8
0
  6
VERDECKT
 62
     1
 10
-29.3000000000013188
 20
13.3623247367283895
 30
0.0
 11
-29.3000000000013188
 21
9.1828497997191771
 31
0.0
  0
LINE
  5
24242
  8
0
  6
VERDECKT
 62
     1
 10
-110.7000000000005002
 20
13.3623247367283895
 30
0.0
 11
-110.7000000000005002
 21
9.1828497997191771
 31
0.0
  0
ARC
  5
24243
  8
0
  6
VERDECKT
 62
     1
 10
-86.9941909850673198
 20
13.4262594256537398
 30
0.0
 40
23.7058952308689399
 50
158.9875872062671931
 51
180.1545266375775043
  0
ARC
  5
24244
  8
0
  6
VERDECKT
 62
     1
 10
-53.0058090149340018
 20
13.4262594256538499
 30
0.0
 40
23.7058952308684283
 50
359.8454733624221831
 51
21.0124127937331515
  0
ARC
  5
24245
  8
0
  6
VERDECKT
 62
     1
 10
-121.8999999999719961
 20
26.8718289426836101
 30
0.0
 40
13.6999999999715296
 50
338.8399832291506755
 51
0.0000000000165389
  0
ARC
  5
24246
  8
0
  6
VERDECKT
 62
     1
 10
-18.1000000000297803
 20
26.8718289426836101
 30
0.0
 40
13.6999999999715403
 50
179.999999999983487
 51
201.1600167708488982
  0
LINE
  5
24247
  8
0
  6
VERDECKT
 62
     1
 10
-31.8000000000013188
 20
47.1484939899719393
 30
0.0
 11
-31.8000000000013188
 21
26.8718289426875607
 31
0.0
  0
LINE
  5
24248
  8
0
  6
VERDECKT
 62
     1
 10
-108.2000000000005002
 20
47.1484939899719393
 30
0.0
 11
-108.2000000000005002
 21
26.8718289426875607
 31
0.0
  0
ARC
  5
24249
  8
0
  6
VERDECKT
 62
     1
 10
-97.4999999999957936
 20
47.1484939899698432
 30
0.0
 40
10.7000000000047102
 50
148.6793304115896888
 51
179.9999999999886882
  0
ARC
  5
2424A
  8
0
  6
VERDECKT
 62
     1
 10
-42.5000000000059472
 20
47.1484939899698787
 30
0.0
 40
10.7000000000046196
 50
0.000000000010992
 51
31.3206695884103112
  0
ARC
  5
2424B
  8
0
  6
VERDECKT
 62
     1
 10
-114.4999999999837001
 20
57.4930577797057012
 30
0.0
 40
9.1999999999828486
 50
328.6793304115668093
 51
0.0000000000441715
  0
ARC
  5
2424C
  8
0
  6
VERDECKT
 62
     1
 10
-25.5000000000179909
 20
57.4930577797057296
 30
0.0
 40
9.1999999999829694
 50
179.9999999999560885
 51
211.3206695884329918
  0
LINE
  5
2424D
  8
0
  6
VERDECKT
 62
     1
 10
-28.1000000000012804
 20
13.0000000000000995
 30
0.0
 11
-28.1000000000012804
 21
9.1828497997192926
 31
0.0
  0
LINE
  5
2424E
  8
0
  6
VERDECKT
 62
     1
 10
-111.9000000000005031
 20
13.0000000000001208
 30
0.0
 11
-111.9000000000005031
 21
9.1828497997192926
 31
0.0
  0
ARC
  5
2424F
  8
0
  6
VERDECKT
 62
     1
 10
-87.0000000000729443
 20
9.1828497997159335
 30
0.0
 40
24.8999999999276191
 50
179.9999999999922977
 51
201.6409603100175048
  0
ARC
  5
24250
  8
0
  6
VERDECKT
 62
     1
 10
-52.9999999999285833
 20
9.1828497997158856
 30
0.0
 40
24.8999999999273314
 50
338.3590396899822963
 51
0.0000000000078369
  0
LINE
  5
24251
  8
0
  6
VERDECKT
 62
     1
 10
35.3078542823914177
 20
397.8954131087040764
 30
0.0
 11
104.6921457176085966
 21
397.8954131087040764
 31
0.0
  0
LINE
  5
24252
  8
0
  6
VERDECKT
 62
     1
 10
108.1718923361112985
 20
-1.4928580859109379
 30
0.0
 11
31.8281076638904814
 21
-1.4928580859109379
 31
0.0
  0
ARC
  5
24253
  8
0
  6
VERDECKT
 62
     1
 10
35.6999999999986315
 20
390.9039459256050009
 30
0.0
 40
0.9999999999985789
 50
174.9999999999930935
 51
180.0000000000032117
  0
ARC
  5
24254
  8
0
  6
VERDECKT
 62
     1
 10
104.300000000001404
 20
390.9039459256050009
 30
0.0
 40
0.9999999999985663
 50
359.9999999999968168
 51
5.0000000000069651
  0
LINE
  5
24255
  8
0
  6
VERDECKT
 62
     1
 10
104.6921457176083976
 20
397.8954131087040764
 30
0.0
 11
105.2961946980916963
 21
390.991101668352826
 31
0.0
  0
LINE
  5
24256
  8
0
  6
VERDECKT
 62
     1
 10
35.3078542823915882
 20
397.8954131087040764
 30
0.0
 11
34.7038053019082966
 21
390.9911016683527123
 31
0.0
  0
LINE
  5
24257
  8
0
  6
VERDECKT
 62
     1
 10
105.2999999999998977
 20
390.9039459256050009
 30
0.0
 11
105.2999999999998977
 21
57.4930577797127924
 31
0.0
  0
LINE
  5
24258
  8
0
  6
VERDECKT
 62
     1
 10
34.7000000000000526
 20
390.9039459256050009
 30
0.0
 11
34.7000000000000526
 21
57.4930577797127924
 31
0.0
  0
LINE
  5
24259
  8
0
  6
VERDECKT
 62
     1
 10
35.3078542823918724
 20
397.8954131087040764
 30
0.0
 11
34.1124206446816132
 21
398.0000000000014211
 31
0.0
  0
LINE
  5
2425A
  8
0
  6
VERDECKT
 62
     1
 10
104.6921457176083976
 20
397.8954131087040764
 30
0.0
 11
105.8875793553184934
 21
398.0000000000014211
 31
0.0
  0
LINE
  5
2425B
  8
0
  6
VERDECKT
 62
     1
 10
108.1718923361112985
 20
-1.4928580859109819
 30
0.0
 11
109.259461680555404
 21
-1.9999999999990461
 31
0.0
  0
LINE
  5
2425C
  8
0
  6
VERDECKT
 62
     1
 10
31.828107663890691
 20
-1.4928580859108951
 30
0.0
 11
30.7405383194463688
 21
-1.9999999999990461
 31
0.0
  0
LINE
  5
2425D
  8
0
  6
VERDECKT
 62
     1
 10
31.8281076638907088
 20
-1.4928580859109379
 30
0.0
 11
31.5205054472337807
 21
-0.8332030035249733
 31
0.0
  0
LINE
  5
2425E
  8
0
  6
VERDECKT
 62
     1
 10
108.1718923361110996
 20
-1.4928580859108509
 30
0.0
 11
108.4794945527681023
 21
-0.833203003524799
 31
0.0
  0
ARC
  5
2425F
  8
0
  6
VERDECKT
 62
     1
 10
52.9999999999303597
 20
9.1828497997162071
 30
0.0
 40
23.6999999999290409
 50
179.9999999999928093
 51
205.0000000000441958
  0
ARC
  5
24260
  8
0
  6
VERDECKT
 62
     1
 10
87.0000000000712674
 20
9.1828497997162462
 30
0.0
 40
23.6999999999292186
 50
334.9999999999562874
 51
0.0000000000071244
  0
LINE
  5
24261
  8
0
  6
VERDECKT
 62
     1
 10
29.3000000000013188
 20
9.1828497997191771
 30
0.0
 11
29.3000000000013188
 21
13.3623247367283895
 31
0.0
  0
LINE
  5
24262
  8
0
  6
VERDECKT
 62
     1
 10
110.7000000000005002
 20
9.1828497997191771
 30
0.0
 11
110.7000000000005002
 21
13.3623247367283895
 31
0.0
  0
ARC
  5
24263
  8
0
  6
VERDECKT
 62
     1
 10
53.0058090149339165
 20
13.4262594256538499
 30
0.0
 40
23.7058952308683502
 50
158.9875872062667952
 51
180.1545266375777885
  0
ARC
  5
24264
  8
0
  6
VERDECKT
 62
     1
 10
86.9941909850673341
 20
13.4262594256537504
 30
0.0
 40
23.7058952308689186
 50
359.8454733624225241
 51
21.0124127937327998
  0
ARC
  5
24265
  8
0
  6
VERDECKT
 62
     1
 10
18.1000000000301711
 20
26.8718289426835284
 30
0.0
 40
13.6999999999711406
 50
338.8399832291506755
 51
0.0000000000168188
  0
ARC
  5
24266
  8
0
  6
VERDECKT
 62
     1
 10
121.8999999999719961
 20
26.8718289426836101
 30
0.0
 40
13.6999999999714905
 50
179.9999999999834017
 51
201.1600167708492961
  0
LINE
  5
24267
  8
0
  6
VERDECKT
 62
     1
 10
31.8000000000013188
 20
26.8718289426875607
 30
0.0
 11
31.8000000000013188
 21
47.1484939899719393
 31
0.0
  0
LINE
  5
24268
  8
0
  6
VERDECKT
 62
     1
 10
108.2000000000005002
 20
26.8718289426875607
 30
0.0
 11
108.2000000000005002
 21
47.1484939899719393
 31
0.0
  0
ARC
  5
24269
  8
0
  6
VERDECKT
 62
     1
 10
42.500000000005997
 20
47.1484939899698574
 30
0.0
 40
10.7000000000046693
 50
148.6793304115896888
 51
179.9999999999888018
  0
ARC
  5
2426A
  8
0
  6
VERDECKT
 62
     1
 10
97.4999999999957936
 20
47.1484939899698432
 30
0.0
 40
10.7000000000047102
 50
0.0000000000112464
 51
31.3206695884103112
  0
ARC
  5
2426B
  8
0
  6
VERDECKT
 62
     1
 10
25.5000000000180194
 20
57.4930577797057225
 30
0.0
 40
9.1999999999829356
 50
328.6793304115669798
 51
0.0000000000440698
  0
ARC
  5
2426C
  8
0
  6
VERDECKT
 62
     1
 10
114.4999999999836007
 20
57.493057779705687
 30
0.0
 40
9.1999999999827811
 50
179.9999999999558042
 51
211.3206695884333897
  0
LINE
  5
2426D
  8
0
  6
VERDECKT
 62
     1
 10
28.1000000000012804
 20
9.1828497997192926
 30
0.0
 11
28.1000000000012804
 21
13.0000000000000604
 31
0.0
  0
LINE
  5
2426E
  8
0
  6
VERDECKT
 62
     1
 10
111.9000000000005031
 20
9.1828497997192926
 30
0.0
 11
111.9000000000005031
 21
13.0000000000000497
 31
0.0
  0
ARC
  5
2426F
  8
0
  6
VERDECKT
 62
     1
 10
52.9999999999287397
 20
9.1828497997159104
 30
0.0
 40
24.8999999999274912
 50
179.9999999999922125
 51
201.6409603100175048
  0
ARC
  5
24270
  8
0
  6
VERDECKT
 62
     1
 10
87.0000000000730722
 20
9.1828497997159033
 30
0.0
 40
24.8999999999274912
 50
338.35903968998241
 51
0.000000000007786
  0
LINE
  5
24271
  8
0
  6
VERDECKT
 62
     1
 10
-112.1000000000001933
 20
12.9128442572524609
 30
0.0
 11
-27.9000000000003787
 21
12.9128442572524502
 31
0.0
  0
LINE
  5
24272
  8
0
  6
VERDECKT
 62
     1
 10
27.8999999999998387
 20
12.9128442572524094
 30
0.0
 11
112.0999999999995964
 21
12.9128442572523898
 31
0.0
  0
LINE
  5
24273
  8
0
  6
VERDECKT
 62
     1
 10
-112.1000000000001933
 20
12.9128442572524609
 30
0.0
 11
-113.0961946980919066
 21
13.0000000000001208
 31
0.0
  0
LINE
  5
24274
  8
0
  6
VERDECKT
 62
     1
 10
-27.9000000000003787
 20
12.9128442572524502
 30
0.0
 11
-26.9038053019086192
 21
13.0000000000000995
 31
0.0
  0
ARC
  5
24275
  8
0
  6
VERDECKT
 62
     1
 10
-114.6042242474294994
 20
1.499999999996436
 30
0.0
 40
1.499999999996275
 50
270.0000000006822916
 51
355.0000000006801884
  0
ARC
  5
24276
  8
0
  6
VERDECKT
 62
     1
 10
-25.3957757525710086
 20
1.49999999999641
 30
0.0
 40
1.4999999999962581
 50
184.9999999993191864
 51
269.99999999931822
  0
LINE
  5
24277
  8
0
  6
VERDECKT
 62
     1
 10
-27.9000000000003787
 20
12.9128442572524502
 30
0.0
 11
-26.8900677997064612
 21
1.3692663858930061
 31
0.0
  0
LINE
  5
24278
  8
0
  6
VERDECKT
 62
     1
 10
-112.1000000000001933
 20
12.9128442572524609
 30
0.0
 11
-113.1099322002940966
 21
1.369266385893013
 31
0.0
  0
LINE
  5
24279
  8
0
  6
VERDECKT
 62
     1
 10
27.8999999999998316
 20
12.9128442572524094
 30
0.0
 11
26.9038053019080792
 21
13.0000000000000604
 31
0.0
  0
LINE
  5
2427A
  8
0
  6
VERDECKT
 62
     1
 10
112.0999999999995964
 20
12.9128442572523898
 30
0.0
 11
113.096194698091395
 21
13.0000000000000497
 31
0.0
  0
ARC
  5
2427B
  8
0
  6
VERDECKT
 62
     1
 10
25.3957757525704793
 20
1.4999999999963669
 30
0.0
 40
1.4999999999962541
 50
270.0000000006816094
 51
355.0000000006828031
  0
ARC
  5
2427C
  8
0
  6
VERDECKT
 62
     1
 10
114.604224247429002
 20
1.499999999996366
 30
0.0
 40
1.4999999999962721
 50
184.9999999993196127
 51
269.9999999993177084
  0
LINE
  5
2427D
  8
0
  6
VERDECKT
 62
     1
 10
112.0999999999995964
 20
12.9128442572523898
 30
0.0
 11
113.1099322002934997
 21
1.369266385892949
 31
0.0
  0
LINE
  5
2427E
  8
0
  6
VERDECKT
 62
     1
 10
27.8999999999998387
 20
12.9128442572524609
 30
0.0
 11
26.8900677997059283
 21
1.369266385893013
 31
0.0
  0
LINE
  5
2427F
  8
0
  6
VERDECKT
 62
     1
 10
-246.9999999999998863
 20
0.999999999999943
 30
0.0
 11
-246.9999999999998863
 21
0.0000000000000568
 31
0.0
  0
LINE
  5
24280
  8
0
  6
VERDECKT
 62
     1
 10
-252.9999999999998863
 20
0.999999999999944
 30
0.0
 11
-252.9999999999998863
 21
0.0000000000000577
 31
0.0
  0
LINE
  5
24281
  8
0
  6
VERDECKT
 62
     1
 10
247.0000000000001137
 20
-0.0000000000000568
 30
0.0
 11
247.0000000000001137
 21
0.9999999999998294
 31
0.0
  0
LINE
  5
24282
  8
0
  6
VERDECKT
 62
     1
 10
253.0000000000001137
 20
-0.0000000000000577
 30
0.0
 11
253.0000000000001137
 21
0.9999999999998285
 31
0.0
  0
ENDBLK
  5
24284
  8
0
  0
ENDSEC
  0
SECTION
  2
ENTITIES
  0
TEXT
  5
5DDE
  8
VOLL
 10
78.076754716981128
 20
31.025947764705851
 30
0.0
 40
1.8
  1

  7
GREEKS
  0
INSERT
  5
5DDF
  8
ADSK_ASSOC_ENTITY_BACKUPS
  2
*S1
 10
0.0
 20
0.0
 30
0.0
  0
INSERT
  5
24195
  8
STEMPEL
  2
A$CD8E4B089
 10
0.0
 20
0.0
 30
0.0
  0
INSERT
  5
241EC
  8
STEMPEL
  2
A$C5DEB7FE4
 10
-750.0
 20
0.0
 30
0.0
  0
INSERT
  5
24285
  8
STEMPEL
  2
A$C3FE62E72
 10
0.0
 20
-500.0
 30
0.0
  0
VIEWPORT
  5
1571
 67
     1
  8
0
 10
296.7500014119777916
 20
209.7500005963595129
 30
0.0
 40
795.6883637233961508
 41
422.1649484536084174
 68
     1
 69
     1
1001
ACAD
1000
MVIEW
1002
{
1070
    16
1010
0.0
1020
0.0
1030
0.0
1010
0.0
1020
0.0
1030
1.0
1040
0.0
1040
422.1649484536084174
1040
296.7500014119777916
1040
209.7500005963595129
1040
50.0
1040
0.0
1040
0.0
1070
     0
1070
  1500
1070
     1
1070
     1
1070
     0
1070
     0
1070
     0
1070
     0
1040
0.0
1040
0.0
1040
0.0
1040
10.0
1040
10.0
1040
10.0
1040
10.0
1070
     0
1002
{
1002
}
1002
}
1001
GENIUS_GENOBJ-N-SDF_13
1002
{
1000
OWNER
1000
GEN
1002
}
1001
GENIUS_GENODEF_13
1002
{
1000
HIER
1070
     0
1002
}
1002
{
1000
MANEDIT
1070
     0
1002
}
1002
{
1000
NOSEL
1070
     0
1002
}
1002
{
1000
BEHIND
1070
     0
1002
}
1002
{
1000
OTHER
1070
     0
1002
}
1002
{
1000
REACTOR
1002
}
1001
GENIUS_GENSCREG_15
1000
PF
1040
1.0
1000
DF
1040
1.0
1000
MIN
1011
-98.3237311841076007
1021
0.0
1031
0.0
1021
-84.5929851452383446
1031
0.0
1000
MAX
1011
756.7695330154733711
1021
0.0
1031
0.0
1021
339.8977580961391141
1031
0.0
1000
FLAGS
1070
     4
  0
ENDSEC
  0
EOF
