  0
SECTION
  2
HEADER
  9
$ACADVER
  1
AC1009
  9
$INSBASE
 10
0.0
 20
0.0
 30
0.0
  9
$EXTMIN
 10
-150.0
 20
-350.0
 30
-0.0000000000000686
  9
$EXTMAX
 10
150.0000000000001137
 20
300.0000000000001137
 30
0.0000000000000568
  9
$LIMMIN
 10
0.0
 20
0.0
  9
$LIMMAX
 10
594.0
 20
840.0
  9
$ORTHOMODE
 70
     1
  9
$REGENMODE
 70
     1
  9
$FILLMODE
 70
     1
  9
$QTEXTMODE
 70
     0
  9
$MIRRTEXT
 70
     1
  9
$DRAGMODE
 70
     2
  9
$LTSCALE
 40
10.0
  9
$OSMODE
 70
   511
  9
$ATTMODE
 70
     1
  9
$TEXTSIZE
 40
3.5
  9
$TRACEWID
 40
1.0
  9
$TEXTSTYLE
  7
STANDARD
  9
$CLAYER
  8
STEMPEL
  9
$CELTYPE
  6
BYLAYER
  9
$CECOLOR
 62
   256
  9
$DIMSCALE
 40
1.0
  9
$DIMASZ
 40
3.5
  9
$DIMEXO
 40
1.0
  9
$DIMDLI
 40
0.38
  9
$DIMRND
 40
0.0
  9
$DIMDLE
 40
0.0
  9
$DIMEXE
 40
1.0
  9
$DIMTP
 40
0.0
  9
$DIMTM
 40
0.000000001
  9
$DIMTXT
 40
3.5
  9
$DIMCEN
 40
0.09
  9
$DIMTSZ
 40
0.0
  9
$DIMTOL
 70
     0
  9
$DIMLIM
 70
     0
  9
$DIMTIH
 70
     0
  9
$DIMTOH
 70
     0
  9
$DIMSE1
 70
     0
  9
$DIMSE2
 70
     0
  9
$DIMTAD
 70
     1
  9
$DIMZIN
 70
     8
  9
$DIMBLK
  1

  9
$DIMASO
 70
     1
  9
$DIMSHO
 70
     0
  9
$DIMPOST
  1

  9
$DIMAPOST
  1

  9
$DIMALT
 70
     0
  9
$DIMALTD
 70
     2
  9
$DIMALTF
 40
25.3999999999999986
  9
$DIMLFAC
 40
2.0
  9
$DIMTOFL
 70
     1
  9
$DIMTVP
 40
0.0
  9
$DIMTIX
 70
     0
  9
$DIMSOXD
 70
     0
  9
$DIMSAH
 70
     0
  9
$DIMBLK1
  1

  9
$DIMBLK2
  1

  9
$DIMSTYLE
  2
LORO
  9
$DIMCLRD
 70
     0
  9
$DIMCLRE
 70
     0
  9
$DIMCLRT
 70
     1
  9
$DIMTFAC
 40
0.5
  9
$DIMGAP
 40
1.5
  9
$LUNITS
 70
     2
  9
$LUPREC
 70
     2
  9
$SKETCHINC
 40
1.0
  9
$FILLETRAD
 40
0.5
  9
$AUNITS
 70
     0
  9
$AUPREC
 70
     0
  9
$MENU
  1
ACAD
  9
$ELEVATION
 40
0.0
  9
$PELEVATION
 40
0.0
  9
$THICKNESS
 40
0.0
  9
$LIMCHECK
 70
     0
  9
$BLIPMODE
 70
     0
  9
$CHAMFERA
 40
0.0
  9
$CHAMFERB
 40
0.0
  9
$SKPOLY
 70
     0
  9
$TDCREATE
 40
2455397.867048610933125
  9
$TDUPDATE
 40
2460412.3289467599242926
  9
$TDINDWG
 40
1.4404923842999999
  9
$TDUSRTIMER
 40
1.4404923842999999
  9
$USRTIMER
 70
     1
  9
$ANGBASE
 50
0.0
  9
$ANGDIR
 70
     0
  9
$PDMODE
 70
     0
  9
$PDSIZE
 40
0.0
  9
$PLINEWID
 40
0.0
  9
$COORDS
 70
     1
  9
$SPLFRAME
 70
     0
  9
$SPLINETYPE
 70
     6
  9
$SPLINESEGS
 70
     8
  9
$ATTDIA
 70
     1
  9
$ATTREQ
 70
     1
  9
$HANDLING
 70
     1
  9
$HANDSEED
  5
1032B
  9
$SURFTAB1
 70
     6
  9
$SURFTAB2
 70
     6
  9
$SURFTYPE
 70
     6
  9
$SURFU
 70
     6
  9
$SURFV
 70
     6
  9
$UCSNAME
  2

  9
$UCSORG
 10
0.0
 20
0.0
 30
0.0
  9
$UCSXDIR
 10
1.0
 20
0.0
 30
0.0
  9
$UCSYDIR
 10
0.0
 20
1.0
 30
0.0
  9
$PUCSNAME
  2

  9
$PUCSORG
 10
0.0
 20
0.0
 30
0.0
  9
$PUCSXDIR
 10
1.0
 20
0.0
 30
0.0
  9
$PUCSYDIR
 10
0.0
 20
1.0
 30
0.0
  9
$USERI1
 70
     0
  9
$USERI2
 70
     0
  9
$USERI3
 70
     0
  9
$USERI4
 70
     0
  9
$USERI5
 70
     0
  9
$USERR1
 40
0.0
  9
$USERR2
 40
0.0
  9
$USERR3
 40
0.0
  9
$USERR4
 40
0.0
  9
$USERR5
 40
0.0
  9
$WORLDVIEW
 70
     1
  9
$SHADEDGE
 70
     3
  9
$SHADEDIF
 70
    70
  9
$TILEMODE
 70
     1
  9
$MAXACTVP
 70
    16
  9
$PLIMCHECK
 70
     0
  9
$PEXTMIN
 10
1.0000000000000000E+20
 20
1.0000000000000000E+20
 30
1.0000000000000000E+20
  9
$PEXTMAX
 10
-1.0000000000000000E+20
 20
-1.0000000000000000E+20
 30
-1.0000000000000000E+20
  9
$PLIMMIN
 10
-0.2491127769658874
 20
-0.2493103144285272
  9
$PLIMMAX
 10
419.7508872230342263
 20
296.7506896855715013
  9
$UNITMODE
 70
     0
  9
$VISRETAIN
 70
     0
  9
$PLINEGEN
 70
     0
  9
$PSLTSCALE
 70
     0
  0
ENDSEC
  0
SECTION
  2
TABLES
  0
TABLE
  2
VPORT
 70
     1
  0
VPORT
  2
*ACTIVE
 70
     0
 10
0.0
 20
0.0
 11
1.0
 21
1.0
 12
0.0000000000001137
 22
-99.9999999999999432
 13
0.0
 23
0.0
 14
1.0
 24
1.0
 15
10.0
 25
10.0
 16
-0.0000000000003207
 26
0.0
 36
1444.5231769535409967
 17
0.0
 27
75.0
 37
-0.0000000000000049
 40
653.3248081841433077
 41
1.8720136518771331
 42
50.0
 43
0.0
 44
0.0
 50
0.0
 51
0.0
 71
     0
 72
  1500
 73
     1
 74
     0
 75
     0
 76
     0
 77
     0
 78
     0
  0
ENDTAB
  0
TABLE
  2
LTYPE
 70
     3
  0
LTYPE
  2
CONTINUOUS
 70
     0
  3
Solid line
 72
    65
 73
     0
 40
0.0
  0
LTYPE
  2
STRICHPUNKT
 70
     0
  3
__ . __ . __ . __ . __ . __ . __ . __ . __ . __
 72
    65
 73
     4
 40
1.0
 49
0.5
 49
-0.25
 49
0.0
 49
-0.25
  0
LTYPE
  2
VERDECKT
 70
     0
  3
Verdeckt __ __ __ __ __ __ __ __ __ __ __ __ __
 72
    65
 73
     2
 40
0.375
 49
0.25
 49
-0.125
  0
ENDTAB
  0
TABLE
  2
LAYER
 70
     5
  0
LAYER
  2
0
 70
     0
 62
     7
  6
CONTINUOUS
  0
LAYER
  2
STEMPEL
 70
     0
 62
     3
  6
CONTINUOUS
  0
LAYER
  2
ADSK_ASSOC_ENTITY_BACKUPS
 70
     1
 62
    -7
  6
CONTINUOUS
  0
ENDTAB
  0
TABLE
  2
STYLE
 70
     1
  0
STYLE
  2
STANDARD
 70
     0
 40
0.0
 41
0.8
 50
0.0
 71
     0
 42
3.5
  3
simplex.shx
  4

  0
ENDTAB
  0
TABLE
  2
VIEW
 70
     0
  0
ENDTAB
  0
TABLE
  2
UCS
 70
     0
  0
ENDTAB
  0
TABLE
  2
APPID
 70
    27
  0
APPID
  2
ACAD
 70
     0
  0
APPID
  2
ACAECLAYERSTANDARD
 70
     0
  0
APPID
  2
ACCMTRANSPARENCY
 70
     0
  0
APPID
  2
ACAD_NAV_VCDISPLAY
 70
     0
  0
APPID
  2
ACAD_PSEXT
 70
     0
  0
APPID
  2
ACAD_STEPID
 70
     0
  0
APPID
  2
ACAD_EXEMPT_FROM_CAD_STANDARDS
 70
     0
  0
APPID
  2
ACSYNERGY
 70
     0
  0
APPID
  2
SYNERGY_BODY_TBR_ID
 70
     0
  0
APPID
  2
ACAD_VIEW_EDGE_ID
 70
     0
  0
APPID
  2
GRADIENTCOLOR1ACI
 70
     0
  0
APPID
  2
GRADIENTCOLOR2ACI
 70
     0
  0
APPID
  2
ACAD_DSTYLE_DIMRADIAL_EXTENSION
 70
     0
  0
APPID
  2
ACADANNOMONITORALERTICONDI
 70
     0
  0
APPID
  2
ACAD_MLEADERVER
 70
     0
  0
APPID
  2
ACSYNERGYSKETCH
 70
     0
  0
APPID
  2
ACAD_MODELDOC_XFORM
 70
     0
  0
APPID
  2
ACDBDYNAMICBLOCKGUID
 70
     0
  0
APPID
  2
ACAD_DSTYLE_DIMJAG
 70
     0
  0
APPID
  2
ACAD_DSTYLE_DIMBREAK
 70
     0
  0
APPID
  2
ACAD_DSTYLE_DIMTALN
 70
     0
  0
APPID
  2
ACADANNOPO
 70
     0
  0
APPID
  2
PLOTTRANSPARENCY
 70
     0
  0
APPID
  2
ACADANNOTATIVE
 70
     0
  0
APPID
  2
ACAD_DIMASSOC_CALC_DIMLFAC
 70
     0
  0
APPID
  2
ACAD_DIMASSOC_DIMLFAC
 70
     0
  0
APPID
  2
ACAD_DIMASSOC_OVERRIDDEN_D
 70
     0
  0
ENDTAB
  0
TABLE
  2
DIMSTYLE
 70
     3
  0
DIMSTYLE
  2
LORO
 70
     0
  3

  4

  5

  6

  7

 40
1.0
 41
3.5
 42
1.0
 43
0.38
 44
1.0
 45
0.0
 46
0.0
 47
0.0
 48
0.000000001
140
3.5
141
0.09
142
0.0
143
25.3999999999999986
144
2.0
145
0.0
146
0.5
147
1.5
 71
     0
 72
     0
 73
     0
 74
     0
 75
     0
 76
     0
 77
     1
 78
     8
170
     0
171
     2
172
     1
173
     0
174
     0
175
     0
176
     0
177
     0
178
     1
  0
ENDTAB
  0
ENDSEC
  0
SECTION
  2
BLOCKS
  0
BLOCK
  8
0
  2
$MODEL_SPACE
 70
     0
 10
0.0
 20
0.0
 30
0.0
  3
$MODEL_SPACE
  1

  0
ENDBLK
  5
38
  8
0
  0
BLOCK
 67
     1
  8
0
  2
$PAPER_SPACE
 70
     0
 10
0.0
 20
0.0
 30
0.0
  3
$PAPER_SPACE
  1

  0
ENDBLK
  5
36
 67
     1
  8
0
  0
BLOCK
  8
0
  2
*S0
 70
     1
 10
0.0
 20
0.0
 30
0.0
  3
*S0
  1

  0
ENDBLK
  5
7128
  8
0
  0
BLOCK
  8
0
  2
A$C8846A10B
 70
     0
 10
0.0
 20
0.0
 30
0.0
  3
A$C8846A10B
  1

  0
CIRCLE
  5
10264
  8
0
  6
CONTINUOUS
 62
     3
 10
0.000000000000039
 20
0.0000000000000079
 30
0.0
 40
35.2999999999999616
  0
CIRCLE
  5
10265
  8
0
  6
CONTINUOUS
 62
     3
 10
0.0
 20
-0.0000000000000068
 30
0.0
 40
34.6921457176084687
  0
CIRCLE
  5
10266
  8
0
  6
CONTINUOUS
 62
     3
 10
0.0000000000000666
 20
0.0000000000000116
 30
0.0
 40
39.2594616805545229
  0
CIRCLE
  5
10267
  8
0
  6
CONTINUOUS
 62
     3
 10
0.0000000000000665
 20
0.0000000000000116
 30
0.0
 40
38.1718923361102114
  0
CIRCLE
  5
10268
  8
0
  6
CONTINUOUS
 62
     3
 10
0.0000000000000641
 20
0.0000000000000109
 30
0.0
 40
41.8999999999996291
  0
CIRCLE
  5
10269
  8
0
  6
CONTINUOUS
 62
     3
 10
0.0000000000000632
 20
0.0000000000000106
 30
0.0
 40
41.9000862159354028
  0
CIRCLE
  5
1026A
  8
0
  6
CONTINUOUS
 62
     3
 10
0.0000000000000633
 20
0.0
 30
0.0
 40
41.9500000000000028
  0
CIRCLE
  5
1026B
  8
0
  6
CONTINUOUS
 62
     3
 10
130.0
 20
-130.0
 30
0.0000000000000568
 40
3.0
  0
CIRCLE
  5
1026C
  8
0
  6
CONTINUOUS
 62
     3
 10
-129.9999999999998863
 20
130.0
 30
-0.0000000000000568
 40
3.0
  0
CIRCLE
  5
1026D
  8
0
  6
CONTINUOUS
 62
     3
 10
130.0000000000001137
 20
130.0
 30
0.0000000000000568
 40
3.0
  0
CIRCLE
  5
1026E
  8
0
  6
CONTINUOUS
 62
     3
 10
-130.0
 20
-130.0
 30
-0.0000000000000568
 40
3.0
  0
ARC
  5
1026F
  8
0
  6
CONTINUOUS
 62
     3
 10
130.0000000000001137
 20
130.0
 30
0.0000000000000568
 40
20.0
 50
0.0
 51
90.0
  0
LINE
  5
10270
  8
0
  6
CONTINUOUS
 62
     3
 10
150.0000000000001137
 20
-130.0
 30
0.0000000000000568
 11
150.0000000000001137
 21
130.0
 31
0.0000000000000568
  0
LINE
  5
10271
  8
0
  6
CONTINUOUS
 62
     3
 10
130.0000000000001137
 20
150.0
 30
0.0000000000000568
 11
-129.9999999999998863
 21
150.0
 31
-0.0000000000000009
  0
ARC
  5
10272
  8
0
  6
CONTINUOUS
 62
     3
 10
-129.9999999999998863
 20
130.0
 30
-0.0000000000000568
 40
20.0
 50
90.0
 51
180.0
  0
LINE
  5
10273
  8
0
  6
CONTINUOUS
 62
     3
 10
-149.9999999999998863
 20
130.0
 30
-0.0000000000000568
 11
-149.9999999999998863
 21
-130.0
 31
-0.0000000000000568
  0
ARC
  5
10274
  8
0
  6
CONTINUOUS
 62
     3
 10
-129.9999999999998863
 20
-130.0
 30
-0.0000000000000568
 40
20.0
 50
180.0
 51
270.0
  0
LINE
  5
10275
  8
0
  6
CONTINUOUS
 62
     3
 10
-129.9999999999998863
 20
-150.0
 30
-0.0000000000000568
 11
130.0
 21
-150.0
 31
0.0000000000000009
  0
ARC
  5
10276
  8
0
  6
CONTINUOUS
 62
     3
 10
130.0000000000001137
 20
-130.0
 30
0.0000000000000568
 40
20.0
 50
270.0
 51
0.0
  0
CIRCLE
  5
10277
  8
0
  6
VERDECKT
 62
     1
 10
0.000000000000039
 20
0.0000000000000079
 30
0.0
 40
36.5
  0
CIRCLE
  5
10278
  8
0
  6
VERDECKT
 62
     1
 10
0.0
 20
-0.0000000000000068
 30
0.0
 40
35.8875793553185076
  0
CIRCLE
  5
10279
  8
0
  6
VERDECKT
 62
     1
 10
0.0000000000000641
 20
0.0000000000000109
 30
0.0
 40
40.6999999999995907
  0
CIRCLE
  5
1027A
  8
0
  6
VERDECKT
 62
     1
 10
0.0000000000000602
 20
0.0000000000000098
 30
0.0
 40
38.1999999999995907
  0
CIRCLE
  5
1027B
  8
0
  6
VERDECKT
 62
     1
 10
0.0000000000000602
 20
0.0000000000000098
 30
0.0
 40
39.3999999999996433
  0
CIRCLE
  5
1027C
  8
0
  6
VERDECKT
 62
     1
 10
0.0000000000000632
 20
0.0000000000000106
 30
0.0
 40
40.7000862159353431
  0
CIRCLE
  5
1027D
  8
0
  6
VERDECKT
 62
     1
 10
0.0000000000000633
 20
0.0
 30
0.0
 40
42.9368770777892834
  0
ENDBLK
  5
1027F
  8
0
  0
BLOCK
  8
0
  2
A$C9CC2A219
 70
     0
 10
0.0
 20
0.0
 30
0.0
  3
A$C9CC2A219
  1

  0
LINE
  5
10283
  8
0
  6
CONTINUOUS
 62
     3
 10
-35.887579355318401
 20
-0.0000000000000568
 30
0.0
 11
35.887579355318401
 21
-0.0000000000000568
 31
0.0
210
0.0
220
1.0
230
-0.0000000000000002
  0
LINE
  5
10284
  8
0
  6
CONTINUOUS
 62
     3
 10
39.2594616805545229
 20
300.0000000000001137
 30
-0.0000000000000666
 11
-39.2594616805545229
 21
300.0000000000001137
 31
-0.0000000000000666
210
0.0
220
1.0
230
-0.0000000000000002
  0
ARC
  5
10285
  8
0
  6
CONTINUOUS
 62
     3
 10
-44.4999999999829399
 20
175.5069422202952012
 30
0.0
 40
7.9999999999829461
210
0.0
220
-0.0000000000000002
230
-1.0
 50
359.9999999999552074
 51
31.3206695884371484
  0
ARC
  5
10286
  8
0
  6
CONTINUOUS
 62
     3
 10
44.4999999999829399
 20
175.5069422202952012
 30
0.0
 40
7.9999999999829443
210
0.0
220
-0.0000000000000002
230
-1.0
 50
148.6793304115628018
 51
180.0000000000445937
  0
ARC
  5
10287
  8
0
  6
CONTINUOUS
 62
     3
 10
-27.4999999999919886
 20
185.8515060100320113
 30
0.0
 40
11.9000000000076405
210
0.0
220
-0.0000000000000002
230
-1.0
 50
180.0000000000144098
 51
211.3206695884061901
  0
ARC
  5
10288
  8
0
  6
CONTINUOUS
 62
     3
 10
27.4999999999919886
 20
185.8515060100320113
 30
0.0
 40
11.9000000000076405
210
0.0
220
-0.0000000000000002
230
-1.0
 50
328.6793304115938099
 51
359.9999999999855049
  0
LINE
  5
10289
  8
0
  6
CONTINUOUS
 62
     3
 10
36.5
 20
175.5069422202890053
 30
-0.000000000000039
 11
36.5
 21
7.0436609429073673
 31
-0.0000000000000016
210
0.0
220
1.0
230
-0.0000000000000002
  0
LINE
  5
1028A
  8
0
  6
CONTINUOUS
 62
     3
 10
-36.5
 20
175.5069422202890053
 30
-0.000000000000039
 11
-36.5
 21
7.0436609429073673
 31
-0.0000000000000016
210
0.0
220
1.0
230
-0.0000000000000002
  0
LINE
  5
1028B
  8
0
  6
CONTINUOUS
 62
     3
 10
-35.8875793553184579
 20
-0.0000000000000528
 30
0.0
 11
-36.4961946980917418
 21
6.9565052001596701
 31
-0.0000000000000015
210
0.0
220
1.0
230
-0.0000000000000002
  0
LINE
  5
1028C
  8
0
  6
CONTINUOUS
 62
     3
 10
35.8875793553184579
 20
-0.0000000000000626
 30
0.0
 11
36.4961946980917418
 21
6.956505200159671
 31
-0.0000000000000015
210
0.0
220
1.0
230
-0.0000000000000002
  0
ARC
  5
1028D
  8
0
  6
CONTINUOUS
 62
     3
 10
35.5000000000024798
 20
7.0436609429072616
 30
0.0
 40
0.9999999999975202
210
0.0
220
-0.0000000000000002
230
-1.0
 50
354.9999999999914166
 51
0.0000000000051907
  0
ARC
  5
1028E
  8
0
  6
CONTINUOUS
 62
     3
 10
-35.5000000000024798
 20
7.0436609429072616
 30
0.0
 40
0.9999999999975202
210
0.0
220
-0.0000000000000002
230
-1.0
 50
179.9999999999947988
 51
185.0000000000084981
  0
LINE
  5
1028F
  8
0
  6
CONTINUOUS
 62
     3
 10
-39.3999999999996433
 20
185.8515060100289986
 30
-0.0000000000000413
 11
-39.3999999999996433
 21
271.1281710573139776
 31
-0.0000000000000602
210
0.0
220
1.0
230
-0.0000000000000002
  0
LINE
  5
10290
  8
0
  6
CONTINUOUS
 62
     3
 10
39.3999999999996433
 20
185.8515060100289986
 30
-0.0000000000000413
 11
39.3999999999996433
 21
271.1281710573139776
 31
-0.0000000000000602
210
0.0
220
1.0
230
-0.0000000000000002
  0
ARC
  5
10291
  8
0
  6
CONTINUOUS
 62
     3
 10
-51.8999999999661625
 20
271.1281710573206851
 30
0.0
 40
12.4999999999665192
210
0.0
220
-0.0000000000000002
230
-1.0
 50
0.0
 51
21.1668520398420696
  0
ARC
  5
10292
  8
0
  6
CONTINUOUS
 62
     3
 10
51.8999999999661625
 20
271.1281710573206851
 30
0.0
 40
12.4999999999665299
210
0.0
220
-0.0000000000000002
230
-1.0
 50
158.8331479601883132
 51
180.0000000000304112
  0
ARC
  5
10293
  8
0
  6
CONTINUOUS
 62
     3
 10
-16.9941909850610209
 20
284.5737405743482213
 30
0.0
 40
24.9058952308743784
210
0.0
220
-0.0000000000000002
230
-1.0
 50
179.8492419712252115
 51
201.0160940109917931
  0
ARC
  5
10294
  8
0
  6
CONTINUOUS
 62
     3
 10
16.9941909850610209
 20
284.5737405743482213
 30
0.0
 40
24.9058952308743784
210
0.0
220
-0.0000000000000002
230
-1.0
 50
338.9839059890081785
 51
0.1507580287747562
  0
LINE
  5
10295
  8
0
  6
CONTINUOUS
 62
     3
 10
-41.8999999999996291
 20
284.6392734874040116
 30
-0.0000000000000632
 11
-41.8999999999996291
 21
285.0
 31
-0.0000000000000633
210
0.0
220
1.0
230
-0.0000000000000002
  0
LINE
  5
10296
  8
0
  6
CONTINUOUS
 62
     3
 10
41.8999999999996291
 20
284.6392734874040116
 30
-0.0000000000000632
 11
41.8999999999996291
 21
285.0
 31
-0.0000000000000633
210
0.0
220
1.0
230
-0.0000000000000002
  0
ARC
  5
10297
  8
0
  6
CONTINUOUS
 62
     3
 10
-17.0000000000756586
 20
288.8171502002865054
 30
0.0
 40
24.8999999999237183
210
0.0
220
-0.0000000000000002
230
-1.0
 50
154.9999999999583906
 51
158.3590396899849111
  0
ARC
  5
10298
  8
0
  6
CONTINUOUS
 62
     3
 10
17.0000000000756692
 20
288.8171502002865054
 30
0.0
 40
24.8999999999237183
210
0.0
220
-0.0000000000000002
230
-1.0
 50
21.6409603100150498
 51
25.0000000000415916
  0
LINE
  5
10299
  8
0
  6
CONTINUOUS
 62
     3
 10
39.2594616805545229
 20
300.0000000000001137
 30
-0.0000000000000666
 11
39.567063897211483
 21
299.3403449176140043
 31
-0.0000000000000665
210
0.0
220
1.0
230
-0.0000000000000002
  0
LINE
  5
1029A
  8
0
  6
CONTINUOUS
 62
     3
 10
-39.2594616805545229
 20
300.0000000000001137
 30
-0.0000000000000666
 11
-39.567063897211483
 21
299.3403449176140043
 31
-0.0000000000000665
210
0.0
220
1.0
230
-0.0000000000000002
  0
LINE
  5
1029B
  8
0
  6
CONTINUOUS
 62
     3
 10
-42.9368770777892905
 20
285.0
 30
-0.0000000000000633
 11
42.9368770777892905
 21
285.0
 31
-0.0000000000000633
210
0.0
220
1.0
230
-0.0000000000000002
  0
LINE
  5
1029C
  8
0
  6
CONTINUOUS
 62
     3
 10
150.0
 20
297.0
 30
-0.0000000000000659
 11
150.0
 21
298.0
 31
-0.0000000000000662
210
0.0
220
1.0
230
-0.0000000000000002
  0
LINE
  5
1029D
  8
0
  6
CONTINUOUS
 62
     3
 10
-150.0
 20
298.0
 30
-0.0000000000000662
 11
-130.0
 21
298.0
 31
-0.0000000000000662
210
0.0
220
1.0
230
-0.0000000000000002
  0
LINE
  5
1029E
  8
0
  6
CONTINUOUS
 62
     3
 10
-130.0
 20
298.0
 30
-0.0000000000000662
 11
130.0
 21
298.0
 31
-0.0000000000000662
210
0.0
220
1.0
230
-0.0000000000000002
  0
LINE
  5
1029F
  8
0
  6
CONTINUOUS
 62
     3
 10
130.0
 20
298.0
 30
-0.0000000000000662
 11
150.0
 21
298.0
 31
-0.0000000000000662
210
0.0
220
1.0
230
-0.0000000000000002
  0
LINE
  5
102A0
  8
0
  6
CONTINUOUS
 62
     3
 10
150.0
 20
297.0000000000001137
 30
-0.0000000000000659
 11
130.0
 21
297.0000000000001137
 31
-0.0000000000000659
210
0.0
220
1.0
230
-0.0000000000000002
  0
LINE
  5
102A1
  8
0
  6
CONTINUOUS
 62
     3
 10
130.0
 20
297.0
 30
-0.0000000000000659
 11
-130.0
 21
297.0
 31
-0.0000000000000659
210
0.0
220
1.0
230
-0.0000000000000002
  0
LINE
  5
102A2
  8
0
  6
CONTINUOUS
 62
     3
 10
-130.0
 20
297.0000000000002274
 30
-0.0000000000000659
 11
-150.0
 21
297.0000000000002274
 31
-0.0000000000000659
210
0.0
220
1.0
230
-0.0000000000000002
  0
LINE
  5
102A3
  8
0
  6
CONTINUOUS
 62
     3
 10
-150.0
 20
298.0
 30
-0.0000000000000662
 11
-150.0
 21
297.0
 31
-0.0000000000000659
210
0.0
220
1.0
230
-0.0000000000000002
  0
ARC
  5
102A4
  8
0
  6
CONTINUOUS
 62
     3
 10
45.7499999999999716
 20
296.0
 30
0.0
 40
0.999999999999943
210
0.0
220
-0.0000000000000002
230
-1.0
 50
89.9999999999983658
 51
170.7075766242815007
  0
ARC
  5
102A5
  8
0
  6
CONTINUOUS
 62
     3
 10
-45.7500000000000071
 20
296.0
 30
0.0
 40
1.00000000000002
210
0.0
220
-0.0000000000000002
230
-1.0
 50
9.2924233757244679
 51
89.9999999999987637
  0
LINE
  5
102A6
  8
0
  6
CONTINUOUS
 62
     3
 10
-42.9368770777892834
 20
285.0
 30
-0.0000000000000633
 11
-44.7631229222107265
 21
296.1614733208120924
 31
-0.0000000000000658
210
0.0
220
1.0
230
-0.0000000000000002
  0
LINE
  5
102A7
  8
0
  6
CONTINUOUS
 62
     3
 10
42.9368770777892834
 20
285.0
 30
-0.0000000000000633
 11
44.7631229222107407
 21
296.1614733208122061
 31
-0.0000000000000658
210
0.0
220
1.0
230
-0.0000000000000002
  0
LINE
  5
102A8
  8
0
  6
VERDECKT
 62
     1
 10
-34.6921457176085823
 20
0.1045868912971742
 30
0.0
 11
34.6921457176085823
 21
0.1045868912971742
 31
0.0
210
0.0
220
1.0
230
-0.0000000000000002
  0
LINE
  5
102A9
  8
0
  6
VERDECKT
 62
     1
 10
38.1718923361104316
 20
299.4928580859120189
 30
-0.0000000000000665
 11
-38.1718923361104316
 21
299.4928580859120189
 31
-0.0000000000000665
210
0.0
220
1.0
230
-0.0000000000000002
  0
ARC
  5
102AA
  8
0
  6
VERDECKT
 62
     1
 10
-27.4999999999948095
 20
185.8515060100311018
 30
0.0
 40
10.7000000000047599
210
0.0
220
-0.0000000000000002
230
-1.0
 50
180.0000000000111982
 51
211.3206695884101123
  0
ARC
  5
102AB
  8
0
  6
VERDECKT
 62
     1
 10
27.4999999999948095
 20
185.8515060100311018
 30
0.0
 40
10.7000000000047599
210
0.0
220
-0.0000000000000002
230
-1.0
 50
328.679330411589774
 51
359.9999999999888018
  0
ARC
  5
102AC
  8
0
  6
VERDECKT
 62
     1
 10
-44.4999999999829612
 20
175.5069422202952012
 30
0.0
 40
9.1999999999830067
210
0.0
220
-0.0000000000000002
230
-1.0
 50
359.9999999999561169
 51
31.3206695884328106
  0
ARC
  5
102AD
  8
0
  6
VERDECKT
 62
     1
 10
44.4999999999828688
 20
175.5069422202952012
 30
0.0
 40
9.1999999999829285
210
0.0
220
-0.0000000000000002
230
-1.0
 50
148.6793304115668946
 51
180.0000000000437979
  0
LINE
  5
102AE
  8
0
  6
VERDECKT
 62
     1
 10
34.6921457176085823
 20
0.1045868912971643
 30
0.0
 11
35.887579355318401
 21
-0.000000000000047
 31
0.0
210
0.0
220
1.0
230
-0.0000000000000002
  0
LINE
  5
102AF
  8
0
  6
VERDECKT
 62
     1
 10
-34.6921457176084687
 20
0.1045868912971742
 30
0.0
 11
-35.8875793553185076
 21
-0.0000000000000568
 31
0.0
210
0.0
220
1.0
230
-0.0000000000000002
  0
LINE
  5
102B0
  8
0
  6
VERDECKT
 62
     1
 10
35.2999999999999616
 20
175.5069422202882095
 30
-0.000000000000039
 11
35.2999999999999616
 21
7.0960540743963083
 31
-0.0000000000000016
210
0.0
220
1.0
230
-0.0000000000000002
  0
LINE
  5
102B1
  8
0
  6
VERDECKT
 62
     1
 10
-35.2999999999999616
 20
175.5069422202882095
 30
-0.000000000000039
 11
-35.2999999999999616
 21
7.0960540743963083
 31
-0.0000000000000016
210
0.0
220
1.0
230
-0.0000000000000002
  0
LINE
  5
102B2
  8
0
  6
VERDECKT
 62
     1
 10
-34.6921457176084118
 20
0.1045868912971795
 30
0.0
 11
-35.2961946980917034
 21
7.0088983316486191
 31
-0.0000000000000016
210
0.0
220
1.0
230
-0.0000000000000002
  0
LINE
  5
102B3
  8
0
  6
VERDECKT
 62
     1
 10
34.6921457176084118
 20
0.1045868912971892
 30
0.0
 11
35.2961946980917034
 21
7.0088983316486191
 31
-0.0000000000000016
210
0.0
220
1.0
230
-0.0000000000000002
  0
ARC
  5
102B4
  8
0
  6
VERDECKT
 62
     1
 10
34.3000000000026191
 20
7.0960540743962044
 30
0.0
 40
0.9999999999973354
210
0.0
220
-0.0000000000000002
230
-1.0
 50
354.9999999999909051
 51
0.0000000000051398
  0
ARC
  5
102B5
  8
0
  6
VERDECKT
 62
     1
 10
-34.3000000000026191
 20
7.0960540743962044
 30
0.0
 40
0.9999999999973354
210
0.0
220
-0.0000000000000002
230
-1.0
 50
179.9999999999947988
 51
185.0000000000090097
  0
LINE
  5
102B6
  8
0
  6
VERDECKT
 62
     1
 10
-38.1718923361104103
 20
299.4928580859120189
 30
-0.0000000000000665
 11
-39.2594616805545513
 21
300.0
 31
-0.0000000000000666
210
0.0
220
1.0
230
-0.0000000000000002
  0
LINE
  5
102B7
  8
0
  6
VERDECKT
 62
     1
 10
38.1718923361102327
 20
299.4928580859119052
 30
-0.0000000000000665
 11
39.2594616805545513
 21
300.0
 31
-0.0000000000000666
210
0.0
220
1.0
230
-0.0000000000000002
  0
LINE
  5
102B8
  8
0
  6
VERDECKT
 62
     1
 10
38.1718923361102114
 20
299.4928580859120189
 30
-0.0000000000000665
 11
38.4794945527671217
 21
298.8332030035260232
 31
-0.0000000000000664
210
0.0
220
1.0
230
-0.0000000000000002
  0
LINE
  5
102B9
  8
0
  6
VERDECKT
 62
     1
 10
-38.1718923361102469
 20
299.4928580859117915
 30
-0.0000000000000665
 11
-38.479494552767207
 21
298.8332030035257958
 31
-0.0000000000000664
210
0.0
220
1.0
230
-0.0000000000000002
  0
ARC
  5
102BA
  8
0
  6
VERDECKT
 62
     1
 10
-17.0000000000706208
 20
288.8171502002848001
 30
0.0
 40
23.6999999999289592
210
0.0
220
-0.0000000000000002
230
-1.0
 50
154.9999999999558042
 51
180.0000000000071907
  0
ARC
  5
102BB
  8
0
  6
VERDECKT
 62
     1
 10
17.0000000000703402
 20
288.8171502002848001
 30
0.0
 40
23.6999999999292505
210
0.0
220
-0.0000000000000002
230
-1.0
 50
359.9999999999928946
 51
25.0000000000436806
  0
LINE
  5
102BC
  8
0
  6
VERDECKT
 62
     1
 10
-40.6999999999995907
 20
284.6376752632726266
 30
-0.0000000000000632
 11
-40.6999999999995907
 21
288.8171502002819011
 31
-0.0000000000000641
210
0.0
220
1.0
230
-0.0000000000000002
  0
LINE
  5
102BD
  8
0
  6
VERDECKT
 62
     1
 10
40.6999999999995907
 20
284.6376752632726266
 30
-0.0000000000000632
 11
40.6999999999995907
 21
288.8171502002819011
 31
-0.0000000000000641
210
0.0
220
1.0
230
-0.0000000000000002
  0
ARC
  5
102BE
  8
0
  6
VERDECKT
 62
     1
 10
-16.9941909850671102
 20
284.5737405743470845
 30
0.0
 40
23.70589523086824
210
0.0
220
-0.0000000000000002
230
-1.0
 50
179.8454733624220978
 51
201.0124127937332048
  0
ARC
  5
102BF
  8
0
  6
VERDECKT
 62
     1
 10
16.9941909850664814
 20
284.5737405743473118
 30
0.0
 40
23.7058952308688689
210
0.0
220
-0.0000000000000002
230
-1.0
 50
338.9875872062672215
 51
0.1545266375775909
  0
ARC
  5
102C0
  8
0
  6
VERDECKT
 62
     1
 10
-51.8999999999706887
 20
271.1281710573175019
 30
0.0
 40
13.6999999999710909
210
0.0
220
-0.0000000000000002
230
-1.0
 50
359.9999999999831175
 51
21.1600167708493103
  0
ARC
  5
102C1
  8
0
  6
VERDECKT
 62
     1
 10
51.8999999999713708
 20
271.1281710573172745
 30
0.0
 40
13.6999999999717907
210
0.0
220
-0.0000000000000002
230
-1.0
 50
158.8399832291507892
 51
180.0000000000160867
  0
LINE
  5
102C2
  8
0
  6
VERDECKT
 62
     1
 10
-38.1999999999995907
 20
185.8515060100289986
 30
-0.0000000000000413
 11
-38.1999999999995907
 21
271.1281710573135229
 31
-0.0000000000000602
210
0.0
220
1.0
230
-0.0000000000000002
  0
LINE
  5
102C3
  8
0
  6
VERDECKT
 62
     1
 10
38.1999999999995907
 20
185.8515060100289986
 30
-0.0000000000000413
 11
38.1999999999995907
 21
271.1281710573135229
 31
-0.0000000000000602
210
0.0
220
1.0
230
-0.0000000000000002
  0
LINE
  5
102C4
  8
0
  6
VERDECKT
 62
     1
 10
-41.8999999999996291
 20
285.0
 30
-0.0000000000000633
 11
-41.8999999999996291
 21
288.8171502002816737
 31
-0.0000000000000641
210
0.0
220
1.0
230
-0.0000000000000002
  0
LINE
  5
102C5
  8
0
  6
VERDECKT
 62
     1
 10
41.8999999999996291
 20
285.0
 30
-0.0000000000000633
 11
41.8999999999996291
 21
288.8171502002816737
 31
-0.0000000000000641
210
0.0
220
1.0
230
-0.0000000000000002
  0
ARC
  5
102C6
  8
0
  6
VERDECKT
 62
     1
 10
-17.0000000000715907
 20
288.8171502002850275
 30
0.0
 40
24.8999999999280597
210
0.0
220
-0.0000000000000002
230
-1.0
 50
158.359039689985309
 51
180.0000000000075033
  0
ARC
  5
102C7
  8
0
  6
VERDECKT
 62
     1
 10
17.0000000000719815
 20
288.8171502002850843
 30
0.0
 40
24.8999999999276689
210
0.0
220
-0.0000000000000002
230
-1.0
 50
359.9999999999920988
 51
21.6409603100148296
  0
LINE
  5
102C8
  8
0
  6
VERDECKT
 62
     1
 10
-41.9499999999999886
 20
285.1614733208120924
 30
-0.0000000000000633
 11
41.9499999999999886
 21
285.1614733208120924
 31
-0.0000000000000633
210
0.0
220
1.0
230
-0.0000000000000002
  0
LINE
  5
102C9
  8
0
  6
VERDECKT
 62
     1
 10
41.9499999999999815
 20
285.1614733208120924
 30
-0.0000000000000633
 11
42.9368770777892905
 21
285.0
 31
-0.0000000000000633
210
0.0
220
1.0
230
-0.0000000000000002
  0
LINE
  5
102CA
  8
0
  6
VERDECKT
 62
     1
 10
-41.9499999999999886
 20
285.1614733208120924
 30
-0.0000000000000633
 11
-42.9368770777892834
 21
285.0
 31
-0.0000000000000633
210
0.0
220
1.0
230
-0.0000000000000002
  0
LINE
  5
102CB
  8
0
  6
VERDECKT
 62
     1
 10
-41.9500000000000099
 20
285.1614733208120924
 30
-0.0000000000000633
 11
-43.7762458444214388
 21
296.3229466416241848
 31
-0.0000000000000658
210
0.0
220
1.0
230
-0.0000000000000002
  0
LINE
  5
102CC
  8
0
  6
VERDECKT
 62
     1
 10
41.9500000000000099
 20
285.1614733208120924
 30
-0.0000000000000633
 11
43.7762458444214388
 21
296.3229466416241848
 31
-0.0000000000000658
210
0.0
220
1.0
230
-0.0000000000000002
  0
ARC
  5
102CD
  8
0
  6
VERDECKT
 62
     1
 10
45.75
 20
296.0
 30
0.0
 40
2.0
210
0.0
220
-0.0000000000000002
230
-1.0
 50
90.0
 51
170.7075766242770101
  0
ARC
  5
102CE
  8
0
  6
VERDECKT
 62
     1
 10
-45.75
 20
296.0
 30
0.0
 40
1.999999999999996
210
0.0
220
-0.0000000000000002
230
-1.0
 50
9.2924233757230308
 51
90.0000000000000284
  0
LINE
  5
102CF
  8
0
  6
VERDECKT
 62
     1
 10
133.0
 20
298.0
 30
-0.0000000000000662
 11
133.0
 21
297.0000000000002274
 31
-0.0000000000000659
210
0.0
220
1.0
230
-0.0000000000000002
  0
LINE
  5
102D0
  8
0
  6
VERDECKT
 62
     1
 10
127.0
 20
298.0
 30
-0.0000000000000662
 11
127.0
 21
297.0000000000002274
 31
-0.0000000000000659
210
0.0
220
1.0
230
-0.0000000000000002
  0
LINE
  5
102D1
  8
0
  6
VERDECKT
 62
     1
 10
-127.0
 20
298.0
 30
-0.0000000000000662
 11
-127.0
 21
297.0000000000001137
 31
-0.0000000000000659
210
0.0
220
1.0
230
-0.0000000000000002
  0
LINE
  5
102D2
  8
0
  6
VERDECKT
 62
     1
 10
-133.0
 20
298.0
 30
-0.0000000000000662
 11
-133.0
 21
297.0000000000002274
 31
-0.0000000000000659
210
0.0
220
1.0
230
-0.0000000000000002
  0
ENDBLK
  5
102D4
  8
0
  0
ENDSEC
  0
SECTION
  2
ENTITIES
  0
INSERT
  5
712A
  8
ADSK_ASSOC_ENTITY_BACKUPS
  2
*S0
 10
0.0
 20
0.0
 30
0.0
  0
INSERT
  5
10280
  8
STEMPEL
  2
A$C8846A10B
 10
0.0
 20
-200.0
 30
0.0
  0
INSERT
  5
102D5
  8
STEMPEL
  2
A$C9CC2A219
 10
0.0
 20
0.0
 30
0.0
  0
VIEWPORT
  5
7108
 67
     1
  8
0
 10
209.7508872230341979
 20
148.2506896855713876
 30
0.0
 40
558.8319832755776133
 41
298.5191815856778135
 68
     1
 69
     1
1001
ACAD
1000
MVIEW
1002
{
1070
    16
1010
0.0
1020
0.0
1030
0.0
1010
0.0
1020
0.0
1030
1.0
1040
0.0
1040
298.5191815856778135
1040
209.7508872230341979
1040
148.2506896855713876
1040
50.0
1040
0.0
1040
0.0
1070
     0
1070
  1500
1070
     1
1070
     1
1070
     0
1070
     0
1070
     0
1070
     0
1040
0.0
1040
0.0
1040
0.0
1040
10.0
1040
10.0
1040
10.0
1040
10.0
1070
     0
1002
{
1002
}
1002
}
  0
ENDSEC
  0
EOF
