  0
SECTION
  2
HEADER
  9
$ACADVER
  1
AC1009
  9
$INSBASE
 10
0.0
 20
0.0
 30
0.0
  9
$EXTMIN
 10
-200.0
 20
-580.0
 30
-0.0000000000000692
  9
$EXTMAX
 10
200.0
 20
300.0
 30
0.0000000000000568
  9
$LIMMIN
 10
0.0
 20
0.0
  9
$LIMMAX
 10
419.9999999999998863
 20
594.0
  9
$ORTHOMODE
 70
     1
  9
$REGENMODE
 70
     1
  9
$FILLMODE
 70
     1
  9
$QTEXTMODE
 70
     0
  9
$MIRRTEXT
 70
     1
  9
$DRAGMODE
 70
     2
  9
$LTSCALE
 40
20.0
  9
$OSMODE
 70
   511
  9
$ATTMODE
 70
     1
  9
$TEXTSIZE
 40
3.5
  9
$TRACEWID
 40
0.5
  9
$TEXTSTYLE
  7
STANDARD
  9
$CLAYER
  8
STEMPEL
  9
$CELTYPE
  6
BYLAYER
  9
$CECOLOR
 62
   256
  9
$DIMSCALE
 40
1.0
  9
$DIMASZ
 40
3.5
  9
$DIMEXO
 40
1.0
  9
$DIMDLI
 40
0.38
  9
$DIMRND
 40
0.0
  9
$DIMDLE
 40
0.0
  9
$DIMEXE
 40
1.0
  9
$DIMTP
 40
0.0
  9
$DIMTM
 40
0.000000001
  9
$DIMTXT
 40
3.5
  9
$DIMCEN
 40
0.09
  9
$DIMTSZ
 40
0.0
  9
$DIMTOL
 70
     0
  9
$DIMLIM
 70
     0
  9
$DIMTIH
 70
     0
  9
$DIMTOH
 70
     0
  9
$DIMSE1
 70
     0
  9
$DIMSE2
 70
     0
  9
$DIMTAD
 70
     1
  9
$DIMZIN
 70
     8
  9
$DIMBLK
  1

  9
$DIMASO
 70
     1
  9
$DIMSHO
 70
     0
  9
$DIMPOST
  1

  9
$DIMAPOST
  1

  9
$DIMALT
 70
     0
  9
$DIMALTD
 70
     2
  9
$DIMALTF
 40
25.3999999999999986
  9
$DIMLFAC
 40
2.0
  9
$DIMTOFL
 70
     1
  9
$DIMTVP
 40
0.0
  9
$DIMTIX
 70
     0
  9
$DIMSOXD
 70
     0
  9
$DIMSAH
 70
     0
  9
$DIMBLK1
  1

  9
$DIMBLK2
  1

  9
$DIMSTYLE
  2
LORO
  9
$DIMCLRD
 70
     0
  9
$DIMCLRE
 70
     0
  9
$DIMCLRT
 70
     1
  9
$DIMTFAC
 40
0.5
  9
$DIMGAP
 40
1.5
  9
$LUNITS
 70
     2
  9
$LUPREC
 70
     2
  9
$SKETCHINC
 40
1.0
  9
$FILLETRAD
 40
5.0
  9
$AUNITS
 70
     0
  9
$AUPREC
 70
     0
  9
$MENU
  1
ACAD
  9
$ELEVATION
 40
0.0
  9
$PELEVATION
 40
0.0
  9
$THICKNESS
 40
0.0
  9
$LIMCHECK
 70
     0
  9
$BLIPMODE
 70
     0
  9
$CHAMFERA
 40
0.0
  9
$CHAMFERB
 40
0.0
  9
$SKPOLY
 70
     0
  9
$TDCREATE
 40
2455397.8646990740671754
  9
$TDUPDATE
 40
2460048.5790046299807727
  9
$TDINDWG
 40
1.2064913657
  9
$TDUSRTIMER
 40
1.2064913657
  9
$USRTIMER
 70
     1
  9
$ANGBASE
 50
0.0
  9
$ANGDIR
 70
     0
  9
$PDMODE
 70
     0
  9
$PDSIZE
 40
0.0
  9
$PLINEWID
 40
0.0
  9
$COORDS
 70
     1
  9
$SPLFRAME
 70
     0
  9
$SPLINETYPE
 70
     6
  9
$SPLINESEGS
 70
     8
  9
$ATTDIA
 70
     1
  9
$ATTREQ
 70
     1
  9
$HANDLING
 70
     1
  9
$HANDSEED
  5
72E2
  9
$SURFTAB1
 70
     6
  9
$SURFTAB2
 70
     6
  9
$SURFTYPE
 70
     6
  9
$SURFU
 70
     6
  9
$SURFV
 70
     6
  9
$UCSNAME
  2

  9
$UCSORG
 10
0.0
 20
0.0
 30
0.0
  9
$UCSXDIR
 10
1.0
 20
0.0
 30
0.0
  9
$UCSYDIR
 10
0.0
 20
1.0
 30
0.0
  9
$PUCSNAME
  2

  9
$PUCSORG
 10
0.0
 20
0.0
 30
0.0
  9
$PUCSXDIR
 10
1.0
 20
0.0
 30
0.0
  9
$PUCSYDIR
 10
0.0
 20
1.0
 30
0.0
  9
$USERI1
 70
     0
  9
$USERI2
 70
     0
  9
$USERI3
 70
     0
  9
$USERI4
 70
     0
  9
$USERI5
 70
     0
  9
$USERR1
 40
0.0
  9
$USERR2
 40
0.0
  9
$USERR3
 40
0.0
  9
$USERR4
 40
0.0
  9
$USERR5
 40
0.0
  9
$WORLDVIEW
 70
     1
  9
$SHADEDGE
 70
     3
  9
$SHADEDIF
 70
    70
  9
$TILEMODE
 70
     1
  9
$MAXACTVP
 70
    16
  9
$PLIMCHECK
 70
     0
  9
$PEXTMIN
 10
1.0000000000000000E+20
 20
1.0000000000000000E+20
 30
1.0000000000000000E+20
  9
$PEXTMAX
 10
-1.0000000000000000E+20
 20
-1.0000000000000000E+20
 30
-1.0000000000000000E+20
  9
$PLIMMIN
 10
-2.9559730410262501
 20
-2.0864166309324781
  9
$PLIMMAX
 10
596.9840269589736863
 20
422.1135833690674986
  9
$UNITMODE
 70
     0
  9
$VISRETAIN
 70
     0
  9
$PLINEGEN
 70
     0
  9
$PSLTSCALE
 70
     0
  0
ENDSEC
  0
SECTION
  2
TABLES
  0
TABLE
  2
VPORT
 70
     1
  0
VPORT
  2
*ACTIVE
 70
     0
 10
0.0
 20
0.0
 11
1.0
 21
1.0
 12
0.0000000000001137
 22
-190.0
 13
0.0
 23
0.0
 14
1.0
 24
1.0
 15
10.0
 25
10.0
 16
-0.0000000000003863
 26
0.0
 36
1739.9347719279289777
 17
0.0
 27
50.0
 37
-0.0000000000000049
 40
884.501278772378555
 41
1.8720136518771331
 42
50.0
 43
0.0
 44
0.0
 50
0.0
 51
0.0
 71
     0
 72
  1500
 73
     1
 74
     0
 75
     0
 76
     0
 77
     0
 78
     0
  0
ENDTAB
  0
TABLE
  2
LTYPE
 70
     4
  0
LTYPE
  2
CONTINUOUS
 70
     0
  3
Solid line
 72
    65
 73
     0
 40
0.0
  0
LTYPE
  2
STRICHPUNKT
 70
     0
  3
__ . __ . __ . __ . __ . __ . __ . __ . __ . __
 72
    65
 73
     4
 40
1.0
 49
0.5
 49
-0.25
 49
0.0
 49
-0.25
  0
LTYPE
  2
VERDECKT
 70
     0
  3
_ _ _ _ _ _ _ _ _ _ _ _ _ _ _ _ _ _ _ _ _ _ _
 72
    65
 73
     2
 40
0.375
 49
0.25
 49
-0.125
  0
ENDTAB
  0
TABLE
  2
LAYER
 70
     7
  0
LAYER
  2
0
 70
     0
 62
     7
  6
CONTINUOUS
  0
LAYER
  2
VOLL
 70
     0
 62
     1
  6
CONTINUOUS
  0
LAYER
  2
STEMPEL
 70
     0
 62
     3
  6
CONTINUOUS
  0
LAYER
  2
ADSK_ASSOC_ENTITY_BACKUPS
 70
     1
 62
    -7
  6
CONTINUOUS
  0
ENDTAB
  0
TABLE
  2
STYLE
 70
     2
  0
STYLE
  2
STANDARD
 70
     0
 40
0.0
 41
0.8
 50
0.0
 71
     0
 42
3.5
  3
simplex.shx
  4

  0
STYLE
  2
GREEKS
 70
     0
 40
0.0
 41
0.8
 50
0.0
 71
     0
 42
2.5
  3
SIMPLEX.shx
  4

  0
ENDTAB
  0
TABLE
  2
VIEW
 70
     0
  0
ENDTAB
  0
TABLE
  2
UCS
 70
     0
  0
ENDTAB
  0
TABLE
  2
APPID
 70
    24
  0
APPID
  2
ACAD
 70
     0
  0
APPID
  2
ACAD_NAV_VCDISPLAY
 70
     0
  0
APPID
  2
ACAD_STEPID
 70
     0
  0
APPID
  2
ACAECLAYERSTANDARD
 70
     0
  0
APPID
  2
ACCMTRANSPARENCY
 70
     0
  0
APPID
  2
ACAD_PSEXT
 70
     0
  0
APPID
  2
ACAD_EXEMPT_FROM_CAD_STANDARDS
 70
     0
  0
APPID
  2
ACSYNERGY
 70
     0
  0
APPID
  2
SYNERGY_BODY_TBR_ID
 70
     0
  0
APPID
  2
ACAD_VIEW_EDGE_ID
 70
     0
  0
APPID
  2
ACSYNERGYSKETCH
 70
     0
  0
APPID
  2
ACAD_MODELDOC_XFORM
 70
     0
  0
APPID
  2
ACDBDYNAMICBLOCKGUID
 70
     0
  0
APPID
  2
ACAD_DSTYLE_DIMJAG
 70
     0
  0
APPID
  2
ACAD_DSTYLE_DIMBREAK
 70
     0
  0
APPID
  2
ACAD_DSTYLE_DIMTALN
 70
     0
  0
APPID
  2
ACADANNOMONITORALERTICONDI
 70
     0
  0
APPID
  2
ACADANNOPO
 70
     0
  0
APPID
  2
ACAD_DIMASSOC_CALC_DIMLFAC
 70
     0
  0
APPID
  2
ACAD_DIMASSOC_DIMLFAC
 70
     0
  0
APPID
  2
ACAD_DIMASSOC_OVERRIDDEN_D
 70
     0
  0
APPID
  2
ACAD_DSTYLE_DIMRADIAL_EXTENSION
 70
     0
  0
APPID
  2
ACAD_TC
 70
     0
  0
APPID
  2
ACAD_MLEADERVER
 70
     0
  0
ENDTAB
  0
TABLE
  2
DIMSTYLE
 70
     4
  0
DIMSTYLE
  2
LORO
 70
     0
  3

  4

  5

  6

  7

 40
1.0
 41
3.5
 42
1.0
 43
0.38
 44
1.0
 45
0.0
 46
0.0
 47
0.0
 48
0.000000001
140
3.5
141
0.09
142
0.0
143
25.3999999999999986
144
2.0
145
0.0
146
0.5
147
1.5
 71
     0
 72
     0
 73
     0
 74
     0
 75
     0
 76
     0
 77
     1
 78
     8
170
     0
171
     2
172
     1
173
     0
174
     0
175
     0
176
     0
177
     0
178
     1
  0
ENDTAB
  0
ENDSEC
  0
SECTION
  2
BLOCKS
  0
BLOCK
  8
0
  2
$MODEL_SPACE
 70
     0
 10
0.0
 20
0.0
 30
0.0
  3
$MODEL_SPACE
  1

  0
ENDBLK
  5
36
  8
0
  0
BLOCK
 67
     1
  8
0
  2
$PAPER_SPACE
 70
     0
 10
0.0
 20
0.0
 30
0.0
  3
$PAPER_SPACE
  1

  0
ENDBLK
  5
34
 67
     1
  8
0
  0
BLOCK
  8
0
  2
*S0
 70
     1
 10
0.0
 20
0.0
 30
0.0
  3
*S0
  1

  0
ENDBLK
  5
171D
  8
0
  0
BLOCK
  8
0
  2
A$CCEB516A6
 70
     0
 10
0.0
 20
0.0
 30
0.0
  3
A$CCEB516A6
  1

  0
LINE
  5
71EA
  8
0
  6
CONTINUOUS
 62
     3
 10
-54.2197424892703879
 20
300.0
 30
-0.0000000000000666
 11
54.2197424892703879
 21
300.0
 31
-0.0000000000000666
210
0.0
220
1.0
230
-0.0000000000000002
  0
LINE
  5
71EB
  8
0
  6
CONTINUOUS
 62
     3
 10
-49.9251133647410512
 20
0.0
 30
0.0
 11
49.925113364741037
 21
0.0
 31
0.0
210
0.0
220
1.0
230
-0.0000000000000002
  0
ARC
  5
71EC
  8
0
  6
CONTINUOUS
 62
     3
 10
33.4000000000062727
 20
287.0853446549907062
 30
0.0
 40
24.49999999999282
210
0.0
220
-0.0000000000000002
230
-1.0
 50
26.455085805776811
 51
31.8116631867241786
  0
ARC
  5
71ED
  8
0
  6
CONTINUOUS
 62
     3
 10
-33.4000000000062727
 20
287.0853446549907062
 30
0.0
 40
24.49999999999282
210
0.0
220
-0.0000000000000002
230
-1.0
 50
148.1883368132758108
 51
153.5449141942231961
  0
LINE
  5
71EE
  8
0
  6
CONTINUOUS
 62
     3
 10
57.8999999999999986
 20
285.0000000000001137
 30
-0.0000000000000633
 11
57.8999999999999986
 21
273.0800922432891866
 31
-0.0000000000000606
210
0.0
220
1.0
230
-0.0000000000000002
  0
LINE
  5
71EF
  8
0
  6
CONTINUOUS
 62
     3
 10
-57.8999999999999986
 20
285.0000000000001137
 30
-0.0000000000000633
 11
-57.8999999999999986
 21
273.0800922432891866
 31
-0.0000000000000606
210
0.0
220
1.0
230
-0.0000000000000002
  0
ARC
  5
71F0
  8
0
  6
CONTINUOUS
 62
     3
 10
33.3999999999999773
 20
273.0800922432891866
 30
0.0
 40
24.5000000000000107
210
0.0
220
-0.0000000000000002
230
-1.0
 50
333.1119523822758879
 51
0.0000000000000127
  0
ARC
  5
71F1
  8
0
  6
CONTINUOUS
 62
     3
 10
-33.3999999999999773
 20
273.0800922432891866
 30
0.0
 40
24.5000000000000107
210
0.0
220
-0.0000000000000002
230
-1.0
 50
180.0
 51
206.8880476177241121
  0
ARC
  5
71F2
  8
0
  6
CONTINUOUS
 62
     3
 10
66.3999999999999631
 20
256.3468917126077145
 30
0.0
 40
12.4999999999999698
210
0.0
220
-0.0000000000000002
230
-1.0
 50
153.1119523822758879
 51
180.0
  0
ARC
  5
71F3
  8
0
  6
CONTINUOUS
 62
     3
 10
-66.4000000000000767
 20
256.3468917126077145
 30
0.0
 40
12.5000000000000799
210
0.0
220
-0.0000000000000002
230
-1.0
 50
0.0
 51
26.8880476177238492
  0
LINE
  5
71F4
  8
0
  6
CONTINUOUS
 62
     3
 10
53.8999999999999702
 20
256.3468917126077145
 30
-0.0000000000000569
 11
53.8999999999999702
 21
237.3446878426638023
 31
-0.0000000000000527
210
0.0
220
1.0
230
-0.0000000000000002
  0
LINE
  5
71F5
  8
0
  6
CONTINUOUS
 62
     3
 10
-53.8999999999999702
 20
256.3468917126077145
 30
-0.0000000000000569
 11
-53.8999999999999702
 21
237.3446878426638023
 31
-0.0000000000000527
210
0.0
220
1.0
230
-0.0000000000000002
  0
ARC
  5
71F6
  8
0
  6
CONTINUOUS
 62
     3
 10
39.3999999999999631
 20
237.3446878426638023
 30
0.0
 40
14.5000000000000195
210
0.0
220
-0.0000000000000002
230
-1.0
 50
329.5670170332144266
 51
0.0
  0
ARC
  5
71F7
  8
0
  6
CONTINUOUS
 62
     3
 10
-39.3999999999999631
 20
237.3446878426638023
 30
0.0
 40
14.5000000000000195
210
0.0
220
-0.0000000000000002
230
-1.0
 50
180.0
 51
210.4329829667854881
  0
ARC
  5
71F8
  8
0
  6
CONTINUOUS
 62
     3
 10
58.8000000000000398
 20
225.9477584316337868
 30
0.0
 40
8.0000000000000746
210
0.0
220
-0.0000000000000002
230
-1.0
 50
149.5670170332145972
 51
179.999999999999801
  0
ARC
  5
71F9
  8
0
  6
CONTINUOUS
 62
     3
 10
-58.7999999999997698
 20
225.9477584316339005
 30
0.0
 40
7.999999999999801
210
0.0
220
-0.0000000000000002
230
-1.0
 50
359.9999999999997726
 51
30.4329829667858291
  0
ARC
  5
71FA
  8
0
  6
CONTINUOUS
 62
     3
 10
49.800000000000658
 20
10.04366094290679
 30
0.0
 40
0.9999999999992896
210
0.0
220
-0.0000000000000002
230
-1.0
 50
355.0000000000002842
 51
0.0000000000004071
  0
ARC
  5
71FB
  8
0
  6
CONTINUOUS
 62
     3
 10
-49.800000000000658
 20
10.04366094290679
 30
0.0
 40
0.9999999999992893
210
0.0
220
-0.0000000000000002
230
-1.0
 50
179.9999999999996021
 51
184.9999999999996021
  0
LINE
  5
71FC
  8
0
  6
CONTINUOUS
 62
     3
 10
-49.9251133647413781
 20
-0.0000000000000311
 30
0.0
 11
-50.7961946980917034
 21
9.9565052001592012
 31
-0.0000000000000022
210
0.0
220
1.0
230
-0.0000000000000002
  0
LINE
  5
71FD
  8
0
  6
CONTINUOUS
 62
     3
 10
49.9251133647413781
 20
-0.000000000000032
 30
0.0
 11
50.7961946980917034
 21
9.9565052001592012
 31
-0.0000000000000022
210
0.0
220
1.0
230
-0.0000000000000002
  0
LINE
  5
71FE
  8
0
  6
CONTINUOUS
 62
     3
 10
50.7999999999999474
 20
225.9477584316339005
 30
-0.0000000000000502
 11
50.7999999999999474
 21
10.0436609429068007
 31
-0.0000000000000022
210
0.0
220
1.0
230
-0.0000000000000002
  0
LINE
  5
71FF
  8
0
  6
CONTINUOUS
 62
     3
 10
-50.7999999999999474
 20
225.9477584316339005
 30
-0.0000000000000502
 11
-50.7999999999999474
 21
10.0436609429068007
 31
-0.0000000000000022
210
0.0
220
1.0
230
-0.0000000000000002
  0
LINE
  5
7200
  8
0
  6
CONTINUOUS
 62
     3
 10
-55.6090464708852892
 20
-70.0000000000000142
 30
0.0000000000000155
 11
55.6090464708851684
 21
-70.0000000000000142
 31
0.0000000000000155
210
0.0
220
1.0
230
-0.0000000000000002
  0
LINE
  5
7201
  8
0
  6
CONTINUOUS
 62
     3
 10
-57.7500000000000497
 20
-86.0000000000000995
 30
0.0000000000000191
 11
57.7499999999999503
 21
-86.0000000000000995
 31
0.0000000000000191
210
0.0
220
1.0
230
-0.0000000000000002
  0
LINE
  5
7202
  8
0
  6
CONTINUOUS
 62
     3
 10
-59.5000000000000568
 20
-87.5000000000001563
 30
0.0000000000000194
 11
59.4999999999999432
 21
-87.5000000000001563
 31
0.0000000000000194
210
0.0
220
1.0
230
-0.0000000000000002
  0
LINE
  5
7203
  8
0
  6
CONTINUOUS
 62
     3
 10
-59.5000000000000568
 20
-88.5000000000001279
 30
0.0000000000000197
 11
59.4999999999999432
 21
-88.5000000000001279
 31
0.0000000000000197
210
0.0
220
1.0
230
-0.0000000000000002
  0
LINE
  5
7204
  8
0
  6
CONTINUOUS
 62
     3
 10
-57.1171444324797335
 20
-90.8828555675204655
 30
0.0000000000000202
 11
57.1171444324796127
 21
-90.8828555675204655
 31
0.0000000000000202
210
0.0
220
1.0
230
-0.0000000000000002
  0
LINE
  5
7205
  8
0
  6
CONTINUOUS
 62
     3
 10
-60.0000000000000568
 20
-95.0000000000000711
 30
0.0000000000000211
 11
59.9999999999999432
 21
-95.0000000000000711
 31
0.0000000000000211
210
0.0
220
1.0
230
-0.0000000000000002
  0
LINE
  5
7206
  8
0
  6
CONTINUOUS
 62
     3
 10
-49.5000000000000568
 20
-97.0000000000001137
 30
0.0000000000000215
 11
49.4999999999999432
 21
-97.0000000000001137
 31
0.0000000000000215
210
0.0
220
1.0
230
-0.0000000000000002
  0
LINE
  5
7207
  8
0
  6
CONTINUOUS
 62
     3
 10
-59.5000000000000568
 20
-77.0000000000001279
 30
0.0000000000000171
 11
59.4999999999999432
 21
-77.0000000000001279
 31
0.0000000000000171
210
0.0
220
1.0
230
-0.0000000000000002
  0
ARC
  5
7208
  8
0
  6
CONTINUOUS
 62
     3
 10
55.6394515204002715
 20
-77.8000000000001677
 30
0.0
 40
0.8000000000000113
210
0.0
220
-0.0000000000000002
230
-1.0
 50
89.9999999999964189
 51
199.8552143693225105
  0
ARC
  5
7209
  8
0
  6
CONTINUOUS
 62
     3
 10
-55.6394515204001507
 20
-77.8000000000001677
 30
0.0
 40
0.8000000000000174
210
0.0
220
-0.0000000000000002
230
-1.0
 50
340.1447856306774042
 51
90.0000000000035811
  0
LINE
  5
720A
  8
0
  6
CONTINUOUS
 62
     3
 10
54.8870084006467991
 20
-78.0717155710222244
 30
0.0000000000000173
 11
57.7499999999999716
 21
-86.0000000000000853
 31
0.0000000000000191
210
0.0
220
1.0
230
-0.0000000000000002
  0
LINE
  5
720B
  8
0
  6
CONTINUOUS
 62
     3
 10
-54.8870084006469199
 20
-78.0717155710222244
 30
0.0000000000000173
 11
-57.7500000000000924
 21
-86.0000000000000853
 31
0.0000000000000191
210
0.0
220
1.0
230
-0.0000000000000002
  0
LINE
  5
720C
  8
0
  6
CONTINUOUS
 62
     3
 10
57.7499999999999503
 20
-86.0000000000000995
 30
0.0000000000000191
 11
59.4999999999999432
 21
-87.5000000000001563
 31
0.0000000000000194
210
0.0
220
1.0
230
-0.0000000000000002
  0
LINE
  5
720D
  8
0
  6
CONTINUOUS
 62
     3
 10
-57.7500000000000497
 20
-86.0000000000000995
 30
0.0000000000000191
 11
-59.5000000000000568
 21
-87.5000000000001563
 31
0.0000000000000194
210
0.0
220
1.0
230
-0.0000000000000002
  0
LINE
  5
720E
  8
0
  6
CONTINUOUS
 62
     3
 10
59.4999999999999432
 20
-87.5000000000001563
 30
0.0000000000000194
 11
59.4999999999999432
 21
-88.5000000000001279
 31
0.0000000000000197
210
0.0
220
1.0
230
-0.0000000000000002
  0
LINE
  5
720F
  8
0
  6
CONTINUOUS
 62
     3
 10
-59.5000000000000568
 20
-87.5000000000001563
 30
0.0000000000000194
 11
-59.5000000000000568
 21
-88.5000000000001279
 31
0.0000000000000197
210
0.0
220
1.0
230
-0.0000000000000002
  0
LINE
  5
7210
  8
0
  6
CONTINUOUS
 62
     3
 10
-57.1171444324797335
 20
-90.8828555675204655
 30
0.0000000000000202
 11
-59.5000000000000497
 21
-88.5000000000001279
 31
0.0000000000000197
210
0.0
220
1.0
230
-0.0000000000000002
  0
LINE
  5
7211
  8
0
  6
CONTINUOUS
 62
     3
 10
57.1171444324796127
 20
-90.8828555675204655
 30
0.0000000000000202
 11
59.4999999999999289
 21
-88.5000000000001279
 31
0.0000000000000197
210
0.0
220
1.0
230
-0.0000000000000002
  0
LINE
  5
7212
  8
0
  6
CONTINUOUS
 62
     3
 10
57.1171444324796127
 20
-90.8828555675204655
 30
0.0000000000000202
 11
59.9999999999999289
 21
-95.0000000000000711
 31
0.0000000000000211
210
0.0
220
1.0
230
-0.0000000000000002
  0
LINE
  5
7213
  8
0
  6
CONTINUOUS
 62
     3
 10
-57.1171444324797335
 20
-90.8828555675204655
 30
0.0000000000000202
 11
-60.0000000000000497
 21
-95.0000000000000711
 31
0.0000000000000211
210
0.0
220
1.0
230
-0.0000000000000002
  0
ARC
  5
7214
  8
0
  6
CONTINUOUS
 62
     3
 10
49.5000000000000071
 20
-92.0000000000000142
 30
0.0
 40
5.0000000000000853
210
0.0
220
-0.0000000000000002
230
-1.0
 50
270.0
 51
323.1301023541556106
  0
ARC
  5
7215
  8
0
  6
CONTINUOUS
 62
     3
 10
-49.4999999999999005
 20
-92.0000000000000142
 30
0.0
 40
5.000000000000087
210
0.0
220
-0.0000000000000002
230
-1.0
 50
216.8698976458439063
 51
269.9999999999994884
  0
ARC
  5
7216
  8
0
  6
CONTINUOUS
 62
     3
 10
55.6090464708853105
 20
-71.4999999999999147
 30
0.0
 40
1.499999999999897
210
0.0
220
-0.0000000000000002
230
-1.0
 50
25.8941133784689903
 51
90.00000000000108
  0
ARC
  5
7217
  8
0
  6
CONTINUOUS
 62
     3
 10
-55.6090464708851968
 20
-71.4999999999999147
 30
0.0
 40
1.4999999999999001
210
0.0
220
-0.0000000000000002
230
-1.0
 50
89.9999999999989342
 51
154.105886621530999
  0
LINE
  5
7218
  8
0
  6
CONTINUOUS
 62
     3
 10
56.9584504483274685
 20
-70.844935953007095
 30
0.0000000000000157
 11
59.0984106065127932
 21
-75.2531625413522107
 31
0.0000000000000167
210
0.0
220
1.0
230
-0.0000000000000002
  0
LINE
  5
7219
  8
0
  6
CONTINUOUS
 62
     3
 10
-56.9584504483275893
 20
-70.844935953007095
 30
0.0000000000000157
 11
-59.0984106065129069
 21
-75.2531625413522107
 31
0.0000000000000167
210
0.0
220
1.0
230
-0.0000000000000002
  0
ARC
  5
721A
  8
0
  6
CONTINUOUS
 62
     3
 10
55.4999999999990195
 20
-77.0000000000004405
 30
0.0
 40
4.0000000000010374
210
0.0
220
-0.0000000000000002
230
-1.0
 50
0.0000000000044782
 51
25.8941133784711894
  0
ARC
  5
721B
  8
0
  6
CONTINUOUS
 62
     3
 10
-55.4999999999988987
 20
-77.0000000000004547
 30
0.0
 40
4.0000000000010427
210
0.0
220
-0.0000000000000002
230
-1.0
 50
154.1058866215286116
 51
179.9999999999953104
  0
LINE
  5
721C
  8
0
  6
CONTINUOUS
 62
     3
 10
-58.88809651072647
 20
285.0000000000001137
 30
-0.0000000000000633
 11
58.8880965107264416
 21
285.0000000000001137
 31
-0.0000000000000633
210
0.0
220
1.0
230
-0.0000000000000002
  0
LINE
  5
721D
  8
0
  6
CONTINUOUS
 62
     3
 10
200.0
 20
298.0
 30
-0.0000000000000662
 11
180.0
 21
298.0
 31
-0.0000000000000662
210
0.0
220
1.0
230
-0.0000000000000002
  0
LINE
  5
721E
  8
0
  6
CONTINUOUS
 62
     3
 10
180.0
 20
297.0
 30
-0.0000000000000659
 11
200.0
 21
297.0
 31
-0.0000000000000659
210
0.0
220
1.0
230
-0.0000000000000002
  0
LINE
  5
721F
  8
0
  6
CONTINUOUS
 62
     3
 10
200.0
 20
298.0
 30
-0.0000000000000662
 11
200.0
 21
297.0
 31
-0.0000000000000659
210
0.0
220
1.0
230
-0.0000000000000002
  0
LINE
  5
7220
  8
0
  6
CONTINUOUS
 62
     3
 10
-200.0
 20
298.0
 30
-0.0000000000000662
 11
-200.0
 21
297.0
 31
-0.0000000000000659
210
0.0
220
1.0
230
-0.0000000000000002
  0
LINE
  5
7221
  8
0
  6
CONTINUOUS
 62
     3
 10
-180.0
 20
298.0
 30
-0.0000000000000662
 11
-200.0
 21
298.0
 31
-0.0000000000000662
210
0.0
220
1.0
230
-0.0000000000000002
  0
LINE
  5
7222
  8
0
  6
CONTINUOUS
 62
     3
 10
-200.0
 20
297.0
 30
-0.0000000000000659
 11
-180.0
 21
297.0
 31
-0.0000000000000659
210
0.0
220
1.0
230
-0.0000000000000002
  0
LINE
  5
7223
  8
0
  6
CONTINUOUS
 62
     3
 10
-180.0
 20
298.0
 30
-0.0000000000000662
 11
180.0
 21
298.0
 31
-0.0000000000000662
210
0.0
220
1.0
230
-0.0000000000000002
  0
LINE
  5
7224
  8
0
  6
CONTINUOUS
 62
     3
 10
180.0
 20
297.0
 30
-0.0000000000000659
 11
-180.0
 21
297.0
 31
-0.0000000000000659
210
0.0
220
1.0
230
-0.0000000000000002
  0
ARC
  5
7225
  8
0
  6
CONTINUOUS
 62
     3
 10
61.6127167972643193
 20
296.0000000000002274
 30
0.0
 40
0.9999999999998294
210
0.0
220
-0.0000000000000002
230
-1.0
 50
89.9999999999959357
 51
171.1507489187152089
  0
ARC
  5
7226
  8
0
  6
CONTINUOUS
 62
     3
 10
-61.6127167972643193
 20
296.0000000000002274
 30
0.0
 40
0.9999999999998651
210
0.0
220
-0.0000000000000002
230
-1.0
 50
8.8492510812848142
 51
90.0000000000040643
  0
LINE
  5
7227
  8
0
  6
CONTINUOUS
 62
     3
 10
-58.8880965107264274
 20
285.0000000000001137
 30
-0.0000000000000633
 11
-60.6246202865379686
 21
296.153835254380283
 31
-0.0000000000000658
210
0.0
220
1.0
230
-0.0000000000000002
  0
LINE
  5
7228
  8
0
  6
CONTINUOUS
 62
     3
 10
58.8880965107264274
 20
285.0000000000001137
 30
-0.0000000000000633
 11
60.6246202865379686
 21
296.153835254380283
 31
-0.0000000000000658
210
0.0
220
1.0
230
-0.0000000000000002
  0
LINE
  5
7229
  8
0
  6
VERDECKT
 62
     1
 10
-53.1999999999999886
 20
299.3674454524892212
 30
-0.0000000000000665
 11
53.2000000000000028
 21
299.3674454524892212
 31
-0.0000000000000665
210
0.0
220
1.0
230
-0.0000000000000002
  0
LINE
  5
722A
  8
0
  6
VERDECKT
 62
     1
 10
-48.7296797270312396
 20
0.1045868912971742
 30
0.0
 11
48.7296797270312112
 21
0.1045868912971742
 31
0.0
210
0.0
220
1.0
230
-0.0000000000000002
  0
ARC
  5
722B
  8
0
  6
VERDECKT
 62
     1
 10
33.4000000000001833
 20
287.0853446549871819
 30
0.0
 40
24.4999999999998188
210
0.0
220
-0.0000000000000002
230
-1.0
 50
359.9999999999997726
 51
26.4550858057777383
  0
ARC
  5
722C
  8
0
  6
VERDECKT
 62
     1
 10
-33.3999999999999417
 20
287.0853446549871819
 30
0.0
 40
24.5000000000000604
210
0.0
220
-0.0000000000000002
230
-1.0
 50
153.5449141942224003
 51
180.0
  0
LINE
  5
722D
  8
0
  6
VERDECKT
 62
     1
 10
57.8999999999999986
 20
287.0853446549871819
 30
-0.0000000000000637
 11
57.8999999999999986
 21
285.0000000000001137
 31
-0.0000000000000633
210
0.0
220
1.0
230
-0.0000000000000002
  0
LINE
  5
722E
  8
0
  6
VERDECKT
 62
     1
 10
-57.8999999999999986
 20
287.0853446549871819
 30
-0.0000000000000637
 11
-57.8999999999999986
 21
285.0000000000001137
 31
-0.0000000000000633
210
0.0
220
1.0
230
-0.0000000000000002
  0
ARC
  5
722F
  8
0
  6
VERDECKT
 62
     1
 10
58.7999999999999403
 20
225.9477584316337868
 30
0.0
 40
9.1999999999999869
210
0.0
220
-0.0000000000000002
230
-1.0
 50
149.5670170332145119
 51
179.999999999999801
  0
ARC
  5
7230
  8
0
  6
VERDECKT
 62
     1
 10
-58.7999999999997414
 20
225.9477584316339005
 30
0.0
 40
9.1999999999997755
210
0.0
220
-0.0000000000000002
230
-1.0
 50
359.9999999999996021
 51
30.4329829667856586
  0
ARC
  5
7231
  8
0
  6
VERDECKT
 62
     1
 10
39.4000000000000483
 20
237.3446878426638023
 30
0.0
 40
13.2999999999999297
210
0.0
220
-0.0000000000000002
230
-1.0
 50
329.5670170332144266
 51
0.0000000000000877
  0
ARC
  5
7232
  8
0
  6
VERDECKT
 62
     1
 10
-39.4000000000000483
 20
237.3446878426638023
 30
0.0
 40
13.2999999999999403
210
0.0
220
-0.0000000000000002
230
-1.0
 50
179.9999999999998863
 51
210.4329829667856018
  0
LINE
  5
7233
  8
0
  6
VERDECKT
 62
     1
 10
52.6999999999999886
 20
256.3468917126078281
 30
-0.0000000000000569
 11
52.6999999999999886
 21
237.3446878426638023
 31
-0.0000000000000527
210
0.0
220
1.0
230
-0.0000000000000002
  0
LINE
  5
7234
  8
0
  6
VERDECKT
 62
     1
 10
-52.6999999999999886
 20
256.3468917126078281
 30
-0.0000000000000569
 11
-52.6999999999999886
 21
237.3446878426638023
 31
-0.0000000000000527
210
0.0
220
1.0
230
-0.0000000000000002
  0
ARC
  5
7235
  8
0
  6
VERDECKT
 62
     1
 10
66.3999999999999488
 20
256.3468917126077145
 30
0.0
 40
13.6999999999999496
210
0.0
220
-0.0000000000000002
230
-1.0
 50
153.1119523822756889
 51
179.9999999999992895
  0
ARC
  5
7236
  8
0
  6
VERDECKT
 62
     1
 10
-66.4000000000001762
 20
256.3468917126076008
 30
0.0
 40
13.7000000000001805
210
0.0
220
-0.0000000000000002
230
-1.0
 50
0.0000000000009542
 51
26.8880476177240091
  0
ARC
  5
7237
  8
0
  6
VERDECKT
 62
     1
 10
33.3999999999999773
 20
273.0800922432891866
 30
0.0
 40
23.3000000000000114
210
0.0
220
-0.0000000000000002
230
-1.0
 50
333.1119523822760016
 51
0.0000000000004326
  0
ARC
  5
7238
  8
0
  6
VERDECKT
 62
     1
 10
-33.4000000000000981
 20
273.0800922432890729
 30
0.0
 40
23.2999999999998799
210
0.0
220
-0.0000000000000002
230
-1.0
 50
179.9999999999994031
 51
206.8880476177239984
  0
LINE
  5
7239
  8
0
  6
VERDECKT
 62
     1
 10
56.7000000000000099
 20
287.0853446549871819
 30
-0.0000000000000637
 11
56.7000000000000099
 21
273.0800922432893003
 31
-0.0000000000000606
210
0.0
220
1.0
230
-0.0000000000000002
  0
LINE
  5
723A
  8
0
  6
VERDECKT
 62
     1
 10
-56.7000000000000099
 20
287.0853446549871819
 30
-0.0000000000000637
 11
-56.7000000000000099
 21
273.0800922432893003
 31
-0.0000000000000606
210
0.0
220
1.0
230
-0.0000000000000002
  0
ARC
  5
723B
  8
0
  6
VERDECKT
 62
     1
 10
33.3999999999999204
 20
287.0853446549871819
 30
0.0
 40
23.3000000000000789
210
0.0
220
-0.0000000000000002
230
-1.0
 50
0.0
 51
31.8116631867233401
  0
ARC
  5
723C
  8
0
  6
VERDECKT
 62
     1
 10
-33.4000000000000199
 20
287.0853446549871819
 30
0.0
 40
23.3000000000000007
210
0.0
220
-0.0000000000000002
230
-1.0
 50
148.1883368132764929
 51
180.0
  0
LINE
  5
723D
  8
0
  6
VERDECKT
 62
     1
 10
-53.2000000000000028
 20
299.3674454524892212
 30
-0.0000000000000665
 11
-54.2197424892703879
 21
300.0
 31
-0.0000000000000666
210
0.0
220
1.0
230
-0.0000000000000002
  0
LINE
  5
723E
  8
0
  6
VERDECKT
 62
     1
 10
53.2000000000000028
 20
299.3674454524892212
 30
-0.0000000000000665
 11
54.2197424892703879
 21
300.0
 31
-0.0000000000000666
210
0.0
220
1.0
230
-0.0000000000000002
  0
ARC
  5
723F
  8
0
  6
VERDECKT
 62
     1
 10
48.600000000001927
 20
10.0959548244138695
 30
0.0
 40
0.9999999999980389
210
0.0
220
-0.0000000000000002
230
-1.0
 50
354.9999501490535181
 51
0.000000000002748
  0
ARC
  5
7240
  8
0
  6
VERDECKT
 62
     1
 10
-48.600000000001927
 20
10.0959548244138695
 30
0.0
 40
0.9999999999980389
210
0.0
220
-0.0000000000000002
230
-1.0
 50
179.9999999999971863
 51
185.0000498509463966
  0
LINE
  5
7241
  8
0
  6
VERDECKT
 62
     1
 10
-48.729679727031133
 20
0.104586891297183
 30
0.0
 11
-49.5961946222603487
 21
10.0087982149141208
 31
-0.0000000000000022
210
0.0
220
1.0
230
-0.0000000000000002
  0
LINE
  5
7242
  8
0
  6
VERDECKT
 62
     1
 10
48.729679727031133
 20
0.1045868912971821
 30
0.0
 11
49.5961946222603487
 21
10.0087982149141208
 31
-0.0000000000000022
210
0.0
220
1.0
230
-0.0000000000000002
  0
LINE
  5
7243
  8
0
  6
VERDECKT
 62
     1
 10
49.599999999999973
 20
225.9477584316339005
 30
-0.0000000000000502
 11
49.599999999999973
 21
10.0959548244139192
 31
-0.0000000000000022
210
0.0
220
1.0
230
-0.0000000000000002
  0
LINE
  5
7244
  8
0
  6
VERDECKT
 62
     1
 10
-49.599999999999973
 20
225.9477584316339005
 30
-0.0000000000000502
 11
-49.599999999999973
 21
10.0959548244139192
 31
-0.0000000000000022
210
0.0
220
1.0
230
-0.0000000000000002
  0
LINE
  5
7245
  8
0
  6
VERDECKT
 62
     1
 10
-49.9251133647411507
 20
0.0
 30
0.0
 11
-48.7296797270314528
 21
0.1045868912971173
 31
0.0
210
0.0
220
1.0
230
-0.0000000000000002
  0
LINE
  5
7246
  8
0
  6
VERDECKT
 62
     1
 10
48.7296797270314386
 20
0.1045868912971173
 30
0.0
 11
49.9251133647411365
 21
0.0
 31
0.0
210
0.0
220
1.0
230
-0.0000000000000002
  0
LINE
  5
7247
  8
0
  6
VERDECKT
 62
     1
 10
-51.8000000000000114
 20
-79.9132265073573222
 30
0.0000000000000177
 11
51.8000000000000114
 21
-79.9132265073573222
 31
0.0000000000000177
210
0.0
220
1.0
230
-0.0000000000000002
  0
LINE
  5
7248
  8
0
  6
VERDECKT
 62
     1
 10
47.5
 20
-95.44398402515192
 30
0.0000000000000212
 11
-47.5
 21
-95.44398402515192
 31
0.0000000000000212
210
0.0
220
1.0
230
-0.0000000000000002
  0
LINE
  5
7249
  8
0
  6
VERDECKT
 62
     1
 10
-56.5995849235806574
 20
-93.0000000000000426
 30
0.0000000000000207
 11
56.5995849235805508
 21
-93.0000000000000426
 31
0.0000000000000207
210
0.0
220
1.0
230
-0.0000000000000002
  0
ARC
  5
724A
  8
0
  6
VERDECKT
 62
     1
 10
55.6090464708852323
 20
-71.4932265073572495
 30
0.0
 40
1.499999999999968
210
0.0
220
-0.0000000000000002
230
-1.0
 50
95.4470566892314451
 51
165.0000000000017906
  0
ARC
  5
724B
  8
0
  6
VERDECKT
 62
     1
 10
-55.6090464708852323
 20
-71.4932265073572495
 30
0.0
 40
1.499999999999968
210
0.0
220
-0.0000000000000002
230
-1.0
 50
14.9999999999981704
 51
84.5529433107685549
  0
LINE
  5
724C
  8
0
  6
VERDECKT
 62
     1
 10
-51.7999999999999972
 20
-79.9132265073573222
 30
0.0000000000000177
 11
-54.1601577314516476
 21
-71.104997939703523
 31
0.0000000000000158
210
0.0
220
1.0
230
-0.0000000000000002
  0
LINE
  5
724D
  8
0
  6
VERDECKT
 62
     1
 10
51.7999999999999972
 20
-79.9132265073573222
 30
0.0000000000000177
 11
54.1601577314516476
 21
-71.104997939703523
 31
0.0000000000000158
210
0.0
220
1.0
230
-0.0000000000000002
  0
LINE
  5
724E
  8
0
  6
VERDECKT
 62
     1
 10
51.8000000000000114
 20
-79.9132265073573222
 30
0.0000000000000177
 11
51.8000000000000114
 21
-90.4932265073573063
 31
0.0000000000000201
210
0.0
220
1.0
230
-0.0000000000000002
  0
LINE
  5
724F
  8
0
  6
VERDECKT
 62
     1
 10
-51.8000000000000114
 20
-79.9132265073573222
 30
0.0000000000000177
 11
-51.8000000000000114
 21
-90.4932265073573063
 31
0.0000000000000201
210
0.0
220
1.0
230
-0.0000000000000002
  0
ARC
  5
7250
  8
0
  6
VERDECKT
 62
     1
 10
46.7999999999999687
 20
-90.4932265073572353
 30
0.0
 40
5.0000000000000488
210
0.0
220
-0.0000000000000002
230
-1.0
 50
278.0478462473117816
 51
359.9999999999993179
  0
ARC
  5
7251
  8
0
  6
VERDECKT
 62
     1
 10
-46.7999999999999687
 20
-90.4932265073572353
 30
0.0
 40
5.0000000000000417
210
0.0
220
-0.0000000000000002
230
-1.0
 50
180.0000000000005969
 51
261.9521537526882184
  0
LINE
  5
7252
  8
0
  6
VERDECKT
 62
     1
 10
-47.5
 20
-97.0000000000001137
 30
0.0000000000000215
 11
-47.5
 21
-95.44398402515192
 31
0.0000000000000212
210
0.0
220
1.0
230
-0.0000000000000002
  0
LINE
  5
7253
  8
0
  6
VERDECKT
 62
     1
 10
47.5
 20
-97.0000000000001137
 30
0.0000000000000215
 11
47.5
 21
-95.44398402515192
 31
0.0000000000000212
210
0.0
220
1.0
230
-0.0000000000000002
  0
LINE
  5
7254
  8
0
  6
VERDECKT
 62
     1
 10
56.5995849235805224
 20
-93.0000000000000568
 30
0.0000000000000207
 11
57.9999999999999076
 21
-95.0000000000000853
 31
0.0000000000000211
210
0.0
220
1.0
230
-0.0000000000000002
  0
LINE
  5
7255
  8
0
  6
VERDECKT
 62
     1
 10
-56.5995849235806432
 20
-93.0000000000000568
 30
0.0000000000000207
 11
-58.0000000000000284
 21
-95.0000000000000853
 31
0.0000000000000211
210
0.0
220
1.0
230
-0.0000000000000002
  0
ARC
  5
7256
  8
0
  6
VERDECKT
 62
     1
 10
49.5000000000001492
 20
-92.0000000000001563
 30
0.0
 40
4.9999999999999121
210
0.0
220
-0.0000000000000002
230
-1.0
 50
323.130102354156179
 51
348.4630409671851226
  0
ARC
  5
7257
  8
0
  6
VERDECKT
 62
     1
 10
-49.5000000000000284
 20
-92.0000000000001563
 30
0.0
 40
4.9999999999999103
210
0.0
220
-0.0000000000000002
230
-1.0
 50
191.5369590328147922
 51
216.8698976458437926
  0
LINE
  5
7258
  8
0
  6
VERDECKT
 62
     1
 10
-57.8999999999999986
 20
285.153835254380283
 30
-0.0000000000000633
 11
57.8999999999999986
 21
285.153835254380283
 31
-0.0000000000000633
210
0.0
220
1.0
230
-0.0000000000000002
  0
LINE
  5
7259
  8
0
  6
VERDECKT
 62
     1
 10
57.8999999999999915
 20
285.153835254380283
 30
-0.0000000000000633
 11
58.8880965107264416
 21
285.0000000000001137
 31
-0.0000000000000633
210
0.0
220
1.0
230
-0.0000000000000002
  0
LINE
  5
725A
  8
0
  6
VERDECKT
 62
     1
 10
-57.8999999999999915
 20
285.153835254380283
 30
-0.0000000000000633
 11
-58.8880965107264416
 21
285.0000000000001137
 31
-0.0000000000000633
210
0.0
220
1.0
230
-0.0000000000000002
  0
LINE
  5
725B
  8
0
  6
VERDECKT
 62
     1
 10
-57.8999999999999986
 20
285.153835254380283
 30
-0.0000000000000633
 11
-59.6365237758115185
 21
296.3076705087605092
 31
-0.0000000000000658
210
0.0
220
1.0
230
-0.0000000000000002
  0
LINE
  5
725C
  8
0
  6
VERDECKT
 62
     1
 10
57.8999999999999986
 20
285.153835254380283
 30
-0.0000000000000633
 11
59.6365237758115185
 21
296.3076705087605092
 31
-0.0000000000000658
210
0.0
220
1.0
230
-0.0000000000000002
  0
ARC
  5
725D
  8
0
  6
VERDECKT
 62
     1
 10
61.612716797264369
 20
296.0000000000001137
 30
0.0
 40
1.9999999999999429
210
0.0
220
-0.0000000000000002
230
-1.0
 50
89.9999999999992042
 51
171.1507489187144984
  0
ARC
  5
725E
  8
0
  6
VERDECKT
 62
     1
 10
-61.612716797264369
 20
296.0000000000001137
 30
0.0
 40
1.999999999999964
210
0.0
220
-0.0000000000000002
230
-1.0
 50
8.8492510812854235
 51
90.00000000000081
  0
LINE
  5
725F
  8
0
  6
VERDECKT
 62
     1
 10
-177.0
 20
298.0
 30
-0.0000000000000662
 11
-177.0
 21
297.0
 31
-0.0000000000000659
210
0.0
220
1.0
230
-0.0000000000000002
  0
LINE
  5
7260
  8
0
  6
VERDECKT
 62
     1
 10
-183.0
 20
298.0
 30
-0.0000000000000662
 11
-183.0
 21
297.0
 31
-0.0000000000000659
210
0.0
220
1.0
230
-0.0000000000000002
  0
LINE
  5
7261
  8
0
  6
VERDECKT
 62
     1
 10
183.0
 20
298.0
 30
-0.0000000000000662
 11
183.0
 21
297.0
 31
-0.0000000000000659
210
0.0
220
1.0
230
-0.0000000000000002
  0
LINE
  5
7262
  8
0
  6
VERDECKT
 62
     1
 10
177.0
 20
298.0
 30
-0.0000000000000662
 11
177.0
 21
297.0
 31
-0.0000000000000659
210
0.0
220
1.0
230
-0.0000000000000002
  0
ENDBLK
  5
7264
  8
0
  0
BLOCK
  8
0
  2
A$C3735F412
 70
     0
 10
0.0
 20
0.0
 30
0.0
  3
A$C3735F412
  1

  0
CIRCLE
  5
7268
  8
0
  6
CONTINUOUS
 62
     3
 10
0.0000000000000666
 20
-0.0000000000000568
 30
0.0
 40
54.2197424892703879
  0
CIRCLE
  5
7269
  8
0
  6
CONTINUOUS
 62
     3
 10
0.0000000000000637
 20
-0.0000000000000555
 30
0.0
 40
57.8999999999999986
  0
CIRCLE
  5
726A
  8
0
  6
CONTINUOUS
 62
     3
 10
0.0000000000000502
 20
-0.0000000000000492
 30
0.0
 40
49.599999999999973
  0
CIRCLE
  5
726B
  8
0
  6
CONTINUOUS
 62
     3
 10
0.0000000000000569
 20
-0.0000000000000523
 30
0.0
 40
52.6999999999999886
  0
CIRCLE
  5
726C
  8
0
  6
CONTINUOUS
 62
     3
 10
0.0000000000000665
 20
-0.0000000000000568
 30
0.0
 40
53.2000000000000028
  0
CIRCLE
  5
726D
  8
0
  6
CONTINUOUS
 62
     3
 10
0.0
 20
0.0000000000000015
 30
0.0
 40
48.7296797270312396
  0
CIRCLE
  5
726E
  8
0
  6
CONTINUOUS
 62
     3
 10
-0.0000000000000212
 20
-0.0000000000000077
 30
0.0
 40
47.5
  0
CIRCLE
  5
726F
  8
0
  6
CONTINUOUS
 62
     3
 10
-179.9999999999998863
 20
-180.0
 30
-0.0000000000000568
 40
3.0
  0
CIRCLE
  5
7270
  8
0
  6
CONTINUOUS
 62
     3
 10
-179.9999999999998863
 20
179.9999999999998863
 30
-0.0000000000000568
 40
3.0000000000000089
  0
CIRCLE
  5
7271
  8
0
  6
CONTINUOUS
 62
     3
 10
180.0
 20
179.9999999999998863
 30
0.0000000000000568
 40
3.000000000000004
  0
CIRCLE
  5
7272
  8
0
  6
CONTINUOUS
 62
     3
 10
180.0
 20
-180.0
 30
0.0000000000000568
 40
2.999999999999992
  0
ARC
  5
7273
  8
0
  6
CONTINUOUS
 62
     3
 10
180.0
 20
-180.0
 30
0.0000000000000568
 40
20.0
 50
270.0
 51
0.0
  0
LINE
  5
7274
  8
0
  6
CONTINUOUS
 62
     3
 10
200.0
 20
-180.0
 30
0.0000000000000568
 11
200.0
 21
179.9999999999998863
 31
0.0000000000000568
  0
ARC
  5
7275
  8
0
  6
CONTINUOUS
 62
     3
 10
180.0
 20
179.9999999999998863
 30
0.0000000000000568
 40
20.0
 50
0.0
 51
90.0
  0
LINE
  5
7276
  8
0
  6
CONTINUOUS
 62
     3
 10
180.0
 20
199.9999999999998863
 30
0.0000000000000568
 11
-179.9999999999998863
 21
199.9999999999998863
 31
-0.0000000000000231
  0
ARC
  5
7277
  8
0
  6
CONTINUOUS
 62
     3
 10
-179.9999999999998863
 20
179.9999999999998863
 30
-0.0000000000000568
 40
20.0
 50
90.0
 51
180.0
  0
LINE
  5
7278
  8
0
  6
CONTINUOUS
 62
     3
 10
-199.9999999999998863
 20
179.9999999999998863
 30
-0.0000000000000568
 11
-199.9999999999998863
 21
-180.0
 31
-0.0000000000000568
  0
ARC
  5
7279
  8
0
  6
CONTINUOUS
 62
     3
 10
-179.9999999999998863
 20
-180.0
 30
-0.0000000000000568
 40
20.0
 50
180.0
 51
270.0
  0
LINE
  5
727A
  8
0
  6
CONTINUOUS
 62
     3
 10
-179.9999999999998863
 20
-200.0
 30
-0.0000000000000568
 11
180.0
 21
-200.0
 31
0.0000000000000231
  0
CIRCLE
  5
727B
  8
0
  6
VERDECKT
 62
     1
 10
0.0000000000000569
 20
-0.0000000000000523
 30
0.0
 40
53.8999999999999702
  0
CIRCLE
  5
727C
  8
0
  6
VERDECKT
 62
     1
 10
0.0000000000000502
 20
-0.0000000000000492
 30
0.0
 40
50.7999999999999829
  0
CIRCLE
  5
727D
  8
0
  6
VERDECKT
 62
     1
 10
0.0000000000000637
 20
-0.0000000000000555
 30
0.0
 40
56.7000000000000099
  0
CIRCLE
  5
727E
  8
0
  6
VERDECKT
 62
     1
 10
0.0
 20
0.0000000000000015
 30
0.0
 40
49.925113364741037
  0
CIRCLE
  5
727F
  8
0
  6
VERDECKT
 62
     1
 10
-0.0000000000000177
 20
-0.0000000000000068
 30
0.0
 40
51.8000000000000114
  0
CIRCLE
  5
7280
  8
0
  6
VERDECKT
 62
     1
 10
-0.0000000000000759
 20
-0.0016575748095185
 30
0.0
 40
57.75
  0
CIRCLE
  5
7281
  8
0
  6
VERDECKT
 62
     1
 10
-0.000000000000077
 20
-0.0016575748095188
 30
0.0
 40
57.1171444324796695
  0
CIRCLE
  5
7282
  8
0
  6
VERDECKT
 62
     1
 10
-0.0000000000000779
 20
-0.0016575748095191
 30
0.0
 40
60.0
  0
CIRCLE
  5
7283
  8
0
  6
VERDECKT
 62
     1
 10
-0.0000000000000779
 20
-0.0016575748095191
 30
0.0
 40
58.0
  0
CIRCLE
  5
7284
  8
0
  6
VERDECKT
 62
     1
 10
-0.0000000000000775
 20
-0.0016575748095189
 30
0.0
 40
56.5995849235806077
  0
CIRCLE
  5
7285
  8
0
  6
VERDECKT
 62
     1
 10
-0.0000000000000775
 20
-0.0016575748095189
 30
0.0
 40
54.3989794855663717
  0
CIRCLE
  5
7286
  8
0
  6
VERDECKT
 62
     1
 10
-0.0000000000000739
 20
-0.0016575748095179
 30
0.0
 40
59.5
  0
CIRCLE
  5
7287
  8
0
  6
VERDECKT
 62
     1
 10
-0.0000000000000741
 20
-0.001657574809518
 30
0.0
 40
54.8394515204001891
  0
CIRCLE
  5
7288
  8
0
  6
VERDECKT
 62
     1
 10
0.0000000000000633
 20
-0.0000000000000568
 30
0.0
 40
58.8880965107264416
  0
ENDBLK
  5
728A
  8
0
  0
ENDSEC
  0
SECTION
  2
ENTITIES
  0
TEXT
  5
8F
  8
VOLL
 10
78.076754716981128
 20
31.025947764705851
 30
0.0
 40
1.8
  1

  7
GREEKS
  0
INSERT
  5
171F
  8
ADSK_ASSOC_ENTITY_BACKUPS
  2
*S0
 10
0.0
 20
0.0
 30
0.0
  0
INSERT
  5
7265
  8
STEMPEL
  2
A$CCEB516A6
 10
0.0
 20
0.0
 30
0.0
  0
INSERT
  5
728B
  8
STEMPEL
  2
A$C3735F412
 10
0.0
 20
-380.0
 30
0.0
  0
VIEWPORT
  5
16FD
 67
     1
  8
0
 10
297.0140269589737727
 20
210.0135833690675042
 30
0.0
 40
798.1701256077442395
 41
426.3698209718668863
 68
     1
 69
     1
1001
ACAD
1000
MVIEW
1002
{
1070
    16
1010
0.0
1020
0.0
1030
0.0
1010
0.0
1020
0.0
1030
1.0
1040
0.0
1040
426.3698209718668863
1040
297.0140269589737727
1040
210.0135833690675042
1040
50.0
1040
0.0
1040
0.0
1070
     0
1070
  1500
1070
     1
1070
     1
1070
     0
1070
     0
1070
     0
1070
     0
1040
0.0
1040
0.0
1040
0.0
1040
10.0
1040
10.0
1040
10.0
1040
10.0
1070
     0
1002
{
1002
}
1002
}
  0
ENDSEC
  0
EOF
