  0
SECTION
  2
HEADER
  9
$ACADVER
  1
AC1009
  9
$INSBASE
 10
0.0
 20
0.0
 30
0.0
  9
$EXTMIN
 10
-125.0166308111704012
 20
-125.0128774354383978
 30
-0.0031531975562586
  9
$EXTMAX
 10
125.0051126198436009
 20
252.8721017612517983
 30
0.0005409791427553
  9
$LIMMIN
 10
0.0
 20
0.0
  9
$LIMMAX
 10
420.0
 20
297.0
  9
$ORTHOMODE
 70
     1
  9
$REGENMODE
 70
     1
  9
$FILLMODE
 70
     1
  9
$QTEXTMODE
 70
     0
  9
$MIRRTEXT
 70
     1
  9
$DRAGMODE
 70
     2
  9
$LTSCALE
 40
10.0
  9
$OSMODE
 70
  1327
  9
$ATTMODE
 70
     1
  9
$TEXTSIZE
 40
3.5
  9
$TRACEWID
 40
0.5
  9
$TEXTSTYLE
  7
GREEKS
  9
$CLAYER
  8
0
  9
$CELTYPE
  6
BYLAYER
  9
$CECOLOR
 62
   256
  9
$DIMSCALE
 40
1.0
  9
$DIMASZ
 40
3.5
  9
$DIMEXO
 40
1.0
  9
$DIMDLI
 40
7.0
  9
$DIMRND
 40
0.0
  9
$DIMDLE
 40
0.0
  9
$DIMEXE
 40
1.0
  9
$DIMTP
 40
0.2
  9
$DIMTM
 40
0.2
  9
$DIMTXT
 40
3.5
  9
$DIMCEN
 40
1.5
  9
$DIMTSZ
 40
0.0
  9
$DIMTOL
 70
     0
  9
$DIMLIM
 70
     0
  9
$DIMTIH
 70
     0
  9
$DIMTOH
 70
     0
  9
$DIMSE1
 70
     0
  9
$DIMSE2
 70
     0
  9
$DIMTAD
 70
     1
  9
$DIMZIN
 70
     8
  9
$DIMBLK
  1

  9
$DIMASO
 70
     1
  9
$DIMSHO
 70
     0
  9
$DIMPOST
  1

  9
$DIMAPOST
  1

  9
$DIMALT
 70
     0
  9
$DIMALTD
 70
     2
  9
$DIMALTF
 40
25.3999999999999986
  9
$DIMLFAC
 40
1.0
  9
$DIMTOFL
 70
     1
  9
$DIMTVP
 40
0.0
  9
$DIMTIX
 70
     0
  9
$DIMSOXD
 70
     0
  9
$DIMSAH
 70
     0
  9
$DIMBLK1
  1

  9
$DIMBLK2
  1

  9
$DIMSTYLE
  2
STANDARD
  9
$DIMCLRD
 70
     0
  9
$DIMCLRE
 70
     0
  9
$DIMCLRT
 70
     1
  9
$DIMTFAC
 40
0.5
  9
$DIMGAP
 40
1.5
  9
$LUNITS
 70
     2
  9
$LUPREC
 70
     2
  9
$SKETCHINC
 40
1.0
  9
$FILLETRAD
 40
0.0
  9
$AUNITS
 70
     0
  9
$AUPREC
 70
     0
  9
$MENU
  1
ACAD
  9
$ELEVATION
 40
0.0
  9
$PELEVATION
 40
0.0
  9
$THICKNESS
 40
0.0
  9
$LIMCHECK
 70
     0
  9
$BLIPMODE
 70
     0
  9
$CHAMFERA
 40
0.0
  9
$CHAMFERB
 40
0.0
  9
$SKPOLY
 70
     0
  9
$TDCREATE
 40
2451729.4361226852051914
  9
$TDUPDATE
 40
2458390.5384953711181879
  9
$TDINDWG
 40
0.2068526736
  9
$TDUSRTIMER
 40
0.2068526736
  9
$USRTIMER
 70
     1
  9
$ANGBASE
 50
0.0
  9
$ANGDIR
 70
     0
  9
$PDMODE
 70
     0
  9
$PDSIZE
 40
0.0
  9
$PLINEWID
 40
0.0
  9
$COORDS
 70
     1
  9
$SPLFRAME
 70
     0
  9
$SPLINETYPE
 70
     6
  9
$SPLINESEGS
 70
     8
  9
$ATTDIA
 70
     0
  9
$ATTREQ
 70
     0
  9
$HANDLING
 70
     1
  9
$HANDSEED
  5
35A2
  9
$SURFTAB1
 70
     6
  9
$SURFTAB2
 70
     6
  9
$SURFTYPE
 70
     6
  9
$SURFU
 70
     6
  9
$SURFV
 70
     6
  9
$UCSNAME
  2

  9
$UCSORG
 10
0.0
 20
0.0
 30
0.0
  9
$UCSXDIR
 10
1.0
 20
0.0
 30
0.0
  9
$UCSYDIR
 10
0.0
 20
1.0
 30
0.0
  9
$PUCSNAME
  2

  9
$PUCSORG
 10
0.0
 20
0.0
 30
0.0
  9
$PUCSXDIR
 10
1.0
 20
0.0
 30
0.0
  9
$PUCSYDIR
 10
0.0
 20
1.0
 30
0.0
  9
$USERI1
 70
     0
  9
$USERI2
 70
     0
  9
$USERI3
 70
     0
  9
$USERI4
 70
     0
  9
$USERI5
 70
     0
  9
$USERR1
 40
0.0
  9
$USERR2
 40
0.0
  9
$USERR3
 40
0.0
  9
$USERR4
 40
0.0
  9
$USERR5
 40
0.0
  9
$WORLDVIEW
 70
     1
  9
$SHADEDGE
 70
     3
  9
$SHADEDIF
 70
    70
  9
$TILEMODE
 70
     1
  9
$MAXACTVP
 70
    16
  9
$PLIMCHECK
 70
     0
  9
$PEXTMIN
 10
-0.1169115026037488
 20
-0.1458511145317338
 30
-0.000000000000013
  9
$PEXTMAX
 10
10.8896779222089908
 20
7.5563657688478223
 30
0.0000000000000023
  9
$PLIMMIN
 10
-0.2500002402958907
 20
-0.2499999962453767
  9
$PLIMMAX
 10
10.7499995194082203
 20
8.2499997634587334
  9
$UNITMODE
 70
     0
  9
$VISRETAIN
 70
     0
  9
$PLINEGEN
 70
     0
  9
$PSLTSCALE
 70
     0
  0
ENDSEC
  0
SECTION
  2
TABLES
  0
TABLE
  2
VPORT
 70
     1
  0
VPORT
  2
*ACTIVE
 70
     0
 10
0.0
 20
0.0
 11
1.0
 21
1.0
 12
-0.0057590956633646
 22
63.9296121629066576
 13
0.0
 23
0.0
 14
1.0
 24
1.0
 15
10.0
 25
10.0
 16
-0.0000000000002048
 26
0.0
 36
922.2033977823042505
 17
0.0
 27
0.0
 37
23.0000000000000107
 40
380.7120488664908748
 41
1.8826466916354549
 42
50.0
 43
0.0
 44
0.0
 50
0.0
 51
0.0
 71
     0
 72
  1500
 73
     1
 74
     0
 75
     0
 76
     0
 77
     0
 78
     0
  0
ENDTAB
  0
TABLE
  2
LTYPE
 70
     3
  0
LTYPE
  2
CONTINUOUS
 70
     0
  3
Solid line
 72
    65
 73
     0
 40
0.0
  0
LTYPE
  2
VERDECKT
 70
     0
  3
Verdeckt __ __ __ __ __ __ __ __ __ __ __ __ __
 72
    65
 73
     2
 40
0.375
 49
0.25
 49
-0.125
  0
ENDTAB
  0
TABLE
  2
LAYER
 70
    10
  0
LAYER
  2
0
 70
     0
 62
     7
  6
CONTINUOUS
  0
LAYER
  2
DEFPOINTS
 70
     0
 62
     7
  6
CONTINUOUS
  0
ENDTAB
  0
TABLE
  2
STYLE
 70
     4
  0
STYLE
  2
STANDARD
 70
     0
 40
0.0
 41
1.0
 50
0.0
 71
     0
 42
3.5
  3
txt
  4

  0
STYLE
  2
GREEKS
 70
     0
 40
0.0
 41
0.8
 50
0.0
 71
     0
 42
3.5
  3
SIMPLEX.shx
  4

  0
ENDTAB
  0
TABLE
  2
VIEW
 70
     2
  0
ENDTAB
  0
TABLE
  2
UCS
 70
     0
  0
ENDTAB
  0
TABLE
  2
APPID
 70
    12
  0
APPID
  2
ACAD
 70
     0
  0
APPID
  2
ACAD_EXEMPT_FROM_CAD_STANDARDS
 70
     0
  0
APPID
  2
ACAD_NAV_VCDISPLAY
 70
     0
  0
APPID
  2
GRADIENTCOLOR1ACI
 70
     0
  0
APPID
  2
GRADIENTCOLOR2ACI
 70
     0
  0
APPID
  2
ACAD_DSTYLE_DIMRADIAL_EXTENSION
 70
     0
  0
APPID
  2
ACADANNOMONITORALERTICONDI
 70
     0
  0
APPID
  2
ACAD_MLEADERVER
 70
     0
  0
APPID
  2
ACAD_PSEXT
 70
     0
  0
APPID
  2
ACAECLAYERSTANDARD
 70
     0
  0
APPID
  2
ACCMTRANSPARENCY
 70
     0
  0
APPID
  2
ACAD_OBJECT_CHANGE_GUID
 70
     0
  0
ENDTAB
  0
TABLE
  2
DIMSTYLE
 70
     2
  0
DIMSTYLE
  2
STANDARD
 70
     0
  3

  4

  5

  6

  7

 40
1.0
 41
0.18
 42
0.0625
 43
0.38
 44
0.18
 45
0.0
 46
0.0
 47
0.0
 48
0.0
140
0.18
141
0.09
142
0.0
143
25.3999999999999986
144
1.0
145
0.0
146
1.0
147
0.09
 71
     0
 72
     0
 73
     1
 74
     1
 75
     0
 76
     0
 77
     0
 78
     0
170
     0
171
     2
172
     0
173
     0
174
     0
175
     0
176
     0
177
     0
178
     0
  0
ENDTAB
  0
ENDSEC
  0
SECTION
  2
BLOCKS
  0
BLOCK
  8
0
  2
$MODEL_SPACE
 70
     0
 10
0.0
 20
0.0
 30
0.0
  3
$MODEL_SPACE
  1

  0
ENDBLK
  5
42
  8
0
  0
BLOCK
 67
     1
  8
0
  2
$PAPER_SPACE
 70
     0
 10
0.0
 20
0.0
 30
0.0
  3
$PAPER_SPACE
  1

  0
ENDBLK
  5
40
 67
     1
  8
0
  0
BLOCK
  8
0
  2
A$C720F6CFC
 70
     0
 10
0.0
 20
0.0
 30
0.0
  3
A$C720F6CFC
  1

  0
CIRCLE
  5
34FE
  8
0
  6
CONTINUOUS
 62
     3
 10
-128.6368612839069101
 20
19.9909993292030208
 30
0.0
 40
110.0
  0
CIRCLE
  5
34FF
  8
0
  6
CONTINUOUS
 62
     3
 10
-128.6368612839069101
 20
19.9909993292030208
 30
0.0
 40
120.0
  0
CIRCLE
  5
3500
  8
0
  6
CONTINUOUS
 62
     3
 10
-128.6368612839069101
 20
19.9909993292030208
 30
0.0
 40
120.0363265591533946
  0
CIRCLE
  5
3501
  8
0
  6
CONTINUOUS
 62
     3
 10
-128.6368612839069101
 20
19.9909993292030208
 30
0.0
 40
122.9999999999999005
  0
CIRCLE
  5
3502
  8
0
  6
CONTINUOUS
 62
     3
 10
-128.6368612839069101
 20
19.9909993292030208
 30
0.0
 40
125.0
  0
CIRCLE
  5
3503
  8
0
  6
CONTINUOUS
 62
     3
 10
-128.6368612839069101
 20
19.9909993292030208
 30
0.0
 40
100.0
  0
CIRCLE
  5
3504
  8
0
  6
VERDECKT
 62
     1
 10
-128.6368612839069101
 20
19.9909993292030208
 30
0.0
 40
115.2000000000000028
  0
CIRCLE
  5
3505
  8
0
  6
VERDECKT
 62
     1
 10
-128.6368612839069101
 20
19.9909993292030208
 30
0.0
 40
116.0771151141681941
  0
CIRCLE
  5
3506
  8
0
  6
VERDECKT
 62
     1
 10
-128.6368612839069101
 20
19.9909993292030208
 30
0.0
 40
118.5744680355397946
  0
CIRCLE
  5
3507
  8
0
  6
VERDECKT
 62
     1
 10
-128.6368612839069101
 20
19.9909993292030208
 30
0.0
 40
117.2466019330590967
  0
CIRCLE
  5
3508
  8
0
  6
VERDECKT
 62
     1
 10
-128.6368612839069101
 20
19.9909993292030208
 30
0.0
 40
117.5389736377818934
  0
CIRCLE
  5
3509
  8
0
  6
VERDECKT
 62
     1
 10
-128.6368612839069101
 20
19.9909993292030208
 30
0.0
 40
118.7084604566727961
  0
CIRCLE
  5
350A
  8
0
  6
VERDECKT
 62
     1
 10
-128.6368612839069101
 20
19.9909993292030208
 30
0.0
 40
120.013304952228097
  0
CIRCLE
  5
350B
  8
0
  6
VERDECKT
 62
     1
 10
-128.6368612839069101
 20
19.9909993292030208
 30
0.0
 40
120.1343722921364048
  0
CIRCLE
  5
350C
  8
0
  6
VERDECKT
 62
     1
 10
-128.6368612839069101
 20
19.9909993292030208
 30
0.0
 40
123.5
  0
CIRCLE
  5
350D
  8
0
  6
VERDECKT
 62
     1
 10
-128.6368612839069101
 20
19.9909993292030208
 30
0.0
 40
117.5
  0
CIRCLE
  5
350E
  8
0
  6
VERDECKT
 62
     1
 10
-128.6368612839069101
 20
19.9909993292030208
 30
0.0
 40
112.0393920141694935
  0
CIRCLE
  5
350F
  8
0
  6
VERDECKT
 62
     1
 10
-128.6368612839069101
 20
19.9909993292030208
 30
0.0
 40
113.9999999999999005
  0
ENDBLK
  5
3511
  8
0
  0
BLOCK
  8
0
  2
A$C74A11C29
 70
     0
 10
0.0
 20
0.0
 30
0.0
  3
A$C74A11C29
  1

  0
LINE
  5
3515
  8
0
  6
CONTINUOUS
 62
     3
 10
-115.0185271117517942
 20
46.0000000000000426
 30
-0.0000000000000102
 11
115.0185271117517942
 21
46.0000000000000426
 31
-0.0000000000000102
210
0.0
220
1.0
230
-0.0000000000000002
  0
LINE
  5
3516
  8
0
  6
CONTINUOUS
 62
     3
 10
-120.0
 20
36.0000000000000071
 30
-0.000000000000008
 11
120.0
 21
36.0000000000000071
 31
-0.000000000000008
210
0.0
220
1.0
230
-0.0000000000000002
  0
LINE
  5
3517
  8
0
  6
CONTINUOUS
 62
     3
 10
-115.2000000000000028
 20
33.0303061543301268
 30
-0.0000000000000073
 11
115.2000000000000028
 21
33.0303061543301268
 31
-0.0000000000000073
210
0.0
220
1.0
230
-0.0000000000000002
  0
LINE
  5
3518
  8
0
  6
CONTINUOUS
 62
     3
 10
-116.0771151141681941
 20
30.1613918864410202
 30
-0.0000000000000067
 11
116.0771151141681941
 21
30.1613918864410202
 31
-0.0000000000000067
210
0.0
220
1.0
230
-0.0000000000000002
  0
LINE
  5
3519
  8
0
  6
CONTINUOUS
 62
     3
 10
-118.5744680355397946
 20
28.8335257839604289
 30
-0.0000000000000064
 11
118.5744680355397946
 21
28.8335257839604289
 31
-0.0000000000000064
210
0.0
220
1.0
230
-0.0000000000000002
  0
LINE
  5
351A
  8
0
  6
CONTINUOUS
 62
     3
 10
-117.2466019330589972
 20
26.3361728625888603
 30
-0.0000000000000058
 11
117.2466019330589972
 21
26.3361728625888603
 31
-0.0000000000000058
210
0.0
220
1.0
230
-0.0000000000000002
  0
LINE
  5
351B
  8
0
  6
CONTINUOUS
 62
     3
 10
-117.5389736377818934
 20
25.3798681066257714
 30
-0.0000000000000056
 11
117.5389736377818934
 21
25.3798681066257714
 31
-0.0000000000000056
210
0.0
220
1.0
230
-0.0000000000000002
  0
LINE
  5
351C
  8
0
  6
CONTINUOUS
 62
     3
 10
-120.0363265591533946
 20
24.0520020041451907
 30
-0.0000000000000053
 11
120.0363265591533946
 21
24.0520020041451907
 31
-0.0000000000000053
210
0.0
220
1.0
230
-0.0000000000000002
  0
LINE
  5
351D
  8
0
  6
CONTINUOUS
 62
     3
 10
-118.7084604566727961
 20
21.5546490827737784
 30
-0.0000000000000048
 11
118.7084604566727961
 21
21.5546490827737784
 31
-0.0000000000000048
210
0.0
220
1.0
230
-0.0000000000000002
  0
LINE
  5
351E
  8
0
  6
CONTINUOUS
 62
     3
 10
-120.013304952228097
 20
17.2866950477718717
 30
-0.0000000000000038
 11
120.013304952228097
 21
17.2866950477718717
 31
-0.0000000000000038
210
0.0
220
1.0
230
-0.0000000000000002
  0
LINE
  5
351F
  8
0
  6
CONTINUOUS
 62
     3
 10
-123.0
 20
14.2999999999999901
 30
-0.0000000000000032
 11
123.0
 21
14.2999999999999901
 31
-0.0000000000000032
210
0.0
220
1.0
230
-0.0000000000000002
  0
LINE
  5
3520
  8
0
  6
CONTINUOUS
 62
     3
 10
-120.1343722921365043
 20
11.4343722921364304
 30
-0.0000000000000025
 11
120.1343722921365043
 21
11.4343722921364304
 31
-0.0000000000000025
210
0.0
220
1.0
230
-0.0000000000000002
  0
LINE
  5
3521
  8
0
  6
CONTINUOUS
 62
     3
 10
-125.0
 20
1.0
 30
-0.0000000000000002
 11
125.0
 21
1.0
 31
-0.0000000000000002
210
0.0
220
1.0
230
-0.0000000000000002
  0
LINE
  5
3522
  8
0
  6
CONTINUOUS
 62
     3
 10
-102.5
 20
0.0000000000000142
 30
0.0
 11
102.5
 21
0.0000000000000142
 31
0.0
210
0.0
220
1.0
230
-0.0000000000000002
  0
ARC
  5
3523
  8
0
  6
CONTINUOUS
 62
     3
 10
115.0185271117518937
 20
42.9999999999999929
 30
0.0
 40
3.0000000000000391
210
0.0
220
-0.0000000000000002
230
-1.0
 50
15.0000000000022808
 51
89.99999999999973
  0
ARC
  5
3524
  8
0
  6
CONTINUOUS
 62
     3
 10
-115.0185271117517942
 20
42.9999999999999716
 30
0.0
 40
3.0000000000000631
210
0.0
220
-0.0000000000000002
230
-1.0
 50
90.0000000000005542
 51
164.9999999999974136
  0
LINE
  5
3525
  8
0
  6
CONTINUOUS
 62
     3
 10
117.9163045906191059
 20
43.7764571353076803
 30
-0.0000000000000097
 11
120.0
 21
36.0000000000000071
 31
-0.000000000000008
210
0.0
220
1.0
230
-0.0000000000000002
  0
LINE
  5
3526
  8
0
  6
CONTINUOUS
 62
     3
 10
-117.9163045906191059
 20
43.7764571353076803
 30
-0.0000000000000097
 11
-120.0
 21
36.0000000000000071
 31
-0.000000000000008
210
0.0
220
1.0
230
-0.0000000000000002
  0
ARC
  5
3527
  8
0
  6
CONTINUOUS
 62
     3
 10
115.4999999999999005
 20
34.4999999999999716
 30
0.0
 40
1.4999999999999141
210
0.0
220
-0.0000000000000002
230
-1.0
 50
89.9999999999956799
 51
258.4630409671877942
  0
ARC
  5
3528
  8
0
  6
CONTINUOUS
 62
     3
 10
-115.4999999999999005
 20
34.4999999999999716
 30
0.0
 40
1.499999999999911
210
0.0
220
-0.0000000000000002
230
-1.0
 50
281.5369590328122058
 51
90.0000000000043485
  0
LINE
  5
3529
  8
0
  6
CONTINUOUS
 62
     3
 10
115.1999999999999034
 20
33.0303061543301268
 30
-0.0000000000000073
 11
116.0771151141681941
 21
30.1613918864410202
 31
-0.0000000000000067
210
0.0
220
1.0
230
-0.0000000000000002
  0
LINE
  5
352A
  8
0
  6
CONTINUOUS
 62
     3
 10
-115.1999999999999034
 20
33.0303061543301268
 30
-0.0000000000000073
 11
-116.0771151141681941
 21
30.1613918864410202
 31
-0.0000000000000067
210
0.0
220
1.0
230
-0.0000000000000002
  0
LINE
  5
352B
  8
0
  6
CONTINUOUS
 62
     3
 10
116.0771151141681941
 20
30.1613918864410095
 30
-0.0000000000000067
 11
118.5744680355397946
 21
28.8335257839604218
 31
-0.0000000000000064
210
0.0
220
1.0
230
-0.0000000000000002
  0
LINE
  5
352C
  8
0
  6
CONTINUOUS
 62
     3
 10
-116.0771151141681941
 20
30.1613918864410095
 30
-0.0000000000000067
 11
-118.5744680355397946
 21
28.8335257839604218
 31
-0.0000000000000064
210
0.0
220
1.0
230
-0.0000000000000002
  0
LINE
  5
352D
  8
0
  6
CONTINUOUS
 62
     3
 10
-117.2466019330591962
 20
26.3361728625888496
 30
-0.0000000000000058
 11
-118.5744680355397946
 21
28.8335257839604218
 31
-0.0000000000000064
210
0.0
220
1.0
230
-0.0000000000000002
  0
LINE
  5
352E
  8
0
  6
CONTINUOUS
 62
     3
 10
117.2466019330591962
 20
26.3361728625888496
 30
-0.0000000000000058
 11
118.5744680355397946
 21
28.8335257839604218
 31
-0.0000000000000064
210
0.0
220
1.0
230
-0.0000000000000002
  0
LINE
  5
352F
  8
0
  6
CONTINUOUS
 62
     3
 10
117.2466019330590967
 20
26.3361728625888603
 30
-0.0000000000000058
 11
117.5389736377818934
 21
25.3798681066257714
 31
-0.0000000000000056
210
0.0
220
1.0
230
-0.0000000000000002
  0
LINE
  5
3530
  8
0
  6
CONTINUOUS
 62
     3
 10
-117.2466019330590967
 20
26.3361728625888603
 30
-0.0000000000000058
 11
-117.5389736377818934
 21
25.3798681066257714
 31
-0.0000000000000056
210
0.0
220
1.0
230
-0.0000000000000002
  0
LINE
  5
3531
  8
0
  6
CONTINUOUS
 62
     3
 10
117.5389736377818934
 20
25.3798681066257714
 30
-0.0000000000000056
 11
120.0363265591533946
 21
24.0520020041451907
 31
-0.0000000000000053
210
0.0
220
1.0
230
-0.0000000000000002
  0
LINE
  5
3532
  8
0
  6
CONTINUOUS
 62
     3
 10
-117.5389736377818934
 20
25.3798681066257714
 30
-0.0000000000000056
 11
-120.0363265591533946
 21
24.0520020041451907
 31
-0.0000000000000053
210
0.0
220
1.0
230
-0.0000000000000002
  0
LINE
  5
3533
  8
0
  6
CONTINUOUS
 62
     3
 10
-118.7084604566727961
 20
21.5546490827737891
 30
-0.0000000000000048
 11
-120.0363265591533946
 21
24.0520020041452014
 31
-0.0000000000000053
210
0.0
220
1.0
230
-0.0000000000000002
  0
LINE
  5
3534
  8
0
  6
CONTINUOUS
 62
     3
 10
118.7084604566727961
 20
21.5546490827737891
 30
-0.0000000000000048
 11
120.0363265591533946
 21
24.0520020041452014
 31
-0.0000000000000053
210
0.0
220
1.0
230
-0.0000000000000002
  0
LINE
  5
3535
  8
0
  6
CONTINUOUS
 62
     3
 10
118.7084604566727961
 20
21.5546490827737784
 30
-0.0000000000000048
 11
120.013304952228097
 21
17.2866950477718717
 31
-0.0000000000000038
210
0.0
220
1.0
230
-0.0000000000000002
  0
LINE
  5
3536
  8
0
  6
CONTINUOUS
 62
     3
 10
-118.7084604566727961
 20
21.5546490827737784
 30
-0.0000000000000048
 11
-120.013304952228097
 21
17.2866950477718717
 31
-0.0000000000000038
210
0.0
220
1.0
230
-0.0000000000000002
  0
LINE
  5
3537
  8
0
  6
CONTINUOUS
 62
     3
 10
120.013304952228097
 20
17.2866950477718611
 30
-0.0000000000000038
 11
122.9999999999999005
 21
14.2999999999999705
 31
-0.0000000000000032
210
0.0
220
1.0
230
-0.0000000000000002
  0
LINE
  5
3538
  8
0
  6
CONTINUOUS
 62
     3
 10
-120.013304952228097
 20
17.2866950477718611
 30
-0.0000000000000038
 11
-122.9999999999999005
 21
14.2999999999999705
 31
-0.0000000000000032
210
0.0
220
1.0
230
-0.0000000000000002
  0
LINE
  5
3539
  8
0
  6
CONTINUOUS
 62
     3
 10
-120.1343722921364048
 20
11.4343722921364304
 30
-0.0000000000000025
 11
-122.9999999999999005
 21
14.2999999999999901
 31
-0.0000000000000032
210
0.0
220
1.0
230
-0.0000000000000002
  0
LINE
  5
353A
  8
0
  6
CONTINUOUS
 62
     3
 10
120.1343722921364048
 20
11.4343722921364304
 30
-0.0000000000000025
 11
122.9999999999999005
 21
14.2999999999999901
 31
-0.0000000000000032
210
0.0
220
1.0
230
-0.0000000000000002
  0
LINE
  5
353B
  8
0
  6
CONTINUOUS
 62
     3
 10
120.1343722921365043
 20
11.4343722921364392
 30
-0.0000000000000025
 11
125.0
 21
1.00000000000001
 31
-0.0000000000000002
210
0.0
220
1.0
230
-0.0000000000000002
  0
LINE
  5
353C
  8
0
  6
CONTINUOUS
 62
     3
 10
-120.1343722921365043
 20
11.4343722921364392
 30
-0.0000000000000025
 11
-125.0
 21
1.00000000000001
 31
-0.0000000000000002
210
0.0
220
1.0
230
-0.0000000000000002
  0
ARC
  5
353D
  8
0
  6
CONTINUOUS
 62
     3
 10
102.5
 20
10.0000000000000497
 30
0.0
 40
10.0000000000000302
210
0.0
220
-0.0000000000000002
230
-1.0
 50
270.0
 51
295.8419327631669944
  0
ARC
  5
353E
  8
0
  6
CONTINUOUS
 62
     3
 10
-102.5
 20
9.9999999999999876
 30
0.0
 40
9.999999999999968
210
0.0
220
-0.0000000000000002
230
-1.0
 50
244.1580672368328919
 51
270.0000000000002274
  0
LINE
  5
353F
  8
0
  6
VERDECKT
 62
     1
 10
-110.0
 20
31.0000000000000107
 30
-0.0000000000000069
 11
110.0
 21
31.0000000000000107
 31
-0.0000000000000069
210
0.0
220
1.0
230
-0.0000000000000002
  0
LINE
  5
3540
  8
0
  6
VERDECKT
 62
     1
 10
-117.5
 20
7.0000000000000009
 30
-0.0000000000000016
 11
117.5
 21
7.0000000000000009
 31
-0.0000000000000016
210
0.0
220
1.0
230
-0.0000000000000002
  0
LINE
  5
3541
  8
0
  6
VERDECKT
 62
     1
 10
-100.0
 20
2.0
 30
-0.0000000000000004
 11
100.0
 21
2.0
 31
-0.0000000000000004
210
0.0
220
1.0
230
-0.0000000000000002
  0
LINE
  5
3542
  8
0
  6
VERDECKT
 62
     1
 10
110.0
 20
31.0000000000000107
 30
-0.0000000000000069
 11
110.0
 21
12.0
 31
-0.0000000000000027
210
0.0
220
1.0
230
-0.0000000000000002
  0
LINE
  5
3543
  8
0
  6
VERDECKT
 62
     1
 10
-110.0
 20
31.0000000000000107
 30
-0.0000000000000069
 11
-110.0
 21
12.0
 31
-0.0000000000000027
210
0.0
220
1.0
230
-0.0000000000000002
  0
LINE
  5
3544
  8
0
  6
VERDECKT
 62
     1
 10
-110.0
 20
31.0000000000000107
 30
-0.0000000000000069
 11
-111.5183057522874037
 21
43.3656080302154407
 31
-0.0000000000000096
210
0.0
220
1.0
230
-0.0000000000000002
  0
LINE
  5
3545
  8
0
  6
VERDECKT
 62
     1
 10
110.0
 20
31.0000000000000107
 30
-0.0000000000000069
 11
111.5183057522874037
 21
43.3656080302154407
 31
-0.0000000000000096
210
0.0
220
1.0
230
-0.0000000000000002
  0
ARC
  5
3546
  8
0
  6
VERDECKT
 62
     1
 10
114.4959442072113944
 20
43.0000000000000426
 30
0.0
 40
3.0
210
0.0
220
-0.0000000000000002
230
-1.0
 50
89.9999999999997442
 51
173.0000000000007105
  0
ARC
  5
3547
  8
0
  6
VERDECKT
 62
     1
 10
-114.4959442072113944
 20
43.0000000000000426
 30
0.0
 40
2.9999999999999911
210
0.0
220
-0.0000000000000002
230
-1.0
 50
6.9999999999993108
 51
90.0000000000002842
  0
LINE
  5
3548
  8
0
  6
VERDECKT
 62
     1
 10
117.5
 20
7.0000000000000009
 30
-0.0000000000000016
 11
123.5
 21
1.0
 31
-0.0000000000000002
210
0.0
220
1.0
230
-0.0000000000000002
  0
LINE
  5
3549
  8
0
  6
VERDECKT
 62
     1
 10
-117.5
 20
7.0000000000000009
 30
-0.0000000000000016
 11
-123.5
 21
1.0
 31
-0.0000000000000002
210
0.0
220
1.0
230
-0.0000000000000002
  0
ARC
  5
354A
  8
0
  6
VERDECKT
 62
     1
 10
102.5
 20
9.9999999999999645
 30
0.0
 40
9.9999999999999432
210
0.0
220
-0.0000000000000002
230
-1.0
 50
295.8419327631669944
 51
342.5423968762785876
  0
ARC
  5
354B
  8
0
  6
VERDECKT
 62
     1
 10
-102.5
 20
9.9999999999999591
 30
0.0
 40
9.9999999999999378
210
0.0
220
-0.0000000000000002
230
-1.0
 50
197.4576031237212987
 51
244.1580672368328919
  0
LINE
  5
354C
  8
0
  6
VERDECKT
 62
     1
 10
100.0
 20
2.0
 30
-0.0000000000000004
 11
100.0
 21
0.0
 31
0.0
210
0.0
220
1.0
230
-0.0000000000000002
  0
LINE
  5
354D
  8
0
  6
VERDECKT
 62
     1
 10
-100.0
 20
2.0
 30
-0.0000000000000004
 11
-100.0
 21
0.0
 31
0.0
210
0.0
220
1.0
230
-0.0000000000000002
  0
ARC
  5
354E
  8
0
  6
VERDECKT
 62
     1
 10
100.0
 20
11.9999999999999893
 30
0.0
 40
9.9999999999999911
210
0.0
220
-0.0000000000000002
230
-1.0
 50
270.0
 51
0.0
  0
ARC
  5
354F
  8
0
  6
VERDECKT
 62
     1
 10
-100.0
 20
12.0
 30
0.0
 40
10.0
210
0.0
220
-0.0000000000000002
230
-1.0
 50
180.0
 51
270.0
  0
ENDBLK
  5
3551
  8
0
  0
ENDSEC
  0
SECTION
  2
ENTITIES
  0
INSERT
  5
3512
  8
0
  2
A$C720F6CFC
 10
128.6368612839069101
 20
-19.9909993292030208
 30
0.0
  0
INSERT
  5
3552
  8
0
  2
A$C74A11C29
 10
0.0
 20
206.2715771526603987
 30
0.0
  0
VIEWPORT
  5
6A0
 67
     1
  8
0
 10
5.856516968137103
 20
3.7052573271580438
 30
0.0
 40
14.6034756279463007
 41
7.7568859270457446
 68
     1
 69
     1
1001
ACAD
1000
MVIEW
1002
{
1070
    16
1010
0.0
1020
0.0
1030
0.0
1010
0.0
1020
0.0
1030
1.0
1040
0.0
1040
7.7568859270457446
1040
5.856516968137103
1040
3.7052573271580438
1040
50.0
1040
0.0
1040
0.0
1070
     0
1070
  1500
1070
     1
1070
     1
1070
     0
1070
     0
1070
     0
1070
     0
1040
0.0
1040
0.0
1040
0.0
1040
10.0
1040
10.0
1040
10.0
1040
10.0
1070
     0
1002
{
1002
}
1002
}
  0
ENDSEC
  0
EOF
