  0
SECTION
  2
HEADER
  9
$ACADVER
  1
AC1009
  9
$INSBASE
 10
0.0
 20
0.0
 30
0.0
  9
$EXTMIN
 10
-60.0198661178193404
 20
-60.0000311155814714
 30
-0.0001426102065665
  9
$EXTMAX
 10
60.2727325911587215
 20
120.0045657784960014
 30
0.0020040487290984
  9
$LIMMIN
 10
0.0
 20
0.0
  9
$LIMMAX
 10
420.0
 20
297.0
  9
$ORTHOMODE
 70
     1
  9
$REGENMODE
 70
     1
  9
$FILLMODE
 70
     1
  9
$QTEXTMODE
 70
     0
  9
$MIRRTEXT
 70
     1
  9
$DRAGMODE
 70
     2
  9
$LTSCALE
 40
10.0
  9
$OSMODE
 70
  1327
  9
$ATTMODE
 70
     1
  9
$TEXTSIZE
 40
3.5
  9
$TRACEWID
 40
0.5
  9
$TEXTSTYLE
  7
GREEKS
  9
$CLAYER
  8
0
  9
$CELTYPE
  6
BYLAYER
  9
$CECOLOR
 62
   256
  9
$DIMSCALE
 40
1.0
  9
$DIMASZ
 40
3.5
  9
$DIMEXO
 40
1.0
  9
$DIMDLI
 40
7.0
  9
$DIMRND
 40
0.0
  9
$DIMDLE
 40
0.0
  9
$DIMEXE
 40
1.0
  9
$DIMTP
 40
0.2
  9
$DIMTM
 40
0.2
  9
$DIMTXT
 40
3.5
  9
$DIMCEN
 40
1.5
  9
$DIMTSZ
 40
0.0
  9
$DIMTOL
 70
     0
  9
$DIMLIM
 70
     0
  9
$DIMTIH
 70
     0
  9
$DIMTOH
 70
     0
  9
$DIMSE1
 70
     0
  9
$DIMSE2
 70
     0
  9
$DIMTAD
 70
     1
  9
$DIMZIN
 70
     8
  9
$DIMBLK
  1

  9
$DIMASO
 70
     1
  9
$DIMSHO
 70
     0
  9
$DIMPOST
  1

  9
$DIMAPOST
  1

  9
$DIMALT
 70
     0
  9
$DIMALTD
 70
     2
  9
$DIMALTF
 40
25.3999999999999986
  9
$DIMLFAC
 40
1.0
  9
$DIMTOFL
 70
     1
  9
$DIMTVP
 40
0.0
  9
$DIMTIX
 70
     0
  9
$DIMSOXD
 70
     0
  9
$DIMSAH
 70
     0
  9
$DIMBLK1
  1

  9
$DIMBLK2
  1

  9
$DIMSTYLE
  2
STANDARD
  9
$DIMCLRD
 70
     0
  9
$DIMCLRE
 70
     0
  9
$DIMCLRT
 70
     1
  9
$DIMTFAC
 40
0.5
  9
$DIMGAP
 40
1.5
  9
$LUNITS
 70
     2
  9
$LUPREC
 70
     2
  9
$SKETCHINC
 40
1.0
  9
$FILLETRAD
 40
0.0
  9
$AUNITS
 70
     0
  9
$AUPREC
 70
     0
  9
$MENU
  1
ACAD
  9
$ELEVATION
 40
0.0
  9
$PELEVATION
 40
0.0
  9
$THICKNESS
 40
0.0
  9
$LIMCHECK
 70
     0
  9
$BLIPMODE
 70
     0
  9
$CHAMFERA
 40
0.0
  9
$CHAMFERB
 40
0.0
  9
$SKPOLY
 70
     0
  9
$TDCREATE
 40
2451729.4361226852051914
  9
$TDUPDATE
 40
2458390.4909837958402932
  9
$TDINDWG
 40
0.1745764815
  9
$TDUSRTIMER
 40
0.1745764815
  9
$USRTIMER
 70
     1
  9
$ANGBASE
 50
0.0
  9
$ANGDIR
 70
     0
  9
$PDMODE
 70
     0
  9
$PDSIZE
 40
0.0
  9
$PLINEWID
 40
0.0
  9
$COORDS
 70
     1
  9
$SPLFRAME
 70
     0
  9
$SPLINETYPE
 70
     6
  9
$SPLINESEGS
 70
     8
  9
$ATTDIA
 70
     0
  9
$ATTREQ
 70
     0
  9
$HANDLING
 70
     1
  9
$HANDSEED
  5
219D
  9
$SURFTAB1
 70
     6
  9
$SURFTAB2
 70
     6
  9
$SURFTYPE
 70
     6
  9
$SURFU
 70
     6
  9
$SURFV
 70
     6
  9
$UCSNAME
  2

  9
$UCSORG
 10
0.0
 20
0.0
 30
0.0
  9
$UCSXDIR
 10
1.0
 20
0.0
 30
0.0
  9
$UCSYDIR
 10
0.0
 20
1.0
 30
0.0
  9
$PUCSNAME
  2

  9
$PUCSORG
 10
0.0
 20
0.0
 30
0.0
  9
$PUCSXDIR
 10
1.0
 20
0.0
 30
0.0
  9
$PUCSYDIR
 10
0.0
 20
1.0
 30
0.0
  9
$USERI1
 70
     0
  9
$USERI2
 70
     0
  9
$USERI3
 70
     0
  9
$USERI4
 70
     0
  9
$USERI5
 70
     0
  9
$USERR1
 40
0.0
  9
$USERR2
 40
0.0
  9
$USERR3
 40
0.0
  9
$USERR4
 40
0.0
  9
$USERR5
 40
0.0
  9
$WORLDVIEW
 70
     1
  9
$SHADEDGE
 70
     3
  9
$SHADEDIF
 70
    70
  9
$TILEMODE
 70
     1
  9
$MAXACTVP
 70
    16
  9
$PLIMCHECK
 70
     0
  9
$PEXTMIN
 10
-0.1169115036882964
 20
-0.1458511145317338
 30
-0.0000000000000058
  9
$PEXTMAX
 10
10.8896778314313298
 20
7.5563657688478223
 30
0.0000000000000104
  9
$PLIMMIN
 10
-0.2500002402958907
 20
-0.2499999962453767
  9
$PLIMMAX
 10
10.7499995194082203
 20
8.2499997634587334
  9
$UNITMODE
 70
     0
  9
$VISRETAIN
 70
     0
  9
$PLINEGEN
 70
     0
  9
$PSLTSCALE
 70
     0
  0
ENDSEC
  0
SECTION
  2
TABLES
  0
TABLE
  2
VPORT
 70
     1
  0
VPORT
  2
*ACTIVE
 70
     0
 10
0.0
 20
0.0
 11
1.0
 21
1.0
 12
0.126432791613297
 22
30.0022673314572899
 13
0.0
 23
0.0
 14
1.0
 24
1.0
 15
10.0
 25
10.0
 16
-0.0000000000000987
 26
0.0
 36
444.4787271020130106
 17
0.0000004450564006
 27
0.0
 37
13.4999999999999698
 40
181.3512647012651087
 41
1.8826466916354549
 42
50.0
 43
0.0
 44
0.0
 50
0.0
 51
0.0
 71
     0
 72
  1500
 73
     1
 74
     0
 75
     0
 76
     0
 77
     0
 78
     0
  0
ENDTAB
  0
TABLE
  2
LTYPE
 70
     3
  0
LTYPE
  2
CONTINUOUS
 70
     0
  3
Solid line
 72
    65
 73
     0
 40
0.0
  0
LTYPE
  2
VERDECKT
 70
     0
  3
Verdeckt __ __ __ __ __ __ __ __ __ __ __ __ __
 72
    65
 73
     2
 40
0.375
 49
0.25
 49
-0.125
  0
ENDTAB
  0
TABLE
  2
LAYER
 70
    10
  0
LAYER
  2
0
 70
     0
 62
     7
  6
CONTINUOUS
  0
LAYER
  2
DEFPOINTS
 70
     0
 62
     7
  6
CONTINUOUS
  0
ENDTAB
  0
TABLE
  2
STYLE
 70
     4
  0
STYLE
  2
STANDARD
 70
     0
 40
0.0
 41
1.0
 50
0.0
 71
     0
 42
3.5
  3
txt
  4

  0
STYLE
  2
GREEKS
 70
     0
 40
0.0
 41
0.8
 50
0.0
 71
     0
 42
3.5
  3
SIMPLEX.shx
  4

  0
ENDTAB
  0
TABLE
  2
VIEW
 70
     2
  0
ENDTAB
  0
TABLE
  2
UCS
 70
     0
  0
ENDTAB
  0
TABLE
  2
APPID
 70
    12
  0
APPID
  2
ACAD
 70
     0
  0
APPID
  2
ACAD_EXEMPT_FROM_CAD_STANDARDS
 70
     0
  0
APPID
  2
ACAD_NAV_VCDISPLAY
 70
     0
  0
APPID
  2
GRADIENTCOLOR1ACI
 70
     0
  0
APPID
  2
GRADIENTCOLOR2ACI
 70
     0
  0
APPID
  2
ACAD_DSTYLE_DIMRADIAL_EXTENSION
 70
     0
  0
APPID
  2
ACADANNOMONITORALERTICONDI
 70
     0
  0
APPID
  2
ACAD_MLEADERVER
 70
     0
  0
APPID
  2
ACAD_PSEXT
 70
     0
  0
APPID
  2
ACAECLAYERSTANDARD
 70
     0
  0
APPID
  2
ACCMTRANSPARENCY
 70
     0
  0
APPID
  2
ACAD_OBJECT_CHANGE_GUID
 70
     0
  0
ENDTAB
  0
TABLE
  2
DIMSTYLE
 70
     2
  0
DIMSTYLE
  2
STANDARD
 70
     0
  3

  4

  5

  6

  7

 40
1.0
 41
0.18
 42
0.0625
 43
0.38
 44
0.18
 45
0.0
 46
0.0
 47
0.0
 48
0.0
140
0.18
141
0.09
142
0.0
143
25.3999999999999986
144
1.0
145
0.0
146
1.0
147
0.09
 71
     0
 72
     0
 73
     1
 74
     1
 75
     0
 76
     0
 77
     0
 78
     0
170
     0
171
     2
172
     0
173
     0
174
     0
175
     0
176
     0
177
     0
178
     0
  0
ENDTAB
  0
ENDSEC
  0
SECTION
  2
BLOCKS
  0
BLOCK
  8
0
  2
$MODEL_SPACE
 70
     0
 10
0.0
 20
0.0
 30
0.0
  3
$MODEL_SPACE
  1

  0
ENDBLK
  5
42
  8
0
  0
BLOCK
 67
     1
  8
0
  2
$PAPER_SPACE
 70
     0
 10
0.0
 20
0.0
 30
0.0
  3
$PAPER_SPACE
  1

  0
ENDBLK
  5
40
 67
     1
  8
0
  0
BLOCK
  8
0
  2
A$C14226BEE
 70
     0
 10
0.0
 20
0.0
 30
0.0
  3
A$C14226BEE
  1

  0
CIRCLE
  5
210A
  8
0
  6
CONTINUOUS
 62
     3
 10
-7.0795525868901441
 20
-28.9805834568502405
 30
0.0
 40
47.4999999999999432
  0
CIRCLE
  5
210B
  8
0
  6
CONTINUOUS
 62
     3
 10
-7.0795525868901494
 20
-28.9805834568502405
 30
0.0
 40
52.4999999999999432
  0
CIRCLE
  5
210C
  8
0
  6
CONTINUOUS
 62
     3
 10
-7.0795525868901494
 20
-28.9805834568502405
 30
0.0
 40
59.7499999999999432
  0
CIRCLE
  5
210D
  8
0
  6
CONTINUOUS
 62
     3
 10
-7.0795525868901441
 20
-28.9805834568502405
 30
0.0
 40
59.9999999999999432
  0
CIRCLE
  5
210E
  8
0
  6
VERDECKT
 62
     1
 10
-7.0795525868901468
 20
-28.9805834568502405
 30
0.0
 40
57.5043306663374594
  0
CIRCLE
  5
210F
  8
0
  6
VERDECKT
 62
     1
 10
-7.0795525868901459
 20
-28.9805834568502405
 30
0.0
 40
57.7499999999999503
  0
CIRCLE
  5
2110
  8
0
  6
VERDECKT
 62
     1
 10
-7.0795525868901441
 20
-28.9805834568502405
 30
0.0
 40
57.9999999999998934
  0
CIRCLE
  5
2111
  8
0
  6
VERDECKT
 62
     1
 10
-7.079552586890145
 20
-28.9805834568502405
 30
0.0
 40
56.5995849235804869
  0
CIRCLE
  5
2112
  8
0
  6
VERDECKT
 62
     1
 10
-7.079552586890145
 20
-28.9805834568502405
 30
0.0
 40
54.3989794855663078
  0
CIRCLE
  5
2113
  8
0
  6
VERDECKT
 62
     1
 10
-7.0795525868901494
 20
-28.9805834568502405
 30
0.0
 40
54.8425184053936405
  0
ENDBLK
  5
2115
  8
0
  0
BLOCK
  8
0
  2
A$C35980AE0
 70
     0
 10
0.0
 20
0.0
 30
0.0
  3
A$C35980AE0
  1

  0
LINE
  5
2119
  8
0
  6
CONTINUOUS
 62
     3
 10
-59.7499999999999929
 20
19.9999999999999183
 30
-0.0000000000000044
 11
59.7499999999999929
 21
19.9999999999999183
 31
-0.0000000000000044
210
0.0
220
1.0
230
-0.0000000000000002
  0
LINE
  5
211A
  8
0
  6
CONTINUOUS
 62
     3
 10
-57.5043306663374096
 20
11.7456693336624198
 30
-0.0000000000000026
 11
57.5043306663374096
 21
11.7456693336624198
 31
-0.0000000000000026
210
0.0
220
1.0
230
-0.0000000000000002
  0
LINE
  5
211B
  8
0
  6
CONTINUOUS
 62
     3
 10
-59.7499999999999929
 20
9.5000000000000018
 30
-0.0000000000000021
 11
59.7499999999999929
 21
9.5000000000000018
 31
-0.0000000000000021
210
0.0
220
1.0
230
-0.0000000000000002
  0
LINE
  5
211C
  8
0
  6
CONTINUOUS
 62
     3
 10
-59.7499999999999929
 20
8.4999999999999432
 30
-0.0000000000000019
 11
59.7499999999999929
 21
8.4999999999999432
 31
-0.0000000000000019
210
0.0
220
1.0
230
-0.0000000000000002
  0
LINE
  5
211D
  8
0
  6
CONTINUOUS
 62
     3
 10
-57.75
 20
6.499999999999944
 30
-0.0000000000000014
 11
57.75
 21
6.499999999999944
 31
-0.0000000000000014
210
0.0
220
1.0
230
-0.0000000000000002
  0
LINE
  5
211E
  8
0
  6
CONTINUOUS
 62
     3
 10
-57.75
 20
5.8971143170299456
 30
-0.0000000000000013
 11
57.75
 21
5.8971143170299456
 31
-0.0000000000000013
210
0.0
220
1.0
230
-0.0000000000000002
  0
LINE
  5
211F
  8
0
  6
CONTINUOUS
 62
     3
 10
-60.0
 20
2.0
 30
-0.0000000000000004
 11
60.0
 21
2.0
 31
-0.0000000000000004
210
0.0
220
1.0
230
-0.0000000000000002
  0
LINE
  5
2120
  8
0
  6
CONTINUOUS
 62
     3
 10
-49.4999999999997726
 20
-0.0000000000000568
 30
0.0
 11
49.4999999999997726
 21
-0.0000000000000568
 31
0.0
210
0.0
220
1.0
230
-0.0000000000000002
  0
ARC
  5
2121
  8
0
  6
CONTINUOUS
 62
     3
 10
55.3122754750412895
 20
25.4999999999999183
 30
0.0
 40
1.5000000000000331
210
0.0
220
-0.0000000000000002
230
-1.0
 50
31.8542940793528118
 51
89.99999999999946
  0
ARC
  5
2122
  8
0
  6
CONTINUOUS
 62
     3
 10
-55.3122754750412895
 20
25.4999999999999183
 30
0.0
 40
1.5000000000000311
210
0.0
220
-0.0000000000000002
230
-1.0
 50
90.0000000000005542
 51
148.1457059206470888
  0
LINE
  5
2123
  8
0
  6
CONTINUOUS
 62
     3
 10
55.3122754750412895
 20
26.9999999999999396
 30
-0.000000000000006
 11
-55.3122754750412966
 21
26.9999999999999503
 31
-0.000000000000006
210
0.0
220
1.0
230
-0.0000000000000002
  0
LINE
  5
2124
  8
0
  6
CONTINUOUS
 62
     3
 10
56.5863649190259821
 20
26.2916413889677294
 30
-0.0000000000000058
 11
59.1475718506256882
 21
22.1695644474546896
 31
-0.0000000000000049
210
0.0
220
1.0
230
-0.0000000000000002
  0
LINE
  5
2125
  8
0
  6
CONTINUOUS
 62
     3
 10
-56.5863649190259821
 20
26.2916413889677294
 30
-0.0000000000000058
 11
-59.1475718506256882
 21
22.1695644474546896
 31
-0.0000000000000049
210
0.0
220
1.0
230
-0.0000000000000002
  0
ARC
  5
2126
  8
0
  6
CONTINUOUS
 62
     3
 10
55.7500000000003268
 20
20.0585207435406687
 30
0.0
 40
3.9999999999996092
210
0.0
220
-0.0000000000000002
230
-1.0
 50
359.9999999999988063
 51
31.8542940793548901
  0
ARC
  5
2127
  8
0
  6
CONTINUOUS
 62
     3
 10
-55.7500000000003268
 20
20.0585207435406687
 30
0.0
 40
3.9999999999996092
210
0.0
220
-0.0000000000000002
230
-1.0
 50
148.1457059206450992
 51
180.0000000000011084
  0
LINE
  5
2128
  8
0
  6
CONTINUOUS
 62
     3
 10
59.7499999999999432
 20
20.0585207435405906
 30
-0.0000000000000045
 11
59.7499999999999432
 21
19.9999999999999183
 31
-0.0000000000000044
210
0.0
220
1.0
230
-0.0000000000000002
  0
LINE
  5
2129
  8
0
  6
CONTINUOUS
 62
     3
 10
-59.7499999999999432
 20
20.0585207435405906
 30
-0.0000000000000045
 11
-59.7499999999999432
 21
19.9999999999999183
 31
-0.0000000000000044
210
0.0
220
1.0
230
-0.0000000000000002
  0
ARC
  5
212A
  8
0
  6
CONTINUOUS
 62
     3
 10
55.6425184053936732
 20
19.1999999999998892
 30
0.0
 40
0.8000000000000255
210
0.0
220
-0.0000000000000002
230
-1.0
 50
90.0000000000040643
 51
199.9999999999986073
  0
ARC
  5
212B
  8
0
  6
CONTINUOUS
 62
     3
 10
-55.6425184053936732
 20
19.1999999999998892
 30
0.0
 40
0.800000000000027
210
0.0
220
-0.0000000000000002
230
-1.0
 50
340.0000000000013074
 51
89.9999999999959357
  0
LINE
  5
212C
  8
0
  6
CONTINUOUS
 62
     3
 10
54.8907643087649433
 20
18.9263838853393693
 30
-0.0000000000000042
 11
57.504330666337502
 21
11.7456693336624305
 31
-0.0000000000000026
210
0.0
220
1.0
230
-0.0000000000000002
  0
LINE
  5
212D
  8
0
  6
CONTINUOUS
 62
     3
 10
-54.8907643087649433
 20
18.9263838853393693
 30
-0.0000000000000042
 11
-57.504330666337502
 21
11.7456693336624305
 31
-0.0000000000000026
210
0.0
220
1.0
230
-0.0000000000000002
  0
LINE
  5
212E
  8
0
  6
CONTINUOUS
 62
     3
 10
57.5043306663374594
 20
11.7456693336624198
 30
-0.0000000000000026
 11
59.7499999999999432
 21
9.5000000000000018
 31
-0.0000000000000021
210
0.0
220
1.0
230
-0.0000000000000002
  0
LINE
  5
212F
  8
0
  6
CONTINUOUS
 62
     3
 10
-57.5043306663374594
 20
11.7456693336624198
 30
-0.0000000000000026
 11
-59.7499999999999432
 21
9.5000000000000018
 31
-0.0000000000000021
210
0.0
220
1.0
230
-0.0000000000000002
  0
LINE
  5
2130
  8
0
  6
CONTINUOUS
 62
     3
 10
59.7499999999999432
 20
9.5000000000000018
 30
-0.0000000000000021
 11
59.7499999999999432
 21
8.4999999999999432
 31
-0.0000000000000019
210
0.0
220
1.0
230
-0.0000000000000002
  0
LINE
  5
2131
  8
0
  6
CONTINUOUS
 62
     3
 10
-59.7499999999999432
 20
9.5000000000000018
 30
-0.0000000000000021
 11
-59.7499999999999432
 21
8.4999999999999432
 31
-0.0000000000000019
210
0.0
220
1.0
230
-0.0000000000000002
  0
LINE
  5
2132
  8
0
  6
CONTINUOUS
 62
     3
 10
-57.7499999999999503
 20
6.499999999999944
 30
-0.0000000000000014
 11
-59.7499999999999432
 21
8.4999999999999432
 31
-0.0000000000000019
210
0.0
220
1.0
230
-0.0000000000000002
  0
LINE
  5
2133
  8
0
  6
CONTINUOUS
 62
     3
 10
57.7499999999999503
 20
6.499999999999944
 30
-0.0000000000000014
 11
59.7499999999999432
 21
8.4999999999999432
 31
-0.0000000000000019
210
0.0
220
1.0
230
-0.0000000000000002
  0
LINE
  5
2134
  8
0
  6
CONTINUOUS
 62
     3
 10
57.7499999999999503
 20
6.499999999999944
 30
-0.0000000000000014
 11
57.7499999999999503
 21
5.8971143170299456
 31
-0.0000000000000013
210
0.0
220
1.0
230
-0.0000000000000002
  0
LINE
  5
2135
  8
0
  6
CONTINUOUS
 62
     3
 10
-57.7499999999999503
 20
6.499999999999944
 30
-0.0000000000000014
 11
-57.7499999999999503
 21
5.8971143170299456
 31
-0.0000000000000013
210
0.0
220
1.0
230
-0.0000000000000002
  0
LINE
  5
2136
  8
0
  6
CONTINUOUS
 62
     3
 10
57.7499999999999503
 20
5.8971143170299456
 30
-0.0000000000000013
 11
59.9999999999999432
 21
2.0
 31
-0.0000000000000004
210
0.0
220
1.0
230
-0.0000000000000002
  0
LINE
  5
2137
  8
0
  6
CONTINUOUS
 62
     3
 10
-57.7499999999999503
 20
5.8971143170299456
 30
-0.0000000000000013
 11
-59.9999999999999432
 21
2.0
 31
-0.0000000000000004
210
0.0
220
1.0
230
-0.0000000000000002
  0
ARC
  5
2138
  8
0
  6
CONTINUOUS
 62
     3
 10
49.4999999999998792
 20
4.9999999999999822
 30
0.0
 40
5.0000000000000382
210
0.0
220
-0.0000000000000002
230
-1.0
 50
270.0
 51
323.1301023541572022
  0
ARC
  5
2139
  8
0
  6
CONTINUOUS
 62
     3
 10
-49.4999999999998792
 20
4.9999999999999831
 30
0.0
 40
5.00000000000004
210
0.0
220
-0.0000000000000002
230
-1.0
 50
216.8698976458433947
 51
270.0000000000006253
  0
LINE
  5
213A
  8
0
  6
VERDECKT
 62
     1
 10
-47.5
 20
1.4999999999999429
 30
-0.0000000000000003
 11
47.5
 21
1.4999999999999429
 31
-0.0000000000000003
210
0.0
220
1.0
230
-0.0000000000000002
  0
LINE
  5
213B
  8
0
  6
VERDECKT
 62
     1
 10
-52.5
 20
20.7999999999999297
 30
-0.0000000000000046
 11
52.5
 21
20.7999999999999297
 31
-0.0000000000000046
210
0.0
220
1.0
230
-0.0000000000000002
  0
LINE
  5
213C
  8
0
  6
VERDECKT
 62
     1
 10
-56.5995849235805508
 20
4.0
 30
-0.0000000000000009
 11
56.5995849235805508
 21
4.0
 31
-0.0000000000000009
210
0.0
220
1.0
230
-0.0000000000000002
  0
LINE
  5
213D
  8
0
  6
VERDECKT
 62
     1
 10
47.4999999999999432
 20
1.4999999999999429
 30
-0.0000000000000003
 11
47.4999999999999432
 21
0.0
 31
0.0
210
0.0
220
1.0
230
-0.0000000000000002
  0
LINE
  5
213E
  8
0
  6
VERDECKT
 62
     1
 10
-47.4999999999999432
 20
1.4999999999999429
 30
-0.0000000000000003
 11
-47.4999999999999432
 21
0.0
 31
0.0
210
0.0
220
1.0
230
-0.0000000000000002
  0
ARC
  5
213F
  8
0
  6
VERDECKT
 62
     1
 10
47.4999999999998934
 20
6.4999999999999956
 30
0.0
 40
5.0000000000000506
210
0.0
220
-0.0000000000000002
230
-1.0
 50
270.0
 51
359.9999999999988063
  0
ARC
  5
2140
  8
0
  6
VERDECKT
 62
     1
 10
-47.4999999999998934
 20
6.4999999999999956
 30
0.0
 40
5.0000000000000488
210
0.0
220
-0.0000000000000002
230
-1.0
 50
180.0000000000005116
 51
269.9999999999993747
  0
LINE
  5
2141
  8
0
  6
VERDECKT
 62
     1
 10
52.4999999999999432
 20
20.7999999999999297
 30
-0.0000000000000046
 11
52.4999999999999432
 21
6.499999999999944
 31
-0.0000000000000014
210
0.0
220
1.0
230
-0.0000000000000002
  0
LINE
  5
2142
  8
0
  6
VERDECKT
 62
     1
 10
-52.4999999999999432
 20
20.7999999999999297
 30
-0.0000000000000046
 11
-52.4999999999999432
 21
6.499999999999944
 31
-0.0000000000000014
210
0.0
220
1.0
230
-0.0000000000000002
  0
LINE
  5
2143
  8
0
  6
VERDECKT
 62
     1
 10
-52.4999999999999716
 20
20.799999999999919
 30
-0.0000000000000046
 11
-53.8633867356077474
 21
25.8882285676538011
 31
-0.0000000000000057
210
0.0
220
1.0
230
-0.0000000000000002
  0
LINE
  5
2144
  8
0
  6
VERDECKT
 62
     1
 10
52.4999999999999716
 20
20.799999999999919
 30
-0.0000000000000046
 11
53.8633867356077474
 21
25.8882285676538011
 31
-0.0000000000000057
210
0.0
220
1.0
230
-0.0000000000000002
  0
ARC
  5
2145
  8
0
  6
VERDECKT
 62
     1
 10
55.3122754750412966
 20
25.4999999999999396
 30
0.0
 40
1.50000000000001
210
0.0
220
-0.0000000000000002
230
-1.0
 50
90.0
 51
164.9999999999965894
  0
ARC
  5
2146
  8
0
  6
VERDECKT
 62
     1
 10
-55.3122754750412966
 20
25.4999999999999396
 30
0.0
 40
1.5000000000000111
210
0.0
220
-0.0000000000000002
230
-1.0
 50
15.0000000000032099
 51
90.0
  0
LINE
  5
2147
  8
0
  6
VERDECKT
 62
     1
 10
56.5995849235804727
 20
3.9999999999999871
 30
-0.0000000000000009
 11
57.9999999999998579
 21
1.9999999999999869
 31
-0.0000000000000004
210
0.0
220
1.0
230
-0.0000000000000002
  0
LINE
  5
2148
  8
0
  6
VERDECKT
 62
     1
 10
-56.5995849235804727
 20
3.9999999999999871
 30
-0.0000000000000009
 11
-57.9999999999998579
 21
1.9999999999999869
 31
-0.0000000000000004
210
0.0
220
1.0
230
-0.0000000000000002
  0
ARC
  5
2149
  8
0
  6
VERDECKT
 62
     1
 10
49.5000000000000071
 20
4.9999999999999263
 30
0.0
 40
4.9999999999999103
210
0.0
220
-0.0000000000000002
230
-1.0
 50
323.1301023541562927
 51
348.4630409671851794
  0
ARC
  5
214A
  8
0
  6
VERDECKT
 62
     1
 10
-49.4999999999999929
 20
4.9999999999999307
 30
0.0
 40
4.9999999999999227
210
0.0
220
-0.0000000000000002
230
-1.0
 50
191.5369590328147069
 51
216.8698976458435936
  0
ENDBLK
  5
214C
  8
0
  0
ENDSEC
  0
SECTION
  2
ENTITIES
  0
INSERT
  5
2116
  8
0
  2
A$C14226BEE
 10
7.0795525868901441
 20
28.9805834568502512
 30
0.0
  0
INSERT
  5
214D
  8
0
  2
A$C35980AE0
 10
0.0
 20
92.9907460890056115
 30
0.0
  0
VIEWPORT
  5
6A0
 67
     1
  8
0
 10
6.9508167240430359
 20
4.1031698538905479
 30
0.0
 40
23.3597763119806494
 41
12.4079448447589495
 68
     1
 69
     1
1001
ACAD
1000
MVIEW
1002
{
1070
    16
1010
0.0
1020
0.0
1030
0.0
1010
0.0
1020
0.0
1030
1.0
1040
0.0
1040
12.4079448447589495
1040
6.9508167240430359
1040
4.1031698538905479
1040
50.0
1040
0.0
1040
0.0
1070
     0
1070
  1500
1070
     1
1070
     1
1070
     0
1070
     0
1070
     0
1070
     0
1040
0.0
1040
0.0
1040
0.0
1040
10.0
1040
10.0
1040
10.0
1040
10.0
1070
     0
1002
{
1002
}
1002
}
  0
ENDSEC
  0
EOF
