  0
SECTION
  2
HEADER
  9
$ACADVER
  1
AC1009
  9
$INSBASE
 10
0.0
 20
0.0
 30
0.0
  9
$EXTMIN
 10
-32.0
 20
-32.0
 30
-3.9999999999999432
  9
$EXTMAX
 10
32.0000000000000568
 20
64.0
 30
13.9999999999999805
  9
$LIMMIN
 10
0.0
 20
0.0
  9
$LIMMAX
 10
420.0
 20
297.0
  9
$ORTHOMODE
 70
     1
  9
$REGENMODE
 70
     1
  9
$FILLMODE
 70
     1
  9
$QTEXTMODE
 70
     0
  9
$MIRRTEXT
 70
     1
  9
$DRAGMODE
 70
     2
  9
$LTSCALE
 40
10.0
  9
$OSMODE
 70
   183
  9
$ATTMODE
 70
     1
  9
$TEXTSIZE
 40
3.5
  9
$TRACEWID
 40
0.5
  9
$TEXTSTYLE
  7
GREEKS
  9
$CLAYER
  8
DICHTUNG
  9
$CELTYPE
  6
BYLAYER
  9
$CECOLOR
 62
   256
  9
$DIMSCALE
 40
1.0
  9
$DIMASZ
 40
3.5
  9
$DIMEXO
 40
1.0
  9
$DIMDLI
 40
7.0
  9
$DIMRND
 40
0.0
  9
$DIMDLE
 40
0.0
  9
$DIMEXE
 40
1.0
  9
$DIMTP
 40
0.2
  9
$DIMTM
 40
0.2
  9
$DIMTXT
 40
3.5
  9
$DIMCEN
 40
1.5
  9
$DIMTSZ
 40
0.0
  9
$DIMTOL
 70
     0
  9
$DIMLIM
 70
     0
  9
$DIMTIH
 70
     0
  9
$DIMTOH
 70
     0
  9
$DIMSE1
 70
     0
  9
$DIMSE2
 70
     0
  9
$DIMTAD
 70
     1
  9
$DIMZIN
 70
     8
  9
$DIMBLK
  1

  9
$DIMASO
 70
     1
  9
$DIMSHO
 70
     0
  9
$DIMPOST
  1

  9
$DIMAPOST
  1

  9
$DIMALT
 70
     0
  9
$DIMALTD
 70
     2
  9
$DIMALTF
 40
25.3999999999999986
  9
$DIMLFAC
 40
1.0
  9
$DIMTOFL
 70
     1
  9
$DIMTVP
 40
0.0
  9
$DIMTIX
 70
     0
  9
$DIMSOXD
 70
     0
  9
$DIMSAH
 70
     0
  9
$DIMBLK1
  1

  9
$DIMBLK2
  1

  9
$DIMSTYLE
  2
STANDARD
  9
$DIMCLRD
 70
     0
  9
$DIMCLRE
 70
     0
  9
$DIMCLRT
 70
     1
  9
$DIMTFAC
 40
0.5
  9
$DIMGAP
 40
1.5
  9
$LUNITS
 70
     2
  9
$LUPREC
 70
     2
  9
$SKETCHINC
 40
1.0
  9
$FILLETRAD
 40
0.0
  9
$AUNITS
 70
     0
  9
$AUPREC
 70
     0
  9
$MENU
  1
ACAD
  9
$ELEVATION
 40
0.0
  9
$PELEVATION
 40
0.0
  9
$THICKNESS
 40
0.0
  9
$LIMCHECK
 70
     0
  9
$BLIPMODE
 70
     0
  9
$CHAMFERA
 40
0.0
  9
$CHAMFERB
 40
0.0
  9
$SKPOLY
 70
     0
  9
$TDCREATE
 40
2451729.4361226852051914
  9
$TDUPDATE
 40
2458387.5762847228907049
  9
$TDINDWG
 40
0.1616414468
  9
$TDUSRTIMER
 40
0.1616414468
  9
$USRTIMER
 70
     1
  9
$ANGBASE
 50
0.0
  9
$ANGDIR
 70
     0
  9
$PDMODE
 70
     0
  9
$PDSIZE
 40
0.0
  9
$PLINEWID
 40
0.0
  9
$COORDS
 70
     1
  9
$SPLFRAME
 70
     0
  9
$SPLINETYPE
 70
     6
  9
$SPLINESEGS
 70
     8
  9
$ATTDIA
 70
     1
  9
$ATTREQ
 70
     1
  9
$HANDLING
 70
     1
  9
$HANDSEED
  5
DD5
  9
$SURFTAB1
 70
     6
  9
$SURFTAB2
 70
     6
  9
$SURFTYPE
 70
     6
  9
$SURFU
 70
     6
  9
$SURFV
 70
     6
  9
$UCSNAME
  2

  9
$UCSORG
 10
0.0
 20
0.0
 30
0.0
  9
$UCSXDIR
 10
1.0
 20
0.0
 30
0.0
  9
$UCSYDIR
 10
0.0
 20
1.0
 30
0.0
  9
$PUCSNAME
  2

  9
$PUCSORG
 10
0.0
 20
0.0
 30
0.0
  9
$PUCSXDIR
 10
1.0
 20
0.0
 30
0.0
  9
$PUCSYDIR
 10
0.0
 20
1.0
 30
0.0
  9
$USERI1
 70
     0
  9
$USERI2
 70
     0
  9
$USERI3
 70
     0
  9
$USERI4
 70
     0
  9
$USERI5
 70
     0
  9
$USERR1
 40
0.0
  9
$USERR2
 40
0.0
  9
$USERR3
 40
0.0
  9
$USERR4
 40
0.0
  9
$USERR5
 40
0.0
  9
$WORLDVIEW
 70
     1
  9
$SHADEDGE
 70
     3
  9
$SHADEDIF
 70
    70
  9
$TILEMODE
 70
     1
  9
$MAXACTVP
 70
    16
  9
$PLIMCHECK
 70
     0
  9
$PEXTMIN
 10
-0.1169135351119692
 20
-0.1458511145317338
 30
-0.0015258207003583
  9
$PEXTMAX
 10
10.8895077989677702
 20
7.5563657688478223
 30
0.0000000349246037
  9
$PLIMMIN
 10
-0.2500002402958907
 20
-0.2499999962453767
  9
$PLIMMAX
 10
10.7499995194082203
 20
8.2499997634587334
  9
$UNITMODE
 70
     0
  9
$VISRETAIN
 70
     0
  9
$PLINEGEN
 70
     0
  9
$PSLTSCALE
 70
     0
  0
ENDSEC
  0
SECTION
  2
TABLES
  0
TABLE
  2
VPORT
 70
     1
  0
VPORT
  2
*ACTIVE
 70
     0
 10
0.0
 20
0.0
 11
1.0
 21
1.0
 12
0.0
 22
0.0
 13
0.0
 23
0.0
 14
1.0
 24
1.0
 15
10.0
 25
10.0
 16
-0.0000000000000639
 26
0.0
 36
286.4701136404918884
 17
11.2929140754969008
 27
20.7031668570711389
 37
5.0000000000000009
 40
115.758761524819306
 41
1.8224299065420559
 42
50.0
 43
0.0
 44
0.0
 50
0.0
 51
0.0
 71
     0
 72
  1500
 73
     1
 74
     0
 75
     0
 76
     0
 77
     0
 78
     0
  0
ENDTAB
  0
TABLE
  2
LTYPE
 70
     3
  0
LTYPE
  2
CONTINUOUS
 70
     0
  3
Solid line
 72
    65
 73
     0
 40
0.0
  0
LTYPE
  2
VERDECKT
 70
     0
  3
Verdeckt __ __ __ __ __ __ __ __ __ __ __ __ __
 72
    65
 73
     2
 40
0.375
 49
0.25
 49
-0.125
  0
ENDTAB
  0
TABLE
  2
LAYER
 70
    10
  0
LAYER
  2
0
 70
     0
 62
     7
  6
CONTINUOUS
  0
LAYER
  2
DICHTUNG
 70
     0
 62
   253
  6
CONTINUOUS
  0
ENDTAB
  0
TABLE
  2
STYLE
 70
     4
  0
STYLE
  2
STANDARD
 70
     0
 40
0.0
 41
1.0
 50
0.0
 71
     0
 42
3.5
  3
txt
  4

  0
STYLE
  2
GREEKS
 70
     0
 40
0.0
 41
0.8
 50
0.0
 71
     0
 42
3.5
  3
SIMPLEX.shx
  4

  0
ENDTAB
  0
TABLE
  2
VIEW
 70
     3
  0
ENDTAB
  0
TABLE
  2
UCS
 70
     0
  0
ENDTAB
  0
TABLE
  2
APPID
 70
    12
  0
APPID
  2
ACAD
 70
     0
  0
APPID
  2
ACAD_EXEMPT_FROM_CAD_STANDARDS
 70
     0
  0
APPID
  2
ACAD_NAV_VCDISPLAY
 70
     0
  0
APPID
  2
GRADIENTCOLOR1ACI
 70
     0
  0
APPID
  2
GRADIENTCOLOR2ACI
 70
     0
  0
APPID
  2
ACAD_DSTYLE_DIMRADIAL_EXTENSION
 70
     0
  0
APPID
  2
ACADANNOMONITORALERTICONDI
 70
     0
  0
APPID
  2
ACAD_MLEADERVER
 70
     0
  0
APPID
  2
ACAD_PSEXT
 70
     0
  0
APPID
  2
ACAECLAYERSTANDARD
 70
     0
  0
APPID
  2
ACCMTRANSPARENCY
 70
     0
  0
APPID
  2
ACAD_OBJECT_CHANGE_GUID
 70
     0
  0
ENDTAB
  0
TABLE
  2
DIMSTYLE
 70
     2
  0
DIMSTYLE
  2
STANDARD
 70
     0
  3

  4

  5

  6

  7

 40
1.0
 41
0.18
 42
0.0625
 43
0.38
 44
0.18
 45
0.0
 46
0.0
 47
0.0
 48
0.0
140
0.18
141
0.09
142
0.0
143
25.3999999999999986
144
1.0
145
0.0
146
1.0
147
0.09
 71
     0
 72
     0
 73
     1
 74
     1
 75
     0
 76
     0
 77
     0
 78
     0
170
     0
171
     2
172
     0
173
     0
174
     0
175
     0
176
     0
177
     0
178
     0
  0
ENDTAB
  0
ENDSEC
  0
SECTION
  2
BLOCKS
  0
BLOCK
  8
0
  2
$MODEL_SPACE
 70
     0
 10
0.0
 20
0.0
 30
0.0
  3
$MODEL_SPACE
  1

  0
ENDBLK
  5
42
  8
0
  0
BLOCK
 67
     1
  8
0
  2
$PAPER_SPACE
 70
     0
 10
0.0
 20
0.0
 30
0.0
  3
$PAPER_SPACE
  1

  0
ENDBLK
  5
40
 67
     1
  8
0
  0
BLOCK
  8
0
  2
A$C638E70FD
 70
     0
 10
0.0
 20
0.0
 30
0.0
  3
A$C638E70FD
  1

  0
LINE
  5
D41
  8
0
  6
CONTINUOUS
 62
     3
 10
-28.2472232502673783
 20
13.9999999999999893
 30
-0.0000000000000031
 11
28.2472232502673783
 21
13.9999999999999893
 31
-0.0000000000000031
210
0.0
220
1.0
230
-0.0000000000000002
  0
LINE
  5
D42
  8
0
  6
CONTINUOUS
 62
     3
 10
-31.9999999999999396
 20
9.0000000000000018
 30
-0.000000000000002
 11
32.0000000000000568
 21
9.0000000000000018
 31
-0.000000000000002
210
0.0
220
1.0
230
-0.0000000000000002
  0
LINE
  5
D43
  8
0
  6
CONTINUOUS
 62
     3
 10
-30.2499999999999503
 20
4.4666622578998556
 30
-0.000000000000001
 11
30.2500000000000604
 21
4.4666622578998556
 31
-0.000000000000001
210
0.0
220
1.0
230
-0.0000000000000002
  0
LINE
  5
D44
  8
0
  6
CONTINUOUS
 62
     3
 10
-30.2499999999999503
 20
3.5999999999999952
 30
-0.0000000000000008
 11
30.2500000000000604
 21
3.5999999999999952
 31
-0.0000000000000008
210
0.0
220
1.0
230
-0.0000000000000002
  0
LINE
  5
D45
  8
0
  6
CONTINUOUS
 62
     3
 10
-30.8499999999999588
 20
3.0
 30
-0.0000000000000007
 11
30.8499999999999588
 21
3.0
 31
-0.0000000000000007
210
0.0
220
1.0
230
-0.0000000000000002
  0
LINE
  5
D46
  8
0
  6
CONTINUOUS
 62
     3
 10
-30.8499999999999588
 20
2.0
 30
-0.0000000000000004
 11
30.8499999999999588
 21
2.0
 31
-0.0000000000000004
210
0.0
220
1.0
230
-0.0000000000000002
  0
LINE
  5
D47
  8
0
  6
CONTINUOUS
 62
     3
 10
-30.2499999999999503
 20
1.400000000000005
 30
-0.0000000000000003
 11
30.2500000000000604
 21
1.400000000000005
 31
-0.0000000000000003
210
0.0
220
1.0
230
-0.0000000000000002
  0
LINE
  5
D48
  8
0
  6
CONTINUOUS
 62
     3
 10
-30.2499999999999503
 20
0.7528871108917488
 30
-0.0000000000000002
 11
30.2500000000000604
 21
0.7528871108917488
 31
-0.0000000000000002
210
0.0
220
1.0
230
-0.0000000000000002
  0
LINE
  5
D49
  8
0
  6
CONTINUOUS
 62
     3
 10
-31.9999999999999396
 20
-2.9999999999999432
 30
0.0000000000000007
 11
32.0000000000000568
 21
-2.9999999999999432
 31
0.0000000000000007
210
0.0
220
1.0
230
-0.0000000000000002
  0
LINE
  5
D4A
  8
0
  6
CONTINUOUS
 62
     3
 10
-25.4999999999999396
 20
-3.999999999999944
 30
0.0000000000000009
 11
25.5000000000000604
 21
-3.999999999999944
 31
0.0000000000000009
210
0.0
220
1.0
230
-0.0000000000000002
  0
ARC
  5
D4B
  8
0
  6
CONTINUOUS
 62
     3
 10
28.2472232502674991
 20
12.5000000000000799
 30
0.0
 40
1.4999999999999001
210
0.0
220
-0.0000000000000002
230
-1.0
 50
30.0000000000004796
 51
90.0000000000046043
  0
ARC
  5
D4C
  8
0
  6
CONTINUOUS
 62
     3
 10
-28.2472232502674991
 20
12.5000000000000799
 30
0.0
 40
1.4999999999999001
210
0.0
220
-0.0000000000000002
230
-1.0
 50
89.9999999999953957
 51
149.9999999999994884
  0
LINE
  5
D4D
  8
0
  6
CONTINUOUS
 62
     3
 10
29.5462613559440506
 20
13.2500000000000302
 30
-0.0000000000000029
 11
31.9999999999999787
 21
8.9999999999999911
 31
-0.000000000000002
210
0.0
220
1.0
230
-0.0000000000000002
  0
LINE
  5
D4E
  8
0
  6
CONTINUOUS
 62
     3
 10
-29.5462613559440506
 20
13.2500000000000302
 30
-0.0000000000000029
 11
-31.9999999999999787
 21
8.9999999999999911
 31
-0.000000000000002
210
0.0
220
1.0
230
-0.0000000000000002
  0
ARC
  5
D4F
  8
0
  6
CONTINUOUS
 62
     3
 10
29.3140740033710507
 20
8.4999999999999751
 30
0.0
 40
0.5000000000000266
210
0.0
220
-0.0000000000000002
230
-1.0
 50
90.0
 51
199.9999999999955094
  0
ARC
  5
D50
  8
0
  6
CONTINUOUS
 62
     3
 10
-29.3140740033710507
 20
8.4999999999999751
 30
0.0
 40
0.5000000000000295
210
0.0
220
-0.0000000000000002
230
-1.0
 50
340.0000000000043769
 51
90.0
  0
LINE
  5
D51
  8
0
  6
CONTINUOUS
 62
     3
 10
28.8442276929780483
 20
8.3289899283371671
 30
-0.0000000000000018
 11
30.25
 21
4.4666622578998556
 31
-0.000000000000001
210
0.0
220
1.0
230
-0.0000000000000002
  0
LINE
  5
D52
  8
0
  6
CONTINUOUS
 62
     3
 10
-28.8442276929780483
 20
8.3289899283371671
 30
-0.0000000000000018
 11
-30.25
 21
4.4666622578998556
 31
-0.000000000000001
210
0.0
220
1.0
230
-0.0000000000000002
  0
LINE
  5
D53
  8
0
  6
CONTINUOUS
 62
     3
 10
30.25
 20
4.4666622578998556
 30
-0.000000000000001
 11
30.25
 21
3.5999999999999952
 31
-0.0000000000000008
210
0.0
220
1.0
230
-0.0000000000000002
  0
LINE
  5
D54
  8
0
  6
CONTINUOUS
 62
     3
 10
-30.25
 20
4.4666622578998556
 30
-0.000000000000001
 11
-30.25
 21
3.5999999999999952
 31
-0.0000000000000008
210
0.0
220
1.0
230
-0.0000000000000002
  0
LINE
  5
D55
  8
0
  6
CONTINUOUS
 62
     3
 10
30.2500000000000213
 20
3.600000000000009
 30
-0.0000000000000008
 11
30.8499999999999801
 21
3.0000000000000151
 31
-0.0000000000000007
210
0.0
220
1.0
230
-0.0000000000000002
  0
LINE
  5
D56
  8
0
  6
CONTINUOUS
 62
     3
 10
-30.2500000000000213
 20
3.600000000000009
 30
-0.0000000000000008
 11
-30.8499999999999801
 21
3.0000000000000151
 31
-0.0000000000000007
210
0.0
220
1.0
230
-0.0000000000000002
  0
LINE
  5
D57
  8
0
  6
CONTINUOUS
 62
     3
 10
30.8499999999999694
 20
3.0
 30
-0.0000000000000007
 11
30.8499999999999694
 21
2.0
 31
-0.0000000000000004
210
0.0
220
1.0
230
-0.0000000000000002
  0
LINE
  5
D58
  8
0
  6
CONTINUOUS
 62
     3
 10
-30.8499999999999694
 20
3.0
 30
-0.0000000000000007
 11
-30.8499999999999694
 21
2.0
 31
-0.0000000000000004
210
0.0
220
1.0
230
-0.0000000000000002
  0
LINE
  5
D59
  8
0
  6
CONTINUOUS
 62
     3
 10
-30.2500000000000213
 20
1.399999999999991
 30
-0.0000000000000003
 11
-30.8499999999999801
 21
1.999999999999986
 31
-0.0000000000000004
210
0.0
220
1.0
230
-0.0000000000000002
  0
LINE
  5
D5A
  8
0
  6
CONTINUOUS
 62
     3
 10
30.2500000000000213
 20
1.399999999999991
 30
-0.0000000000000003
 11
30.8499999999999801
 21
1.999999999999986
 31
-0.0000000000000004
210
0.0
220
1.0
230
-0.0000000000000002
  0
LINE
  5
D5B
  8
0
  6
CONTINUOUS
 62
     3
 10
30.25
 20
1.400000000000005
 30
-0.0000000000000003
 11
30.25
 21
0.7528871108917488
 31
-0.0000000000000002
210
0.0
220
1.0
230
-0.0000000000000002
  0
LINE
  5
D5C
  8
0
  6
CONTINUOUS
 62
     3
 10
-30.25
 20
1.400000000000005
 30
-0.0000000000000003
 11
-30.25
 21
0.7528871108917488
 31
-0.0000000000000002
210
0.0
220
1.0
230
-0.0000000000000002
  0
LINE
  5
D5D
  8
0
  6
CONTINUOUS
 62
     3
 10
30.25
 20
0.7528871108917484
 30
-0.0000000000000002
 11
32.0
 21
-2.9999999999999432
 31
0.0000000000000007
210
0.0
220
1.0
230
-0.0000000000000002
  0
LINE
  5
D5E
  8
0
  6
CONTINUOUS
 62
     3
 10
-30.25
 20
0.7528871108917484
 30
-0.0000000000000002
 11
-32.0
 21
-2.9999999999999432
 31
0.0000000000000007
210
0.0
220
1.0
230
-0.0000000000000002
  0
ARC
  5
D5F
  8
0
  6
CONTINUOUS
 62
     3
 10
25.5
 20
-0.9999999999998568
 30
0.0
 40
3.0000000000000862
210
0.0
220
-0.0000000000000002
230
-1.0
 50
270.0
 51
318.1896851042207004
  0
ARC
  5
D60
  8
0
  6
CONTINUOUS
 62
     3
 10
-25.5
 20
-0.9999999999998577
 30
0.0
 40
3.0000000000000862
210
0.0
220
-0.0000000000000002
230
-1.0
 50
221.8103148957792996
 51
270.0
  0
LINE
  5
D61
  8
0
  6
VERDECKT
 62
     1
 10
-26.9999999999999396
 20
8.0000000000000018
 30
-0.0000000000000018
 11
27.0000000000000604
 21
8.0000000000000018
 31
-0.0000000000000018
210
0.0
220
1.0
230
-0.0000000000000002
  0
LINE
  5
D62
  8
0
  6
VERDECKT
 62
     1
 10
-28.0557993196750317
 20
13.9877354868378099
 30
-0.0000000000000031
 11
28.0557993196750317
 21
13.9877354868378099
 31
-0.0000000000000031
210
0.0
220
1.0
230
-0.0000000000000002
  0
LINE
  5
D63
  8
0
  6
VERDECKT
 62
     1
 10
-29.1742346141750808
 20
-1.000000000000042
 30
0.0000000000000002
 11
29.1742346141750808
 21
-1.000000000000042
 31
0.0000000000000002
210
0.0
220
1.0
230
-0.0000000000000002
  0
ARC
  5
D64
  8
0
  6
VERDECKT
 62
     1
 10
24.0000000000000604
 20
-0.0000000000000284
 30
0.0
 40
2.9999999999999432
210
0.0
220
-0.0000000000000002
230
-1.0
 50
269.99999999999892
 51
0.0000000000004949
  0
ARC
  5
D65
  8
0
  6
VERDECKT
 62
     1
 10
-24.0000000000000604
 20
-0.0000000000000284
 30
0.0
 40
2.9999999999999432
210
0.0
220
-0.0000000000000002
230
-1.0
 50
179.9999999999994031
 51
270.00000000000108
  0
LINE
  5
D66
  8
0
  6
VERDECKT
 62
     1
 10
27.0
 20
8.0000000000000018
 30
-0.0000000000000018
 11
27.0
 21
0.0
 31
0.0
210
0.0
220
1.0
230
-0.0000000000000002
  0
LINE
  5
D67
  8
0
  6
VERDECKT
 62
     1
 10
-27.0
 20
8.0000000000000018
 30
-0.0000000000000018
 11
-27.0
 21
0.0
 31
0.0
210
0.0
220
1.0
230
-0.0000000000000002
  0
LINE
  5
D68
  8
0
  6
VERDECKT
 62
     1
 10
-26.9999999999999716
 20
8.0000000000000071
 30
-0.0000000000000018
 11
-28.0557993196749997
 21
13.9877354868378099
 31
-0.0000000000000031
210
0.0
220
1.0
230
-0.0000000000000002
  0
LINE
  5
D69
  8
0
  6
VERDECKT
 62
     1
 10
26.9999999999999716
 20
8.0000000000000071
 30
-0.0000000000000018
 11
28.0557993196749997
 21
13.9877354868378099
 31
-0.0000000000000031
210
0.0
220
1.0
230
-0.0000000000000002
  0
LINE
  5
D6A
  8
0
  6
VERDECKT
 62
     1
 10
-28.0557993196750317
 20
13.9877354868378099
 30
-0.0000000000000031
 11
-28.2472232502673783
 21
14.0
 31
-0.0000000000000031
210
0.0
220
1.0
230
-0.0000000000000002
  0
LINE
  5
D6B
  8
0
  6
VERDECKT
 62
     1
 10
28.0557993196750317
 20
13.9877354868378099
 30
-0.0000000000000031
 11
28.2472232502673783
 21
14.0
 31
-0.0000000000000031
210
0.0
220
1.0
230
-0.0000000000000002
  0
LINE
  5
D6C
  8
0
  6
VERDECKT
 62
     1
 10
30.0
 20
-1.749999999999972
 30
0.0000000000000004
 11
30.0
 21
-3.0
 31
0.0000000000000007
210
0.0
220
1.0
230
-0.0000000000000002
  0
LINE
  5
D6D
  8
0
  6
VERDECKT
 62
     1
 10
-30.0
 20
-1.749999999999972
 30
0.0000000000000004
 11
-30.0
 21
-3.0
 31
0.0000000000000007
210
0.0
220
1.0
230
-0.0000000000000002
  0
ARC
  5
D6E
  8
0
  6
VERDECKT
 62
     1
 10
29.1742346141746793
 20
-1.8295923149515401
 30
0.0
 40
0.8295923149515395
210
0.0
220
-0.0000000000000002
230
-1.0
 50
5.5055102055373251
 51
89.9999999999725162
  0
ARC
  5
D6F
  8
0
  6
VERDECKT
 62
     1
 10
-29.1742346141746793
 20
-1.8295923149515401
 30
0.0
 40
0.8295923149515402
210
0.0
220
-0.0000000000000002
230
-1.0
 50
90.0000000000274838
 51
174.494489794462595
  0
ARC
  5
D70
  8
0
  6
VERDECKT
 62
     1
 10
29.1742346141747291
 20
-1.749999999999982
 30
0.0
 40
0.749999999999941
210
0.0
220
-0.0000000000000002
230
-1.0
 50
89.9999999999736957
 51
168.4630409671813993
  0
ARC
  5
D71
  8
0
  6
VERDECKT
 62
     1
 10
-29.1742346141747291
 20
-1.749999999999982
 30
0.0
 40
0.7499999999999402
210
0.0
220
-0.0000000000000002
230
-1.0
 50
11.5369590328185492
 51
90.0000000000263469
  0
ARC
  5
D72
  8
0
  6
VERDECKT
 62
     1
 10
25.4999999999999787
 20
-0.9999999999998458
 30
0.0
 40
3.000000000000107
210
0.0
220
-0.0000000000000002
230
-1.0
 50
318.1896851042207004
 51
348.4630409671826783
  0
ARC
  5
D73
  8
0
  6
VERDECKT
 62
     1
 10
-25.4999999999999787
 20
-0.9999999999998447
 30
0.0
 40
3.0000000000001141
210
0.0
220
-0.0000000000000002
230
-1.0
 50
191.5369590328172933
 51
221.8103148957791859
  0
LINE
  5
D74
  8
0
  6
VERDECKT
 62
     1
 10
24.0
 20
-3.0000000000000568
 30
0.0000000000000007
 11
24.0
 21
-3.999999999999944
 31
0.0000000000000009
210
0.0
220
1.0
230
-0.0000000000000002
  0
LINE
  5
D75
  8
0
  6
VERDECKT
 62
     1
 10
-24.0
 20
-3.0000000000000568
 30
0.0000000000000007
 11
-24.0
 21
-3.999999999999944
 31
0.0000000000000009
210
0.0
220
1.0
230
-0.0000000000000002
  0
ENDBLK
  5
D77
  8
0
  0
BLOCK
  8
0
  2
A$C45DB2930
 70
     0
 10
0.0
 20
0.0
 30
0.0
  3
A$C45DB2930
  1

  0
CIRCLE
  5
D7B
  8
0
  6
CONTINUOUS
 62
     3
 10
-0.0000000000000007
 20
0.0000000000000038
 30
0.0
 40
24.0
  0
CIRCLE
  5
D7C
  8
0
  6
CONTINUOUS
 62
     3
 10
0.0000000000000018
 20
0.0000000000000045
 30
0.0
 40
27.0
  0
CIRCLE
  5
D7D
  8
0
  6
CONTINUOUS
 62
     3
 10
0.0000000000000031
 20
0.0000000000000049
 30
0.0
 40
28.0557993196750317
  0
CIRCLE
  5
D7E
  8
0
  6
CONTINUOUS
 62
     3
 10
0.000000000000002
 20
0.0000000000000046
 30
0.0
 40
32.0
  0
CIRCLE
  5
D7F
  8
0
  6
VERDECKT
 62
     1
 10
0.000000000000001
 20
0.0000000000000043
 30
0.0
 40
30.25
  0
CIRCLE
  5
D80
  8
0
  6
VERDECKT
 62
     1
 10
0.0000000000000007
 20
0.0000000000000042
 30
0.0
 40
30.8499999999999694
  0
CIRCLE
  5
D81
  8
0
  6
VERDECKT
 62
     1
 10
-0.0000000000000004
 20
0.0000000000000039
 30
0.0
 40
30.0000000000000604
  0
CIRCLE
  5
D82
  8
0
  6
VERDECKT
 62
     1
 10
0.0000000000000019
 20
0.0000000000000045
 30
0.0
 40
28.8140740033710188
  0
ENDBLK
  5
D84
  8
0
  0
ENDSEC
  0
SECTION
  2
ENTITIES
  0
INSERT
  5
D78
  8
DICHTUNG
  2
A$C638E70FD
 10
0.0
 20
50.0
 30
0.0
  0
INSERT
  5
D85
  8
DICHTUNG
  2
A$C45DB2930
 10
0.0
 20
0.0
 30
0.0
  0
VIEWPORT
  5
6A0
 67
     1
  8
0
 10
4.7502363016503528
 20
5.1499795829261936
 30
0.0
 40
69.1976347142702792
 41
37.9699841765483086
 68
     1
 69
     1
1001
ACAD
1000
MVIEW
1002
{
1070
    16
1010
0.0
1020
0.0
1030
0.0
1010
0.0
1020
0.0
1030
1.0
1040
0.0
1040
37.9699841765483086
1040
4.7502363016503528
1040
5.1499795829261936
1040
50.0
1040
0.0
1040
0.0
1070
     0
1070
  1500
1070
     1
1070
     1
1070
     0
1070
     0
1070
     0
1070
     0
1040
0.0
1040
0.0
1040
0.0
1040
10.0
1040
10.0
1040
10.0
1040
10.0
1070
     0
1002
{
1002
}
1002
}
  0
ENDSEC
  0
EOF
