  0
SECTION
  2
HEADER
  9
$ACADVER
  1
AC1009
  9
$INSBASE
 10
0.0
 20
0.0
 30
0.0
  9
$EXTMIN
 10
-26.0136098014348818
 20
-26.0098564257027682
 30
-0.000472986372742
  9
$EXTMAX
 10
26.0138250426550712
 20
59.8954472533607714
 30
0.0007095517366054
  9
$LIMMIN
 10
0.0
 20
0.0
  9
$LIMMAX
 10
420.0
 20
297.0
  9
$ORTHOMODE
 70
     1
  9
$REGENMODE
 70
     1
  9
$FILLMODE
 70
     1
  9
$QTEXTMODE
 70
     0
  9
$MIRRTEXT
 70
     1
  9
$DRAGMODE
 70
     2
  9
$LTSCALE
 40
10.0
  9
$OSMODE
 70
  1327
  9
$ATTMODE
 70
     1
  9
$TEXTSIZE
 40
3.5
  9
$TRACEWID
 40
0.5
  9
$TEXTSTYLE
  7
GREEKS
  9
$CLAYER
  8
0
  9
$CELTYPE
  6
BYLAYER
  9
$CECOLOR
 62
   256
  9
$DIMSCALE
 40
1.0
  9
$DIMASZ
 40
3.5
  9
$DIMEXO
 40
1.0
  9
$DIMDLI
 40
7.0
  9
$DIMRND
 40
0.0
  9
$DIMDLE
 40
0.0
  9
$DIMEXE
 40
1.0
  9
$DIMTP
 40
0.2
  9
$DIMTM
 40
0.2
  9
$DIMTXT
 40
3.5
  9
$DIMCEN
 40
1.5
  9
$DIMTSZ
 40
0.0
  9
$DIMTOL
 70
     0
  9
$DIMLIM
 70
     0
  9
$DIMTIH
 70
     0
  9
$DIMTOH
 70
     0
  9
$DIMSE1
 70
     0
  9
$DIMSE2
 70
     0
  9
$DIMTAD
 70
     1
  9
$DIMZIN
 70
     8
  9
$DIMBLK
  1

  9
$DIMASO
 70
     1
  9
$DIMSHO
 70
     0
  9
$DIMPOST
  1

  9
$DIMAPOST
  1

  9
$DIMALT
 70
     0
  9
$DIMALTD
 70
     2
  9
$DIMALTF
 40
25.3999999999999986
  9
$DIMLFAC
 40
1.0
  9
$DIMTOFL
 70
     1
  9
$DIMTVP
 40
0.0
  9
$DIMTIX
 70
     0
  9
$DIMSOXD
 70
     0
  9
$DIMSAH
 70
     0
  9
$DIMBLK1
  1

  9
$DIMBLK2
  1

  9
$DIMSTYLE
  2
STANDARD
  9
$DIMCLRD
 70
     0
  9
$DIMCLRE
 70
     0
  9
$DIMCLRT
 70
     1
  9
$DIMTFAC
 40
0.5
  9
$DIMGAP
 40
1.5
  9
$LUNITS
 70
     2
  9
$LUPREC
 70
     2
  9
$SKETCHINC
 40
1.0
  9
$FILLETRAD
 40
0.0
  9
$AUNITS
 70
     0
  9
$AUPREC
 70
     0
  9
$MENU
  1
ACAD
  9
$ELEVATION
 40
0.0
  9
$PELEVATION
 40
0.0
  9
$THICKNESS
 40
0.0
  9
$LIMCHECK
 70
     0
  9
$BLIPMODE
 70
     0
  9
$CHAMFERA
 40
0.0
  9
$CHAMFERB
 40
0.0
  9
$SKPOLY
 70
     0
  9
$TDCREATE
 40
2451729.4361226852051914
  9
$TDUPDATE
 40
2458388.6089583327993751
  9
$TDINDWG
 40
0.1142567014
  9
$TDUSRTIMER
 40
0.1142567014
  9
$USRTIMER
 70
     1
  9
$ANGBASE
 50
0.0
  9
$ANGDIR
 70
     0
  9
$PDMODE
 70
     0
  9
$PDSIZE
 40
0.0
  9
$PLINEWID
 40
0.0
  9
$COORDS
 70
     1
  9
$SPLFRAME
 70
     0
  9
$SPLINETYPE
 70
     6
  9
$SPLINESEGS
 70
     8
  9
$ATTDIA
 70
     0
  9
$ATTREQ
 70
     0
  9
$HANDLING
 70
     1
  9
$HANDSEED
  5
99C
  9
$SURFTAB1
 70
     6
  9
$SURFTAB2
 70
     6
  9
$SURFTYPE
 70
     6
  9
$SURFU
 70
     6
  9
$SURFV
 70
     6
  9
$UCSNAME
  2

  9
$UCSORG
 10
0.0
 20
0.0
 30
0.0
  9
$UCSXDIR
 10
1.0
 20
0.0
 30
0.0
  9
$UCSYDIR
 10
0.0
 20
1.0
 30
0.0
  9
$PUCSNAME
  2

  9
$PUCSORG
 10
0.0
 20
0.0
 30
0.0
  9
$PUCSXDIR
 10
1.0
 20
0.0
 30
0.0
  9
$PUCSYDIR
 10
0.0
 20
1.0
 30
0.0
  9
$USERI1
 70
     0
  9
$USERI2
 70
     0
  9
$USERI3
 70
     0
  9
$USERI4
 70
     0
  9
$USERI5
 70
     0
  9
$USERR1
 40
0.0
  9
$USERR2
 40
0.0
  9
$USERR3
 40
0.0
  9
$USERR4
 40
0.0
  9
$USERR5
 40
0.0
  9
$WORLDVIEW
 70
     1
  9
$SHADEDGE
 70
     3
  9
$SHADEDIF
 70
    70
  9
$TILEMODE
 70
     1
  9
$MAXACTVP
 70
    16
  9
$PLIMCHECK
 70
     0
  9
$PEXTMIN
 10
-0.1169135351119692
 20
-0.1458511145317338
 30
-0.0015258207003583
  9
$PEXTMAX
 10
10.8895077989677702
 20
7.5563657688478223
 30
0.0000000349246037
  9
$PLIMMIN
 10
-0.2500002402958907
 20
-0.2499999962453767
  9
$PLIMMAX
 10
10.7499995194082203
 20
8.2499997634587334
  9
$UNITMODE
 70
     0
  9
$VISRETAIN
 70
     0
  9
$PLINEGEN
 70
     0
  9
$PSLTSCALE
 70
     0
  0
ENDSEC
  0
SECTION
  2
TABLES
  0
TABLE
  2
VPORT
 70
     1
  0
VPORT
  2
*ACTIVE
 70
     0
 10
0.0
 20
0.0
 11
1.0
 21
1.0
 12
0.0001081691255322
 22
16.9427954138289998
 13
0.0
 23
0.0
 14
1.0
 24
1.0
 15
10.0
 25
10.0
 16
-0.0000000000000432
 26
0.0
 36
194.3943203687088896
 17
-0.0000005485154446
 27
0.0
 37
7.7499999999999982
 40
86.5479867489817138
 41
1.8826466916354549
 42
50.0
 43
0.0
 44
0.0
 50
0.0
 51
0.0
 71
     0
 72
  1500
 73
     1
 74
     0
 75
     0
 76
     0
 77
     0
 78
     0
  0
ENDTAB
  0
TABLE
  2
LTYPE
 70
     3
  0
LTYPE
  2
CONTINUOUS
 70
     0
  3
Solid line
 72
    65
 73
     0
 40
0.0
  0
LTYPE
  2
VERDECKT
 70
     0
  3
Verdeckt __ __ __ __ __ __ __ __ __ __ __ __ __
 72
    65
 73
     2
 40
0.375
 49
0.25
 49
-0.125
  0
ENDTAB
  0
TABLE
  2
LAYER
 70
    10
  0
LAYER
  2
0
 70
     0
 62
     7
  6
CONTINUOUS
  0
LAYER
  2
DEFPOINTS
 70
     0
 62
     7
  6
CONTINUOUS
  0
ENDTAB
  0
TABLE
  2
STYLE
 70
     5
  0
STYLE
  2
STANDARD
 70
     0
 40
0.0
 41
1.0
 50
0.0
 71
     0
 42
3.5
  3
txt
  4

  0
STYLE
  2
GREEKS
 70
     0
 40
0.0
 41
0.8
 50
0.0
 71
     0
 42
3.5
  3
SIMPLEX.shx
  4

  0
ENDTAB
  0
TABLE
  2
VIEW
 70
     4
  0
ENDTAB
  0
TABLE
  2
UCS
 70
     0
  0
ENDTAB
  0
TABLE
  2
APPID
 70
    12
  0
APPID
  2
ACAD
 70
     0
  0
APPID
  2
ACAD_EXEMPT_FROM_CAD_STANDARDS
 70
     0
  0
APPID
  2
ACAD_NAV_VCDISPLAY
 70
     0
  0
APPID
  2
GRADIENTCOLOR1ACI
 70
     0
  0
APPID
  2
GRADIENTCOLOR2ACI
 70
     0
  0
APPID
  2
ACAD_DSTYLE_DIMRADIAL_EXTENSION
 70
     0
  0
APPID
  2
ACADANNOMONITORALERTICONDI
 70
     0
  0
APPID
  2
ACAD_MLEADERVER
 70
     0
  0
APPID
  2
ACAD_PSEXT
 70
     0
  0
APPID
  2
ACAECLAYERSTANDARD
 70
     0
  0
APPID
  2
ACCMTRANSPARENCY
 70
     0
  0
APPID
  2
ACAD_OBJECT_CHANGE_GUID
 70
     0
  0
ENDTAB
  0
TABLE
  2
DIMSTYLE
 70
     3
  0
DIMSTYLE
  2
STANDARD
 70
     0
  3

  4

  5

  6

  7

 40
1.0
 41
0.18
 42
0.0625
 43
0.38
 44
0.18
 45
0.0
 46
0.0
 47
0.0
 48
0.0
140
0.18
141
0.09
142
0.0
143
25.3999999999999986
144
1.0
145
0.0
146
1.0
147
0.09
 71
     0
 72
     0
 73
     1
 74
     1
 75
     0
 76
     0
 77
     0
 78
     0
170
     0
171
     2
172
     0
173
     0
174
     0
175
     0
176
     0
177
     0
178
     0
  0
ENDTAB
  0
ENDSEC
  0
SECTION
  2
BLOCKS
  0
BLOCK
  8
0
  2
$MODEL_SPACE
 70
     0
 10
0.0
 20
0.0
 30
0.0
  3
$MODEL_SPACE
  1

  0
ENDBLK
  5
42
  8
0
  0
BLOCK
 67
     1
  8
0
  2
$PAPER_SPACE
 70
     0
 10
0.0
 20
0.0
 30
0.0
  3
$PAPER_SPACE
  1

  0
ENDBLK
  5
40
 67
     1
  8
0
  0
BLOCK
  8
0
  2
A$C004C6C19
 70
     0
 10
0.0
 20
0.0
 30
0.0
  3
A$C004C6C19
  1

  0
CIRCLE
  5
90B
  8
0
  6
CONTINUOUS
 62
     3
 10
-6.0048813103102381
 20
-7.514314353153817
 30
0.0
 40
18.25
  0
CIRCLE
  5
90C
  8
0
  6
CONTINUOUS
 62
     3
 10
-6.0048813103102372
 20
-7.514314353153817
 30
0.0
 40
21.0
  0
CIRCLE
  5
90D
  8
0
  6
CONTINUOUS
 62
     3
 10
-6.0048813103102354
 20
-7.514314353153817
 30
0.0
 40
21.96979839389655
  0
CIRCLE
  5
90E
  8
0
  6
CONTINUOUS
 62
     3
 10
-6.0048813103102363
 20
-7.514314353153817
 30
0.0
 40
26.0
  0
CIRCLE
  5
90F
  8
0
  6
VERDECKT
 62
     1
 10
-6.0048813103102372
 20
-7.514314353153817
 30
0.0
 40
24.3999999999999808
  0
CIRCLE
  5
910
  8
0
  6
VERDECKT
 62
     1
 10
-6.0048813103102372
 20
-7.514314353153817
 30
0.0
 40
25.0
  0
CIRCLE
  5
911
  8
0
  6
VERDECKT
 62
     1
 10
-6.0048813103102381
 20
-7.514314353153817
 30
0.0
 40
25.1999999999999282
  0
CIRCLE
  5
912
  8
0
  6
VERDECKT
 62
     1
 10
-6.0048813103102381
 20
-7.514314353153817
 30
0.0
 40
24.0
  0
CIRCLE
  5
913
  8
0
  6
VERDECKT
 62
     1
 10
-6.0048813103102381
 20
-7.514314353153817
 30
0.0
 40
23.422649730810349
  0
CIRCLE
  5
914
  8
0
  6
VERDECKT
 62
     1
 10
-6.0048813103102381
 20
-7.514314353153817
 30
0.0
 40
23.0
  0
CIRCLE
  5
915
  8
0
  6
VERDECKT
 62
     1
 10
-6.0048813103102363
 20
-7.514314353153817
 30
0.0
 40
22.8321397411752791
  0
ENDBLK
  5
917
  8
0
  0
BLOCK
  8
0
  2
A$C3A430C00
 70
     0
 10
0.0
 20
0.0
 30
0.0
  3
A$C3A430C00
  1

  0
LINE
  5
91B
  8
0
  6
CONTINUOUS
 62
     3
 10
-22.8245735194570898
 20
15.4999999999999698
 30
-0.0000000000000034
 11
22.8245735194570898
 21
15.4999999999999698
 31
-0.0000000000000034
210
0.0
220
1.0
230
-0.0000000000000002
  0
LINE
  5
91C
  8
0
  6
CONTINUOUS
 62
     3
 10
-26.0
 20
11.0
 30
-0.0000000000000024
 11
26.0
 21
11.0
 31
-0.0000000000000024
210
0.0
220
1.0
230
-0.0000000000000002
  0
LINE
  5
91D
  8
0
  6
CONTINUOUS
 62
     3
 10
-24.3999999999999808
 20
7.4266197158419534
 30
-0.0000000000000016
 11
24.3999999999999808
 21
7.4266197158419534
 31
-0.0000000000000016
210
0.0
220
1.0
230
-0.0000000000000002
  0
LINE
  5
91E
  8
0
  6
CONTINUOUS
 62
     3
 10
-24.3999999999999808
 20
7.0999999999999961
 30
-0.0000000000000016
 11
24.3999999999999808
 21
7.0999999999999961
 31
-0.0000000000000016
210
0.0
220
1.0
230
-0.0000000000000002
  0
LINE
  5
91F
  8
0
  6
CONTINUOUS
 62
     3
 10
-25.0
 20
6.5000000000000009
 30
-0.0000000000000014
 11
25.0
 21
6.5000000000000009
 31
-0.0000000000000014
210
0.0
220
1.0
230
-0.0000000000000002
  0
LINE
  5
920
  8
0
  6
CONTINUOUS
 62
     3
 10
-25.0
 20
5.5
 30
-0.0000000000000012
 11
25.0
 21
5.5
 31
-0.0000000000000012
210
0.0
220
1.0
230
-0.0000000000000002
  0
LINE
  5
921
  8
0
  6
CONTINUOUS
 62
     3
 10
-24.3999999999999808
 20
4.9000000000000341
 30
-0.0000000000000011
 11
24.3999999999999808
 21
4.9000000000000341
 31
-0.0000000000000011
210
0.0
220
1.0
230
-0.0000000000000002
  0
LINE
  5
922
  8
0
  6
CONTINUOUS
 62
     3
 10
-24.3999999999999808
 20
3.3856406460550952
 30
-0.0000000000000008
 11
24.3999999999999808
 21
3.3856406460550952
 31
-0.0000000000000008
210
0.0
220
1.0
230
-0.0000000000000002
  0
LINE
  5
923
  8
0
  6
CONTINUOUS
 62
     3
 10
-25.1999999999999282
 20
2.0
 30
-0.0000000000000004
 11
25.1999999999999282
 21
2.0
 31
-0.0000000000000004
210
0.0
220
1.0
230
-0.0000000000000002
  0
LINE
  5
924
  8
0
  6
CONTINUOUS
 62
     3
 10
-20.0
 20
0.0
 30
0.0
 11
20.0
 21
0.0
 31
0.0
210
0.0
220
1.0
230
-0.0000000000000002
  0
ARC
  5
925
  8
0
  6
CONTINUOUS
 62
     3
 10
22.82457351945704
 20
14.4999999999999503
 30
0.0
 40
1.0000000000000271
210
0.0
220
-0.0000000000000002
230
-1.0
 50
29.9999999999988489
 51
89.9999999999969589
  0
ARC
  5
926
  8
0
  6
CONTINUOUS
 62
     3
 10
-22.82457351945704
 20
14.4999999999999503
 30
0.0
 40
1.000000000000028
210
0.0
220
-0.0000000000000002
230
-1.0
 50
90.0000000000030553
 51
150.0000000000011084
  0
LINE
  5
927
  8
0
  6
CONTINUOUS
 62
     3
 10
23.6905989232415095
 20
14.9999999999999396
 30
-0.0000000000000033
 11
26.0
 21
11.0
 31
-0.0000000000000024
210
0.0
220
1.0
230
-0.0000000000000002
  0
LINE
  5
928
  8
0
  6
CONTINUOUS
 62
     3
 10
-23.6905989232415095
 20
14.9999999999999396
 30
-0.0000000000000033
 11
-26.0
 21
11.0
 31
-0.0000000000000024
210
0.0
220
1.0
230
-0.0000000000000002
  0
ARC
  5
929
  8
0
  6
CONTINUOUS
 62
     3
 10
23.3321397411753004
 20
10.4999999999999805
 30
0.0
 40
0.5000000000000178
210
0.0
220
-0.0000000000000002
230
-1.0
 50
90.0
 51
208.0000000000003979
  0
ARC
  5
92A
  8
0
  6
CONTINUOUS
 62
     3
 10
-23.3321397411753004
 20
10.4999999999999805
 30
0.0
 40
0.5000000000000173
210
0.0
220
-0.0000000000000002
230
-1.0
 50
331.9999999999997158
 51
89.9999999999999858
  0
LINE
  5
92B
  8
0
  6
CONTINUOUS
 62
     3
 10
22.8906659447458196
 20
10.2652642186070295
 30
-0.0000000000000023
 11
24.3999999999999808
 21
7.4266197158419534
 31
-0.0000000000000016
210
0.0
220
1.0
230
-0.0000000000000002
  0
LINE
  5
92C
  8
0
  6
CONTINUOUS
 62
     3
 10
-22.8906659447458196
 20
10.2652642186070295
 30
-0.0000000000000023
 11
-24.3999999999999808
 21
7.4266197158419534
 31
-0.0000000000000016
210
0.0
220
1.0
230
-0.0000000000000002
  0
LINE
  5
92D
  8
0
  6
CONTINUOUS
 62
     3
 10
24.3999999999999808
 20
7.4266197158419534
 30
-0.0000000000000016
 11
24.3999999999999808
 21
7.0999999999999961
 31
-0.0000000000000016
210
0.0
220
1.0
230
-0.0000000000000002
  0
LINE
  5
92E
  8
0
  6
CONTINUOUS
 62
     3
 10
-24.3999999999999808
 20
7.4266197158419534
 30
-0.0000000000000016
 11
-24.3999999999999808
 21
7.0999999999999961
 31
-0.0000000000000016
210
0.0
220
1.0
230
-0.0000000000000002
  0
LINE
  5
92F
  8
0
  6
CONTINUOUS
 62
     3
 10
24.3999999999999808
 20
7.0999999999999961
 30
-0.0000000000000016
 11
25.0
 21
6.5000000000000009
 31
-0.0000000000000014
210
0.0
220
1.0
230
-0.0000000000000002
  0
LINE
  5
930
  8
0
  6
CONTINUOUS
 62
     3
 10
-24.3999999999999808
 20
7.0999999999999961
 30
-0.0000000000000016
 11
-25.0
 21
6.5000000000000009
 31
-0.0000000000000014
210
0.0
220
1.0
230
-0.0000000000000002
  0
LINE
  5
931
  8
0
  6
CONTINUOUS
 62
     3
 10
25.0
 20
6.5000000000000009
 30
-0.0000000000000014
 11
25.0
 21
5.5
 31
-0.0000000000000012
210
0.0
220
1.0
230
-0.0000000000000002
  0
LINE
  5
932
  8
0
  6
CONTINUOUS
 62
     3
 10
-25.0
 20
6.5000000000000009
 30
-0.0000000000000014
 11
-25.0
 21
5.5
 31
-0.0000000000000012
210
0.0
220
1.0
230
-0.0000000000000002
  0
LINE
  5
933
  8
0
  6
CONTINUOUS
 62
     3
 10
-24.3999999999999808
 20
4.9000000000000341
 30
-0.0000000000000011
 11
-25.0
 21
5.5
 31
-0.0000000000000012
210
0.0
220
1.0
230
-0.0000000000000002
  0
LINE
  5
934
  8
0
  6
CONTINUOUS
 62
     3
 10
24.3999999999999808
 20
4.9000000000000341
 30
-0.0000000000000011
 11
25.0
 21
5.5
 31
-0.0000000000000012
210
0.0
220
1.0
230
-0.0000000000000002
  0
LINE
  5
935
  8
0
  6
CONTINUOUS
 62
     3
 10
24.3999999999999808
 20
4.9000000000000341
 30
-0.0000000000000011
 11
24.3999999999999808
 21
3.3856406460550952
 31
-0.0000000000000008
210
0.0
220
1.0
230
-0.0000000000000002
  0
LINE
  5
936
  8
0
  6
CONTINUOUS
 62
     3
 10
-24.3999999999999808
 20
4.9000000000000341
 30
-0.0000000000000011
 11
-24.3999999999999808
 21
3.3856406460550952
 31
-0.0000000000000008
210
0.0
220
1.0
230
-0.0000000000000002
  0
LINE
  5
937
  8
0
  6
CONTINUOUS
 62
     3
 10
24.3999999999999808
 20
3.3856406460550952
 30
-0.0000000000000008
 11
25.1999999999999282
 21
2.0
 31
-0.0000000000000004
210
0.0
220
1.0
230
-0.0000000000000002
  0
LINE
  5
938
  8
0
  6
CONTINUOUS
 62
     3
 10
-24.3999999999999808
 20
3.3856406460550952
 30
-0.0000000000000008
 11
-25.1999999999999282
 21
2.0
 31
-0.0000000000000004
210
0.0
220
1.0
230
-0.0000000000000002
  0
ARC
  5
939
  8
0
  6
CONTINUOUS
 62
     3
 10
20.0000000000000604
 20
2.9999999999999711
 30
0.0
 40
2.9999999999999711
210
0.0
220
-0.0000000000000002
230
-1.0
 50
270.0
 51
340.5287793655107862
  0
ARC
  5
93A
  8
0
  6
CONTINUOUS
 62
     3
 10
-20.0000000000000604
 20
2.999999999999972
 30
0.0
 40
2.9999999999999711
210
0.0
220
-0.0000000000000002
230
-1.0
 50
199.4712206344902938
 51
270.00000000000108
  0
LINE
  5
93B
  8
0
  6
VERDECKT
 62
     1
 10
-18.25
 20
1.010434814224638
 30
-0.0000000000000002
 11
18.25
 21
1.010434814224638
 31
-0.0000000000000002
210
0.0
220
1.0
230
-0.0000000000000002
  0
LINE
  5
93C
  8
0
  6
VERDECKT
 62
     1
 10
-21.0
 20
9.9999999999999734
 30
-0.0000000000000022
 11
21.0
 21
9.9999999999999734
 31
-0.0000000000000022
210
0.0
220
1.0
230
-0.0000000000000002
  0
LINE
  5
93D
  8
0
  6
VERDECKT
 62
     1
 10
-23.422649730810349
 20
2.9999999999999711
 30
-0.0000000000000007
 11
23.422649730810349
 21
2.9999999999999711
 31
-0.0000000000000007
210
0.0
220
1.0
230
-0.0000000000000002
  0
LINE
  5
93E
  8
0
  6
VERDECKT
 62
     1
 10
18.25
 20
1.010434814224638
 30
-0.0000000000000002
 11
18.25
 21
0.0
 31
0.0
210
0.0
220
1.0
230
-0.0000000000000002
  0
LINE
  5
93F
  8
0
  6
VERDECKT
 62
     1
 10
-18.25
 20
1.010434814224638
 30
-0.0000000000000002
 11
-18.25
 21
0.0
 31
0.0
210
0.0
220
1.0
230
-0.0000000000000002
  0
ARC
  5
940
  8
0
  6
VERDECKT
 62
     1
 10
18.0
 20
3.9999999999999871
 30
0.0
 40
3.0
210
0.0
220
-0.0000000000000002
230
-1.0
 50
274.7801918471992053
 51
359.9999999999997158
  0
ARC
  5
941
  8
0
  6
VERDECKT
 62
     1
 10
-18.0
 20
3.9999999999999871
 30
0.0
 40
3.0
210
0.0
220
-0.0000000000000002
230
-1.0
 50
180.000000000000199
 51
265.2198081528007947
  0
LINE
  5
942
  8
0
  6
VERDECKT
 62
     1
 10
21.0
 20
9.9999999999999734
 30
-0.0000000000000022
 11
21.0
 21
3.999999999999972
 31
-0.0000000000000009
210
0.0
220
1.0
230
-0.0000000000000002
  0
LINE
  5
943
  8
0
  6
VERDECKT
 62
     1
 10
-21.0
 20
9.9999999999999734
 30
-0.0000000000000022
 11
-21.0
 21
3.999999999999972
 31
-0.0000000000000009
210
0.0
220
1.0
230
-0.0000000000000002
  0
LINE
  5
944
  8
0
  6
VERDECKT
 62
     1
 10
-21.0
 20
9.9999999999999734
 30
-0.0000000000000022
 11
-21.96979839389655
 21
15.4999999999999396
 31
-0.0000000000000034
210
0.0
220
1.0
230
-0.0000000000000002
  0
LINE
  5
945
  8
0
  6
VERDECKT
 62
     1
 10
21.0
 20
9.9999999999999734
 30
-0.0000000000000022
 11
21.96979839389655
 21
15.4999999999999396
 31
-0.0000000000000034
210
0.0
220
1.0
230
-0.0000000000000002
  0
LINE
  5
946
  8
0
  6
VERDECKT
 62
     1
 10
23.422649730810349
 20
2.9999999999999711
 30
-0.0000000000000007
 11
24.0
 21
2.0
 31
-0.0000000000000004
210
0.0
220
1.0
230
-0.0000000000000002
  0
LINE
  5
947
  8
0
  6
VERDECKT
 62
     1
 10
-23.422649730810349
 20
2.9999999999999711
 30
-0.0000000000000007
 11
-24.0
 21
2.0
 31
-0.0000000000000004
210
0.0
220
1.0
230
-0.0000000000000002
  0
ARC
  5
948
  8
0
  6
VERDECKT
 62
     1
 10
20.0000000000000888
 20
2.9999999999999649
 30
0.0
 40
2.9999999999999361
210
0.0
220
-0.0000000000000002
230
-1.0
 50
340.5287793655095925
 51
0.0000000000006475
  0
ARC
  5
949
  8
0
  6
VERDECKT
 62
     1
 10
-20.0000000000000995
 20
2.999999999999964
 30
0.0
 40
2.9999999999999321
210
0.0
220
-0.0000000000000002
230
-1.0
 50
179.9999999999992895
 51
199.4712206344904075
  0
ENDBLK
  5
94B
  8
0
  0
ENDSEC
  0
SECTION
  2
ENTITIES
  0
INSERT
  5
918
  8
0
  2
A$C004C6C19
 10
6.0048813103102381
 20
7.5143143531538206
 30
0.0
  0
INSERT
  5
94C
  8
0
  2
A$C3A430C00
 10
0.0000000000000036
 20
44.1370703717156019
 30
0.0
  0
VIEWPORT
  5
6A0
 67
     1
  8
0
 10
5.9697512309738237
 20
3.7052078447365289
 30
0.0
 40
14.6037242554431508
 41
7.7570179897944076
 68
     1
 69
     1
1001
ACAD
1000
MVIEW
1002
{
1070
    16
1010
0.0
1020
0.0
1030
0.0
1010
0.0
1020
0.0
1030
1.0
1040
0.0
1040
7.7570179897944076
1040
5.9697512309738237
1040
3.7052078447365289
1040
50.0
1040
0.0
1040
0.0
1070
     0
1070
  1500
1070
     1
1070
     1
1070
     0
1070
     0
1070
     0
1070
     0
1040
0.0
1040
0.0
1040
0.0
1040
10.0
1040
10.0
1040
10.0
1040
10.0
1070
     0
1002
{
1002
}
1002
}
  0
ENDSEC
  0
EOF
