  0
SECTION
  2
HEADER
  9
$ACADVER
  1
AC1009
  9
$INSBASE
 10
0.0
 20
0.0
 30
0.0
  9
$EXTMIN
 10
227.817389251397401
 20
-368.7012624815042159
 30
-39.8345731184525533
  9
$EXTMAX
 10
360.8173892513975147
 20
51.6248175684726718
 30
-39.8345731184525107
  9
$LIMMIN
 10
0.0
 20
0.0
  9
$LIMMAX
 10
210.0
 20
297.0
  9
$ORTHOMODE
 70
     1
  9
$REGENMODE
 70
     1
  9
$FILLMODE
 70
     1
  9
$QTEXTMODE
 70
     0
  9
$MIRRTEXT
 70
     1
  9
$DRAGMODE
 70
     2
  9
$LTSCALE
 40
10.0
  9
$OSMODE
 70
  2495
  9
$ATTMODE
 70
     1
  9
$TEXTSIZE
 40
3.5
  9
$TRACEWID
 40
0.5
  9
$TEXTSTYLE
  7
STANDARD
  9
$CLAYER
  8
STEMPEL
  9
$CELTYPE
  6
BYLAYER
  9
$CECOLOR
 62
   256
  9
$DIMSCALE
 40
1.0
  9
$DIMASZ
 40
3.5
  9
$DIMEXO
 40
1.0
  9
$DIMDLI
 40
7.0
  9
$DIMRND
 40
0.0
  9
$DIMDLE
 40
0.0
  9
$DIMEXE
 40
1.0
  9
$DIMTP
 40
0.0
  9
$DIMTM
 40
0.0
  9
$DIMTXT
 40
3.5
  9
$DIMCEN
 40
1.5
  9
$DIMTSZ
 40
0.0
  9
$DIMTOL
 70
     0
  9
$DIMLIM
 70
     0
  9
$DIMTIH
 70
     0
  9
$DIMTOH
 70
     0
  9
$DIMSE1
 70
     0
  9
$DIMSE2
 70
     0
  9
$DIMTAD
 70
     1
  9
$DIMZIN
 70
     8
  9
$DIMBLK
  1

  9
$DIMASO
 70
     1
  9
$DIMSHO
 70
     0
  9
$DIMPOST
  1

  9
$DIMAPOST
  1

  9
$DIMALT
 70
     0
  9
$DIMALTD
 70
     2
  9
$DIMALTF
 40
25.3999999999999986
  9
$DIMLFAC
 40
2.0
  9
$DIMTOFL
 70
     1
  9
$DIMTVP
 40
0.0
  9
$DIMTIX
 70
     0
  9
$DIMSOXD
 70
     0
  9
$DIMSAH
 70
     0
  9
$DIMBLK1
  1

  9
$DIMBLK2
  1

  9
$DIMSTYLE
  2
STANDARD
  9
$DIMCLRD
 70
     0
  9
$DIMCLRE
 70
     0
  9
$DIMCLRT
 70
     1
  9
$DIMTFAC
 40
0.5
  9
$DIMGAP
 40
1.5
  9
$LUNITS
 70
     2
  9
$LUPREC
 70
     2
  9
$SKETCHINC
 40
1.0
  9
$FILLETRAD
 40
15.0
  9
$AUNITS
 70
     0
  9
$AUPREC
 70
     0
  9
$MENU
  1
ACAD
  9
$ELEVATION
 40
0.0
  9
$PELEVATION
 40
0.0
  9
$THICKNESS
 40
0.0
  9
$LIMCHECK
 70
     0
  9
$BLIPMODE
 70
     0
  9
$CHAMFERA
 40
2.0
  9
$CHAMFERB
 40
2.0
  9
$SKPOLY
 70
     0
  9
$TDCREATE
 40
2455397.8646990740671754
  9
$TDUPDATE
 40
2459627.4278819439932704
  9
$TDINDWG
 40
0.2553628704
  9
$TDUSRTIMER
 40
0.2553628704
  9
$USRTIMER
 70
     1
  9
$ANGBASE
 50
0.0
  9
$ANGDIR
 70
     0
  9
$PDMODE
 70
     0
  9
$PDSIZE
 40
0.0
  9
$PLINEWID
 40
0.0
  9
$COORDS
 70
     1
  9
$SPLFRAME
 70
     0
  9
$SPLINETYPE
 70
     6
  9
$SPLINESEGS
 70
     8
  9
$ATTDIA
 70
     1
  9
$ATTREQ
 70
     1
  9
$HANDLING
 70
     1
  9
$HANDSEED
  5
2235
  9
$SURFTAB1
 70
     6
  9
$SURFTAB2
 70
     6
  9
$SURFTYPE
 70
     6
  9
$SURFU
 70
     6
  9
$SURFV
 70
     6
  9
$UCSNAME
  2

  9
$UCSORG
 10
0.0
 20
0.0
 30
0.0
  9
$UCSXDIR
 10
1.0
 20
0.0
 30
0.0
  9
$UCSYDIR
 10
0.0
 20
1.0
 30
0.0
  9
$PUCSNAME
  2

  9
$PUCSORG
 10
0.0
 20
0.0
 30
0.0
  9
$PUCSXDIR
 10
1.0
 20
0.0
 30
0.0
  9
$PUCSYDIR
 10
0.0
 20
1.0
 30
0.0
  9
$USERI1
 70
     0
  9
$USERI2
 70
     0
  9
$USERI3
 70
     0
  9
$USERI4
 70
     0
  9
$USERI5
 70
     0
  9
$USERR1
 40
0.0
  9
$USERR2
 40
0.0
  9
$USERR3
 40
0.0
  9
$USERR4
 40
0.0
  9
$USERR5
 40
0.0
  9
$WORLDVIEW
 70
     1
  9
$SHADEDGE
 70
     3
  9
$SHADEDIF
 70
    70
  9
$TILEMODE
 70
     1
  9
$MAXACTVP
 70
    16
  9
$PLIMCHECK
 70
     0
  9
$PEXTMIN
 10
1.0000000000000000E+20
 20
1.0000000000000000E+20
 30
1.0000000000000000E+20
  9
$PEXTMAX
 10
-1.0000000000000000E+20
 20
-1.0000000000000000E+20
 30
-1.0000000000000000E+20
  9
$PLIMMIN
 10
-0.0674642631973264
 20
-0.0511601294987543
  9
$PLIMMAX
 10
209.9325357368026914
 20
296.9488398705012742
  9
$UNITMODE
 70
     0
  9
$VISRETAIN
 70
     0
  9
$PLINEGEN
 70
     0
  9
$PSLTSCALE
 70
     0
  0
ENDSEC
  0
SECTION
  2
TABLES
  0
TABLE
  2
VPORT
 70
     1
  0
VPORT
  2
*ACTIVE
 70
     0
 10
0.0
 20
0.0
 11
1.0
 21
1.0
 12
2.0939205256224218
 22
-153.1635520997548099
 13
0.0
 23
0.0
 14
1.0
 24
1.0
 15
10.0
 25
10.0
 16
-0.0000000000002274
 26
0.0
 36
953.8981580812779839
 17
292.2234687257749783
 27
-5.3746703567608733
 37
-19.9172865592262909
 40
423.3319876546249816
 41
1.7852028639618129
 42
50.0
 43
0.0
 44
0.0
 50
0.0
 51
0.0
 71
     0
 72
  1500
 73
     1
 74
     0
 75
     0
 76
     0
 77
     0
 78
     0
  0
ENDTAB
  0
TABLE
  2
LTYPE
 70
     6
  0
LTYPE
  2
CONTINUOUS
 70
     0
  3
Solid line
 72
    65
 73
     0
 40
0.0
  0
LTYPE
  2
PHANTOM2
 70
     0
  3
Phantom (.5x) ___ _ _ ___ _ _ ___ _ _ ___ _ _
 72
    65
 73
     6
 40
1.25
 49
0.625
 49
-0.125
 49
0.125
 49
-0.125
 49
0.125
 49
-0.125
  0
LTYPE
  2
VERDECKT
 70
     0
  3
Verdeckt __ __ __ __ __ __ __ __ __ __ __ __ __
 72
    65
 73
     2
 40
0.375
 49
0.25
 49
-0.125
  0
ENDTAB
  0
TABLE
  2
LAYER
 70
    15
  0
LAYER
  2
0
 70
     0
 62
     7
  6
CONTINUOUS
  0
LAYER
  2
VOLL
 70
     0
 62
     1
  6
CONTINUOUS
  0
LAYER
  2
STEMPEL
 70
     0
 62
     3
  6
CONTINUOUS
  0
LAYER
  2
DEFPOINTS
 70
     0
 62
     7
  6
CONTINUOUS
  0
LAYER
  2
ADSK_ASSOC_ENTITY_BACKUPS
 70
     1
 62
    -7
  6
CONTINUOUS
  0
ENDTAB
  0
TABLE
  2
STYLE
 70
     4
  0
STYLE
  2
STANDARD
 70
     0
 40
0.0
 41
0.8
 50
0.0
 71
     0
 42
3.5
  3
simplex.shx
  4

  0
STYLE
  2
GREEKS
 70
     0
 40
0.0
 41
0.8
 50
0.0
 71
     0
 42
2.5
  3
SIMPLEX.shx
  4

  0
ENDTAB
  0
TABLE
  2
VIEW
 70
     1
  0
ENDTAB
  0
TABLE
  2
UCS
 70
     0
  0
ENDTAB
  0
TABLE
  2
APPID
 70
    24
  0
APPID
  2
ACAD
 70
     0
  0
APPID
  2
ACAD_NAV_VCDISPLAY
 70
     0
  0
APPID
  2
ACAD_MLEADERVER
 70
     0
  0
APPID
  2
ACAD_EXEMPT_FROM_CAD_STANDARDS
 70
     0
  0
APPID
  2
ACAD_PSEXT
 70
     0
  0
APPID
  2
ACAECLAYERSTANDARD
 70
     0
  0
APPID
  2
ACAUTHENVIRON
 70
     0
  0
APPID
  2
ACCMTRANSPARENCY
 70
     0
  0
APPID
  2
ACAD_STEPID
 70
     0
  0
APPID
  2
ACSYNERGY
 70
     0
  0
APPID
  2
SYNERGY_BODY_TBR_ID
 70
     0
  0
APPID
  2
ACAD_VIEW_EDGE_ID
 70
     0
  0
APPID
  2
ACSYNERGYSKETCH
 70
     0
  0
APPID
  2
ACAD_MODELDOC_XFORM
 70
     0
  0
APPID
  2
ACAD_DSTYLE_DIMJAG
 70
     0
  0
APPID
  2
ACAD_DSTYLE_DIMTALN
 70
     0
  0
APPID
  2
ACADANNOMONITORALERTICONDI
 70
     0
  0
APPID
  2
ACAD_DIMASSOC_CALC_DIMLFAC
 70
     0
  0
APPID
  2
ACAD_DIMASSOC_DIMLFAC
 70
     0
  0
APPID
  2
ACAD_DIMASSOC_OVERRIDDEN_D
 70
     0
  0
APPID
  2
ACAD_DSTYLE_DIMRADIAL_EXTENSION
 70
     0
  0
APPID
  2
GRADIENTCOLOR1ACI
 70
     0
  0
APPID
  2
GRADIENTCOLOR2ACI
 70
     0
  0
APPID
  2
AcDbAttr
 70
     0
  0
ENDTAB
  0
TABLE
  2
DIMSTYLE
 70
     2
  0
DIMSTYLE
  2
STANDARD
 70
     0
  3

  4

  5

  6

  7

 40
1.0
 41
0.18
 42
0.0625
 43
0.38
 44
0.18
 45
0.0
 46
0.0
 47
0.0
 48
0.0
140
0.18
141
0.09
142
0.0
143
25.3999999999999986
144
1.0
145
0.0
146
1.0
147
0.09
 71
     0
 72
     0
 73
     1
 74
     1
 75
     0
 76
     0
 77
     0
 78
     0
170
     0
171
     2
172
     0
173
     0
174
     0
175
     0
176
     0
177
     0
178
     0
  0
ENDTAB
  0
ENDSEC
  0
SECTION
  2
BLOCKS
  0
BLOCK
  8
0
  2
$MODEL_SPACE
 70
     0
 10
0.0
 20
0.0
 30
0.0
  3
$MODEL_SPACE
  1

  0
ENDBLK
  5
36
  8
0
  0
BLOCK
 67
     1
  8
0
  2
$PAPER_SPACE
 70
     0
 10
0.0
 20
0.0
 30
0.0
  3
$PAPER_SPACE
  1

  0
ENDBLK
  5
34
 67
     1
  8
0
  0
BLOCK
  8
0
  2
*S2
 70
     1
 10
0.0
 20
0.0
 30
0.0
  3
*S2
  1

  0
ENDBLK
  5
B3A
  8
0
  0
BLOCK
  8
0
  2
A$CF4CCD6C1
 70
     0
 10
0.0
 20
0.0
 30
0.0
  3
A$CF4CCD6C1
  1

  0
CIRCLE
  5
21B6
  8
0
 10
129.7973054191288895
 20
97.1939330370279606
 30
-0.0000000000000568
 40
47.9501360376889281
  0
CIRCLE
  5
21B7
  8
0
 10
129.7973054191290032
 20
97.193933037027989
 30
-0.0000000000000284
 40
48.9999999999999929
  0
CIRCLE
  5
21B8
  8
0
 10
129.7973054191288043
 20
97.1939330370279464
 30
-0.0000000000000284
 40
57.6999999999999318
  0
CIRCLE
  5
21B9
  8
0
 10
129.7973054191288043
 20
97.1939330370279464
 30
-0.0000000000000284
 40
66.5
  0
CIRCLE
  5
21BA
  8
0
  6
VERDECKT
 62
     1
 10
129.7973054191288895
 20
97.1939330370279606
 30
-0.0000000000000568
 40
49.9577757127756286
  0
CIRCLE
  5
21BB
  8
0
  6
VERDECKT
 62
     1
 10
129.7973054191290032
 20
97.193933037027989
 30
-0.0000000000000284
 40
50.9999999999999929
  0
CIRCLE
  5
21BC
  8
0
  6
VERDECKT
 62
     1
 10
129.7973054191290032
 20
97.193933037027989
 30
-0.0000000000000284
 40
59.3192208867888127
  0
ENDBLK
  5
21BE
  8
0
  0
BLOCK
  8
0
  2
A$C2A48E4D8
 70
     0
 10
0.0
 20
0.0
 30
0.0
  3
A$C2A48E4D8
  1

  0
LINE
  5
21C2
  8
0
 10
79.8395297063532325
 20
-285.0350682550882198
 30
0.0000000000000633
 11
179.7550811319044897
 21
-285.0350682550882198
 31
0.0000000000000633
210
0.0
220
1.0
230
-0.0000000000000002
  0
LINE
  5
21C3
  8
0
 10
70.4780845323401763
 20
-151.2090033980099975
 30
0.0000000000000336
 11
189.116526305917688
 21
-151.2090033980099122
 31
0.0000000000000336
210
0.0
220
1.0
230
-0.0000000000000002
  0
ARC
  5
21C4
  8
0
 10
-88.3973054191256722
 20
-272.7032450889840902
 30
0.0
 40
9.5999999999965802
210
0.0
220
-0.0000000000000002
230
-1.0
 50
355.0000000000002842
 51
0.0000000000017048
  0
ARC
  5
21C5
  8
0
 10
-171.1973054191466872
 20
-272.7032450889843744
 30
0.0
 40
9.5999999999823444
210
0.0
220
-0.0000000000000002
230
-1.0
 50
179.9999999999961915
 51
185.0000000000052864
  0
LINE
  5
21C6
  8
0
 10
79.8395297063532325
 20
-285.0350682550882198
 30
0.0000000000000633
 11
78.8338363174481032
 21
-273.5399402193613128
 31
0.0000000000000607
210
0.0
220
1.0
230
-0.0000000000000002
  0
LINE
  5
21C7
  8
0
 10
179.7550811319044897
 20
-285.0350682550882198
 30
0.0000000000000633
 11
180.7607745208096048
 21
-273.5399402193613128
 31
0.0000000000000607
210
0.0
220
1.0
230
-0.0000000000000002
  0
LINE
  5
21C8
  8
0
 10
180.7973054191288895
 20
-165.2786811199648014
 30
0.0000000000000367
 11
180.7973054191290885
 21
-272.7032450889836923
 31
0.0000000000000606
210
0.0
220
1.0
230
-0.0000000000000002
  0
LINE
  5
21C9
  8
0
 10
78.7973054191289606
 20
-165.2786811199648866
 30
0.0000000000000367
 11
78.7973054191290743
 21
-272.703245088983806
 31
0.0000000000000606
210
0.0
220
1.0
230
-0.0000000000000002
  0
LINE
  5
21CA
  8
0
 10
77.274188966284143
 20
-160.5829405482774064
 30
0.0000000000000357
 11
70.4780845323402048
 21
-151.2090033980099975
 31
0.0000000000000336
210
0.0
220
1.0
230
-0.0000000000000002
  0
LINE
  5
21CB
  8
0
 10
182.3204218719737923
 20
-160.5829405482772927
 30
0.0000000000000357
 11
189.116526305917688
 21
-151.2090033980099122
 31
0.0000000000000336
210
0.0
220
1.0
230
-0.0000000000000002
  0
ARC
  5
21CC
  8
0
 10
-188.7973054191294864
 20
-165.2786811199650003
 30
0.0
 40
8.0000000000005969
210
0.0
220
-0.0000000000000002
230
-1.0
 50
0.0000000000012213
 51
35.942111871380753
  0
ARC
  5
21CD
  8
0
 10
-70.7973054191283637
 20
-165.278681119965114
 30
0.0
 40
8.0000000000006057
210
0.0
220
-0.0000000000000002
230
-1.0
 50
144.0578881286193109
 51
179.9999999999988063
  0
LINE
  5
21CE
  8
0
 10
187.4973054191289066
 20
-150.0350682550879924
 30
0.0000000000000333
 11
189.1165263059178017
 21
-151.2090033980097985
 31
0.0000000000000336
210
0.0
220
1.0
230
-0.0000000000000002
  0
LINE
  5
21CF
  8
0
 10
72.0973054191290146
 20
-150.0350682550881061
 30
0.0000000000000333
 11
70.4780845323401479
 21
-151.2090033980099975
 31
0.0000000000000336
210
0.0
220
1.0
230
-0.0000000000000002
  0
LINE
  5
21D0
  8
0
 10
63.2973054191288611
 20
-150.0350682550881061
 30
0.0000000000000333
 11
196.2973054191288043
 21
-150.0350682550881061
 31
0.0000000000000333
210
0.0
220
1.0
230
-0.0000000000000002
  0
LINE
  5
21D1
  8
0
 10
63.2973054191288611
 20
-50.0350682550881771
 30
0.0000000000000111
 11
196.2973054191288043
 21
-50.0350682550881771
 31
0.0000000000000111
210
0.0
220
1.0
230
-0.0000000000000002
  0
LINE
  5
21D2
  8
0
 10
196.2973054191288043
 20
-50.0350682550881771
 30
0.0000000000000111
 11
196.2973054191288043
 21
-150.0350682550881061
 31
0.0000000000000333
210
0.0
220
1.0
230
-0.0000000000000002
  0
LINE
  5
21D3
  8
0
 10
63.2973054191288611
 20
-50.0350682550881771
 30
0.0000000000000111
 11
63.2973054191288611
 21
-150.0350682550881061
 31
0.0000000000000333
210
0.0
220
1.0
230
-0.0000000000000002
  0
LINE
  5
21D4
  8
0
  6
VERDECKT
 62
     1
 10
81.8471693814399259
 20
-285.0350682550882198
 30
0.0000000000000633
 11
80.835358438211415
 21
-273.4700162534796846
 31
0.0000000000000607
210
0.0
220
1.0
230
-0.0000000000000002
  0
LINE
  5
21D5
  8
0
  6
VERDECKT
 62
     1
 10
177.7474414568177963
 20
-285.0350682550882198
 30
0.0000000000000633
 11
178.7592524000463072
 21
-273.4700162534796846
 31
0.0000000000000607
210
0.0
220
1.0
230
-0.0000000000000002
  0
ARC
  5
21D6
  8
0
  6
VERDECKT
 62
     1
 10
-90.7973054191287758
 20
-272.598458826003025
 30
0.0
 40
9.9999999999999112
210
0.0
220
-0.0000000000000002
230
-1.0
 50
354.9999999999994884
 51
0.0
  0
ARC
  5
21D7
  8
0
  6
VERDECKT
 62
     1
 10
-168.7973054191438109
 20
-272.5984588260037071
 30
0.0
 40
9.9999999999850218
210
0.0
220
-0.0000000000000002
230
-1.0
 50
179.9999999999963904
 51
185.0000000000042917
  0
ARC
  5
21D8
  8
0
  6
VERDECKT
 62
     1
 10
-188.7973054191284916
 20
-165.2786811199646024
 30
0.0
 40
9.9999999999995453
210
0.0
220
-0.0000000000000002
230
-1.0
 50
359.9999999999988063
 51
35.9421118713830126
  0
ARC
  5
21D9
  8
0
  6
VERDECKT
 62
     1
 10
-70.7973054191294864
 20
-165.2786811199646877
 30
0.0
 40
9.9999999999994564
210
0.0
220
-0.0000000000000002
230
-1.0
 50
144.0578881286168951
 51
180.0000000000013074
  0
LINE
  5
21DA
  8
0
  6
VERDECKT
 62
     1
 10
78.8934098530728818
 20
-159.4090054053556003
 30
0.0000000000000354
 11
72.097305419129043
 21
-150.0350682550881913
 31
0.0000000000000333
210
0.0
220
1.0
230
-0.0000000000000002
  0
LINE
  5
21DB
  8
0
  6
VERDECKT
 62
     1
 10
180.7012009851850962
 20
-159.4090054053554866
 30
0.0000000000000354
 11
187.4973054191289066
 21
-150.0350682550879924
 31
0.0000000000000333
210
0.0
220
1.0
230
-0.0000000000000002
  0
LINE
  5
21DC
  8
0
  6
VERDECKT
 62
     1
 10
178.7973054191288895
 20
-165.2786811199648014
 30
0.0000000000000367
 11
178.7973054191290885
 21
-272.598458826003025
 31
0.0000000000000605
210
0.0
220
1.0
230
-0.0000000000000002
  0
LINE
  5
21DD
  8
0
  6
VERDECKT
 62
     1
 10
80.7973054191289606
 20
-165.2786811199648866
 30
0.0000000000000367
 11
80.7973054191290743
 21
-272.598458826003025
 31
0.0000000000000605
210
0.0
220
1.0
230
-0.0000000000000002
  0
LINE
  5
21DE
  8
0
  6
VERDECKT
 62
     1
 10
187.4973054191287929
 20
-50.0350682550881203
 30
0.0000000000000111
 11
187.4973054191287929
 21
-150.0350682550881061
 31
0.0000000000000333
210
0.0
220
1.0
230
-0.0000000000000002
  0
LINE
  5
21DF
  8
0
  6
VERDECKT
 62
     1
 10
72.0973054191289293
 20
-50.0350682550881203
 30
0.0000000000000111
 11
72.0973054191289293
 21
-150.0350682550881061
 31
0.0000000000000333
210
0.0
220
1.0
230
-0.0000000000000002
  0
ENDBLK
  5
21E1
  8
0
  0
ENDSEC
  0
SECTION
  2
ENTITIES
  0
TEXT
  5
8F
  8
VOLL
 10
78.076754716981128
 20
31.025947764705851
 30
0.0
 40
1.8
  1

  7
GREEKS
  0
INSERT
  5
B3C
  8
ADSK_ASSOC_ENTITY_BACKUPS
  2
*S2
 10
0.0
 20
0.0
 30
0.0
  0
INSERT
  5
21BF
  8
STEMPEL
  2
A$CF4CCD6C1
 10
164.5200838322685968
 20
-399.3951955185320912
 30
-39.8345731184524823
  0
INSERT
  5
21E2
  8
STEMPEL
  2
A$C2A48E4D8
 10
164.5200838322685968
 20
101.6598858235607992
 30
-39.8345731184525675
  0
VIEWPORT
  5
928
 67
     1
  8
0
 10
104.9325357368027056
 20
148.4488398705011889
 30
0.0
 40
533.9969448798291296
 41
299.1239570917758783
 68
     1
 69
     1
1001
ACAD
1000
MVIEW
1002
{
1070
    16
1010
0.0
1020
0.0
1030
0.0
1010
0.0
1020
0.0
1030
1.0
1040
0.0
1040
299.1239570917758783
1040
104.9325357368027056
1040
148.4488398705011889
1040
50.0
1040
0.0
1040
0.0
1070
     0
1070
  1500
1070
     1
1070
     1
1070
     0
1070
     0
1070
     0
1070
     0
1040
0.0
1040
0.0
1040
0.0
1040
10.0
1040
10.0
1040
10.0
1040
10.0
1070
     0
1002
{
1002
}
1002
}
  0
ENDSEC
  0
EOF
