  0
SECTION
  2
HEADER
  9
$ACADVER
  1
AC1009
  9
$INSBASE
 10
0.0
 20
0.0
 30
0.0
  9
$EXTMIN
 10
233.7189420034557088
 20
-358.4149896978884158
 30
-23.4728835040724491
  9
$EXTMAX
 10
375.0189420034553791
 20
51.4486444090605204
 30
-23.4728835040723602
  9
$LIMMIN
 10
0.0
 20
0.0
  9
$LIMMAX
 10
210.0
 20
297.0
  9
$ORTHOMODE
 70
     1
  9
$REGENMODE
 70
     1
  9
$FILLMODE
 70
     1
  9
$QTEXTMODE
 70
     0
  9
$MIRRTEXT
 70
     1
  9
$DRAGMODE
 70
     2
  9
$LTSCALE
 40
10.0
  9
$OSMODE
 70
  2495
  9
$ATTMODE
 70
     1
  9
$TEXTSIZE
 40
3.5
  9
$TRACEWID
 40
0.5
  9
$TEXTSTYLE
  7
STANDARD
  9
$CLAYER
  8
STEMPEL
  9
$CELTYPE
  6
BYLAYER
  9
$CECOLOR
 62
   256
  9
$DIMSCALE
 40
1.0
  9
$DIMASZ
 40
3.5
  9
$DIMEXO
 40
1.0
  9
$DIMDLI
 40
7.0
  9
$DIMRND
 40
0.0
  9
$DIMDLE
 40
0.0
  9
$DIMEXE
 40
1.0
  9
$DIMTP
 40
0.0
  9
$DIMTM
 40
0.0
  9
$DIMTXT
 40
3.5
  9
$DIMCEN
 40
1.5
  9
$DIMTSZ
 40
0.0
  9
$DIMTOL
 70
     0
  9
$DIMLIM
 70
     0
  9
$DIMTIH
 70
     0
  9
$DIMTOH
 70
     0
  9
$DIMSE1
 70
     0
  9
$DIMSE2
 70
     0
  9
$DIMTAD
 70
     1
  9
$DIMZIN
 70
     8
  9
$DIMBLK
  1

  9
$DIMASO
 70
     1
  9
$DIMSHO
 70
     0
  9
$DIMPOST
  1

  9
$DIMAPOST
  1

  9
$DIMALT
 70
     0
  9
$DIMALTD
 70
     2
  9
$DIMALTF
 40
25.3999999999999986
  9
$DIMLFAC
 40
2.0
  9
$DIMTOFL
 70
     1
  9
$DIMTVP
 40
0.0
  9
$DIMTIX
 70
     0
  9
$DIMSOXD
 70
     0
  9
$DIMSAH
 70
     0
  9
$DIMBLK1
  1

  9
$DIMBLK2
  1

  9
$DIMSTYLE
  2
STANDARD
  9
$DIMCLRD
 70
     0
  9
$DIMCLRE
 70
     0
  9
$DIMCLRT
 70
     1
  9
$DIMTFAC
 40
0.5
  9
$DIMGAP
 40
1.5
  9
$LUNITS
 70
     2
  9
$LUPREC
 70
     2
  9
$SKETCHINC
 40
1.0
  9
$FILLETRAD
 40
15.0
  9
$AUNITS
 70
     0
  9
$AUPREC
 70
     0
  9
$MENU
  1
ACAD
  9
$ELEVATION
 40
0.0
  9
$PELEVATION
 40
0.0
  9
$THICKNESS
 40
0.0
  9
$LIMCHECK
 70
     0
  9
$BLIPMODE
 70
     0
  9
$CHAMFERA
 40
2.0
  9
$CHAMFERB
 40
2.0
  9
$SKPOLY
 70
     0
  9
$TDCREATE
 40
2455397.8646990740671754
  9
$TDUPDATE
 40
2459627.4247453701682389
  9
$TDINDWG
 40
0.2422494444
  9
$TDUSRTIMER
 40
0.2422494444
  9
$USRTIMER
 70
     1
  9
$ANGBASE
 50
0.0
  9
$ANGDIR
 70
     0
  9
$PDMODE
 70
     0
  9
$PDSIZE
 40
0.0
  9
$PLINEWID
 40
0.0
  9
$COORDS
 70
     1
  9
$SPLFRAME
 70
     0
  9
$SPLINETYPE
 70
     6
  9
$SPLINESEGS
 70
     8
  9
$ATTDIA
 70
     1
  9
$ATTREQ
 70
     1
  9
$HANDLING
 70
     1
  9
$HANDSEED
  5
2320
  9
$SURFTAB1
 70
     6
  9
$SURFTAB2
 70
     6
  9
$SURFTYPE
 70
     6
  9
$SURFU
 70
     6
  9
$SURFV
 70
     6
  9
$UCSNAME
  2

  9
$UCSORG
 10
0.0
 20
0.0
 30
0.0
  9
$UCSXDIR
 10
1.0
 20
0.0
 30
0.0
  9
$UCSYDIR
 10
0.0
 20
1.0
 30
0.0
  9
$PUCSNAME
  2

  9
$PUCSORG
 10
0.0
 20
0.0
 30
0.0
  9
$PUCSXDIR
 10
1.0
 20
0.0
 30
0.0
  9
$PUCSYDIR
 10
0.0
 20
1.0
 30
0.0
  9
$USERI1
 70
     0
  9
$USERI2
 70
     0
  9
$USERI3
 70
     0
  9
$USERI4
 70
     0
  9
$USERI5
 70
     0
  9
$USERR1
 40
0.0
  9
$USERR2
 40
0.0
  9
$USERR3
 40
0.0
  9
$USERR4
 40
0.0
  9
$USERR5
 40
0.0
  9
$WORLDVIEW
 70
     1
  9
$SHADEDGE
 70
     3
  9
$SHADEDIF
 70
    70
  9
$TILEMODE
 70
     1
  9
$MAXACTVP
 70
    16
  9
$PLIMCHECK
 70
     0
  9
$PEXTMIN
 10
1.0000000000000000E+20
 20
1.0000000000000000E+20
 30
1.0000000000000000E+20
  9
$PEXTMAX
 10
-1.0000000000000000E+20
 20
-1.0000000000000000E+20
 30
-1.0000000000000000E+20
  9
$PLIMMIN
 10
-0.0674642631973264
 20
-0.0511601294987543
  9
$PLIMMAX
 10
209.9325357368026914
 20
296.9488398705012742
  9
$UNITMODE
 70
     0
  9
$VISRETAIN
 70
     0
  9
$PLINEGEN
 70
     0
  9
$PSLTSCALE
 70
     0
  0
ENDSEC
  0
SECTION
  2
TABLES
  0
TABLE
  2
VPORT
 70
     1
  0
VPORT
  2
*ACTIVE
 70
     0
 10
0.0
 20
0.0
 11
1.0
 21
1.0
 12
-0.6042031139414803
 22
-149.9192423577997033
 13
0.0
 23
0.0
 14
1.0
 24
1.0
 15
10.0
 25
10.0
 16
-0.0000000000002274
 26
0.0
 36
964.5273467033194947
 17
304.9731451173971095
 27
-3.563930286614208
 37
-11.7364417520362192
 40
412.7947208824455174
 41
1.7852028639618129
 42
50.0
 43
0.0
 44
0.0
 50
0.0
 51
0.0
 71
     0
 72
  1500
 73
     1
 74
     0
 75
     0
 76
     0
 77
     0
 78
     0
  0
ENDTAB
  0
TABLE
  2
LTYPE
 70
     6
  0
LTYPE
  2
CONTINUOUS
 70
     0
  3
Solid line
 72
    65
 73
     0
 40
0.0
  0
LTYPE
  2
PHANTOM2
 70
     0
  3
Phantom (.5x) ___ _ _ ___ _ _ ___ _ _ ___ _ _
 72
    65
 73
     6
 40
1.25
 49
0.625
 49
-0.125
 49
0.125
 49
-0.125
 49
0.125
 49
-0.125
  0
LTYPE
  2
VERDECKT
 70
     0
  3
Verdeckt __ __ __ __ __ __ __ __ __ __ __ __ __
 72
    65
 73
     2
 40
0.375
 49
0.25
 49
-0.125
  0
ENDTAB
  0
TABLE
  2
LAYER
 70
    15
  0
LAYER
  2
0
 70
     0
 62
     7
  6
CONTINUOUS
  0
LAYER
  2
VOLL
 70
     0
 62
     1
  6
CONTINUOUS
  0
LAYER
  2
STEMPEL
 70
     0
 62
     3
  6
CONTINUOUS
  0
LAYER
  2
DEFPOINTS
 70
     0
 62
     7
  6
CONTINUOUS
  0
LAYER
  2
ADSK_ASSOC_ENTITY_BACKUPS
 70
     1
 62
    -7
  6
CONTINUOUS
  0
ENDTAB
  0
TABLE
  2
STYLE
 70
     4
  0
STYLE
  2
STANDARD
 70
     0
 40
0.0
 41
0.8
 50
0.0
 71
     0
 42
3.5
  3
simplex.shx
  4

  0
STYLE
  2
GREEKS
 70
     0
 40
0.0
 41
0.8
 50
0.0
 71
     0
 42
2.5
  3
SIMPLEX.shx
  4

  0
ENDTAB
  0
TABLE
  2
VIEW
 70
     1
  0
ENDTAB
  0
TABLE
  2
UCS
 70
     0
  0
ENDTAB
  0
TABLE
  2
APPID
 70
    24
  0
APPID
  2
ACAD
 70
     0
  0
APPID
  2
ACAD_NAV_VCDISPLAY
 70
     0
  0
APPID
  2
ACAD_MLEADERVER
 70
     0
  0
APPID
  2
ACAD_EXEMPT_FROM_CAD_STANDARDS
 70
     0
  0
APPID
  2
ACAD_PSEXT
 70
     0
  0
APPID
  2
ACAECLAYERSTANDARD
 70
     0
  0
APPID
  2
ACAUTHENVIRON
 70
     0
  0
APPID
  2
ACCMTRANSPARENCY
 70
     0
  0
APPID
  2
ACAD_STEPID
 70
     0
  0
APPID
  2
ACSYNERGY
 70
     0
  0
APPID
  2
SYNERGY_BODY_TBR_ID
 70
     0
  0
APPID
  2
ACAD_VIEW_EDGE_ID
 70
     0
  0
APPID
  2
ACSYNERGYSKETCH
 70
     0
  0
APPID
  2
ACAD_MODELDOC_XFORM
 70
     0
  0
APPID
  2
ACAD_DSTYLE_DIMJAG
 70
     0
  0
APPID
  2
ACAD_DSTYLE_DIMTALN
 70
     0
  0
APPID
  2
ACADANNOMONITORALERTICONDI
 70
     0
  0
APPID
  2
ACAD_DIMASSOC_CALC_DIMLFAC
 70
     0
  0
APPID
  2
ACAD_DIMASSOC_DIMLFAC
 70
     0
  0
APPID
  2
ACAD_DIMASSOC_OVERRIDDEN_D
 70
     0
  0
APPID
  2
ACAD_DSTYLE_DIMRADIAL_EXTENSION
 70
     0
  0
APPID
  2
GRADIENTCOLOR1ACI
 70
     0
  0
APPID
  2
GRADIENTCOLOR2ACI
 70
     0
  0
APPID
  2
AcDbAttr
 70
     0
  0
ENDTAB
  0
TABLE
  2
DIMSTYLE
 70
     2
  0
DIMSTYLE
  2
STANDARD
 70
     0
  3

  4

  5

  6

  7

 40
1.0
 41
0.18
 42
0.0625
 43
0.38
 44
0.18
 45
0.0
 46
0.0
 47
0.0
 48
0.0
140
0.18
141
0.09
142
0.0
143
25.3999999999999986
144
1.0
145
0.0
146
1.0
147
0.09
 71
     0
 72
     0
 73
     1
 74
     1
 75
     0
 76
     0
 77
     0
 78
     0
170
     0
171
     2
172
     0
173
     0
174
     0
175
     0
176
     0
177
     0
178
     0
  0
ENDTAB
  0
ENDSEC
  0
SECTION
  2
BLOCKS
  0
BLOCK
  8
0
  2
$MODEL_SPACE
 70
     0
 10
0.0
 20
0.0
 30
0.0
  3
$MODEL_SPACE
  1

  0
ENDBLK
  5
36
  8
0
  0
BLOCK
 67
     1
  8
0
  2
$PAPER_SPACE
 70
     0
 10
0.0
 20
0.0
 30
0.0
  3
$PAPER_SPACE
  1

  0
ENDBLK
  5
34
 67
     1
  8
0
  0
BLOCK
  8
0
  2
*S2
 70
     1
 10
0.0
 20
0.0
 30
0.0
  3
*S2
  1

  0
ENDBLK
  5
B3A
  8
0
  0
BLOCK
  8
0
  2
A$C49D8E234
 70
     0
 10
0.0
 20
0.0
 30
0.0
  3
A$C49D8E234
  1

  0
CIRCLE
  5
22A1
  8
0
 10
129.7973054191288895
 20
97.193933037027989
 30
0.0
 40
48.9520459564606725
  0
CIRCLE
  5
22A2
  8
0
 10
129.7973054191288895
 20
97.1939330370280032
 30
-0.0000000000000284
 40
50.0000000000001066
  0
CIRCLE
  5
22A3
  8
0
 10
129.7973054191288043
 20
97.1939330370280032
 30
-0.0000000000000284
 40
64.0999999999999091
  0
CIRCLE
  5
22A4
  8
0
 10
129.7973054191288043
 20
97.1939330370280032
 30
-0.0000000000000284
 40
70.6499999999998636
  0
CIRCLE
  5
22A5
  8
0
  6
VERDECKT
 62
     1
 10
129.7973054191288895
 20
97.193933037027989
 30
0.0
 40
50.4577757127756286
  0
CIRCLE
  5
22A6
  8
0
  6
VERDECKT
 62
     1
 10
129.7973054191288895
 20
97.1939330370280032
 30
-0.0000000000000284
 40
51.5000000000001066
  0
CIRCLE
  5
22A7
  8
0
  6
VERDECKT
 62
     1
 10
129.7973054191288895
 20
97.1939330370280032
 30
-0.0000000000000284
 40
65.1929415033529267
  0
ENDBLK
  5
22A9
  8
0
  0
BLOCK
  8
0
  2
A$C2881A842
 70
     0
 10
0.0
 20
0.0
 30
0.0
  3
A$C2881A842
  1

  0
LINE
  5
22AD
  8
0
 10
79.3395297063532325
 20
-285.0350682550882198
 30
0.0000000000000633
 11
180.2550811319044897
 21
-285.0350682550882198
 31
0.0000000000000633
210
0.0
220
1.0
230
-0.0000000000000002
  0
LINE
  5
22AE
  8
0
 10
64.6043639157759344
 20
-151.0624332682398858
 30
0.0000000000000335
 11
194.9902469224817878
 21
-151.0624332682398858
 31
0.0000000000000335
210
0.0
220
1.0
230
-0.0000000000000002
  0
ARC
  5
22AF
  8
0
 10
-92.7973054191272553
 20
-272.4893064687307174
 30
0.0
 40
14.4999999999985008
210
0.0
220
-0.0000000000000002
230
-1.0
 50
354.9999999999993747
 51
0.0
  0
ARC
  5
22B0
  8
0
 10
-166.7973054191081133
 20
-272.4893064687299216
 30
0.0
 40
14.5000000000208296
210
0.0
220
-0.0000000000000002
230
-1.0
 50
180.000000000003098
 51
184.9999999999959073
  0
LINE
  5
22B1
  8
0
 10
79.3395297063532325
 20
-285.0350682550882198
 30
0.0000000000000633
 11
78.3524822967984278
 21
-273.7530647385717089
 31
0.0000000000000608
210
0.0
220
1.0
230
-0.0000000000000002
  0
LINE
  5
22B2
  8
0
 10
180.2550811319044897
 20
-285.0350682550882198
 30
0.0000000000000633
 11
181.2421285414592944
 21
-273.7530647385717089
 31
0.0000000000000608
210
0.0
220
1.0
230
-0.0000000000000002
  0
LINE
  5
22B3
  8
0
 10
181.2973054191290032
 20
-168.7991206304774892
 30
0.0000000000000375
 11
181.2973054191290032
 21
-272.4893064687307174
 31
0.0000000000000605
210
0.0
220
1.0
230
-0.0000000000000002
  0
LINE
  5
22B4
  8
0
 10
78.2973054191287474
 20
-168.7991206304774892
 30
0.0000000000000375
 11
78.2973054191287474
 21
-272.4893064687307174
 31
0.0000000000000605
210
0.0
220
1.0
230
-0.0000000000000002
  0
LINE
  5
22B5
  8
0
 10
193.8973054191287133
 20
-150.0350682550879924
 30
0.0000000000000333
 11
194.9902469224817878
 21
-151.0624332682398858
 31
0.0000000000000335
210
0.0
220
1.0
230
-0.0000000000000002
  0
LINE
  5
22B6
  8
0
 10
65.6973054191289663
 20
-150.0350682550879924
 30
0.0000000000000333
 11
64.6043639157759344
 21
-151.0624332682398858
 31
0.0000000000000335
210
0.0
220
1.0
230
-0.0000000000000002
  0
LINE
  5
22B7
  8
0
 10
76.1263267703448463
 20
-163.3198405603343986
 30
0.0000000000000363
 11
64.604363915775977
 21
-151.0624332682398858
 31
0.0000000000000335
210
0.0
220
1.0
230
-0.0000000000000002
  0
LINE
  5
22B8
  8
0
 10
183.4682840679128049
 20
-163.3198405603343986
 30
0.0000000000000363
 11
194.9902469224817025
 21
-151.0624332682398858
 31
0.0000000000000335
210
0.0
220
1.0
230
-0.0000000000000002
  0
ARC
  5
22B9
  8
0
 10
-189.2973054191292022
 20
-168.7991206304776028
 30
0.0
 40
8.0000000000002558
210
0.0
220
-0.0000000000000002
230
-1.0
 50
0.0
 51
43.2285302599643373
  0
ARC
  5
22BA
  8
0
 10
-70.2973054191283637
 20
-168.7991206304776881
 30
0.0
 40
8.000000000000373
210
0.0
220
-0.0000000000000002
230
-1.0
 50
136.7714697400352009
 51
179.9999999999990052
  0
LINE
  5
22BB
  8
0
 10
59.1473054191289904
 20
-150.0350682550879924
 30
0.0000000000000333
 11
200.4473054191286963
 21
-150.0350682550879924
 31
0.0000000000000333
210
0.0
220
1.0
230
-0.0000000000000002
  0
LINE
  5
22BC
  8
0
 10
59.1473054191289904
 20
-50.0350682550879498
 30
0.0000000000000111
 11
200.4473054191286963
 21
-50.0350682550879498
 31
0.0000000000000111
210
0.0
220
1.0
230
-0.0000000000000002
  0
LINE
  5
22BD
  8
0
 10
200.4473054191286963
 20
-50.0350682550879498
 30
0.0000000000000111
 11
200.4473054191286963
 21
-150.0350682550879924
 31
0.0000000000000333
210
0.0
220
1.0
230
-0.0000000000000002
  0
LINE
  5
22BE
  8
0
 10
59.1473054191289904
 20
-50.0350682550879498
 30
0.0000000000000111
 11
59.1473054191289904
 21
-150.0350682550879924
 31
0.0000000000000333
210
0.0
220
1.0
230
-0.0000000000000002
  0
LINE
  5
22BF
  8
0
  6
VERDECKT
 62
     1
 10
80.8452594626682384
 20
-285.0350682550881061
 30
0.0000000000000633
 11
79.8353584382114008
 21
-273.49184672493368
 31
0.0000000000000607
210
0.0
220
1.0
230
-0.0000000000000002
  0
LINE
  5
22C0
  8
0
  6
VERDECKT
 62
     1
 10
178.7493513755894128
 20
-285.0350682550882198
 30
0.0000000000000633
 11
179.7592524000463072
 21
-273.49184672493368
 31
0.0000000000000607
210
0.0
220
1.0
230
-0.0000000000000002
  0
ARC
  5
22C1
  8
0
  6
VERDECKT
 62
     1
 10
-89.7973054191349291
 20
-272.6202892974569068
 30
0.0
 40
10.0000000000060592
210
0.0
220
-0.0000000000000002
230
-1.0
 50
355.0000000000018758
 51
359.9999999999986926
  0
ARC
  5
22C2
  8
0
  6
VERDECKT
 62
     1
 10
-169.7973054191450899
 20
-272.6202892974577026
 30
0.0
 40
9.9999999999837144
210
0.0
220
-0.0000000000000002
230
-1.0
 50
179.9999999999967031
 51
185.0000000000046043
  0
ARC
  5
22C3
  8
0
  6
VERDECKT
 62
     1
 10
-189.2973054191284916
 20
-168.7991206304774039
 30
0.0
 40
9.4999999999996021
210
0.0
220
-0.0000000000000002
230
-1.0
 50
359.9999999999992042
 51
43.2285302599677834
  0
ARC
  5
22C4
  8
0
  6
VERDECKT
 62
     1
 10
-70.2973054191290601
 20
-168.7991206304774892
 30
0.0
 40
9.4999999999996856
210
0.0
220
-0.0000000000000002
230
-1.0
 50
136.7714697400325008
 51
180.0000000000003979
  0
LINE
  5
22C5
  8
0
  6
VERDECKT
 62
     1
 10
77.2192682736976934
 20
-162.2924755471825904
 30
0.000000000000036
 11
65.6973054191289521
 21
-150.0350682550879924
 31
0.0000000000000333
210
0.0
220
1.0
230
-0.0000000000000002
  0
LINE
  5
22C6
  8
0
  6
VERDECKT
 62
     1
 10
182.3753425645599862
 20
-162.2924755471825904
 30
0.000000000000036
 11
193.8973054191287133
 21
-150.0350682550879924
 31
0.0000000000000333
210
0.0
220
1.0
230
-0.0000000000000002
  0
LINE
  5
22C7
  8
0
  6
VERDECKT
 62
     1
 10
179.7973054191288043
 20
-168.7991206304774892
 30
0.0000000000000375
 11
179.7973054191288043
 21
-272.6202892974570773
 31
0.0000000000000605
210
0.0
220
1.0
230
-0.0000000000000002
  0
LINE
  5
22C8
  8
0
  6
VERDECKT
 62
     1
 10
79.7973054191288611
 20
-168.7991206304774892
 30
0.0000000000000375
 11
79.7973054191288611
 21
-272.6202892974570773
 31
0.0000000000000605
210
0.0
220
1.0
230
-0.0000000000000002
  0
LINE
  5
22C9
  8
0
  6
VERDECKT
 62
     1
 10
193.8973054191287133
 20
-50.0350682550879498
 30
0.0000000000000111
 11
193.8973054191287133
 21
-150.0350682550879924
 31
0.0000000000000333
210
0.0
220
1.0
230
-0.0000000000000002
  0
LINE
  5
22CA
  8
0
  6
VERDECKT
 62
     1
 10
65.6973054191289521
 20
-50.0350682550879498
 30
0.0000000000000111
 11
65.6973054191289521
 21
-150.0350682550879924
 31
0.0000000000000333
210
0.0
220
1.0
230
-0.0000000000000002
  0
ENDBLK
  5
22CC
  8
0
  0
ENDSEC
  0
SECTION
  2
ENTITIES
  0
TEXT
  5
8F
  8
VOLL
 10
78.076754716981128
 20
31.025947764705851
 30
0.0
 40
1.8
  1

  7
GREEKS
  0
INSERT
  5
B3C
  8
ADSK_ASSOC_ENTITY_BACKUPS
  2
*S2
 10
0.0
 20
0.0
 30
0.0
  0
INSERT
  5
22AA
  8
STEMPEL
  2
A$C49D8E234
 10
174.5716365843267113
 20
-384.9589227349165981
 30
-23.4728835040723602
  0
INSERT
  5
22CD
  8
STEMPEL
  2
A$C2881A842
 10
174.5716365843267113
 20
101.4837126641483991
 30
-23.4728835040724597
  0
VIEWPORT
  5
928
 67
     1
  8
0
 10
104.9325357368027056
 20
148.4488398705011889
 30
0.0
 40
533.9969448798291296
 41
299.1239570917758783
 68
     1
 69
     1
1001
ACAD
1000
MVIEW
1002
{
1070
    16
1010
0.0
1020
0.0
1030
0.0
1010
0.0
1020
0.0
1030
1.0
1040
0.0
1040
299.1239570917758783
1040
104.9325357368027056
1040
148.4488398705011889
1040
50.0
1040
0.0
1040
0.0
1070
     0
1070
  1500
1070
     1
1070
     1
1070
     0
1070
     0
1070
     0
1070
     0
1040
0.0
1040
0.0
1040
0.0
1040
10.0
1040
10.0
1040
10.0
1040
10.0
1070
     0
1002
{
1002
}
1002
}
  0
ENDSEC
  0
EOF
