  0
SECTION
  2
HEADER
  9
$ACADVER
  1
AC1009
  9
$INSBASE
 10
0.0
 20
0.0
 30
0.0
  9
$EXTMIN
 10
223.2881800969850019
 20
-319.0492881599955126
 30
-23.3493780589392514
  9
$EXTMAX
 10
337.5881800969846722
 20
52.3057751651675602
 30
-23.3493780589391804
  9
$LIMMIN
 10
0.0
 20
0.0
  9
$LIMMAX
 10
210.0
 20
297.0
  9
$ORTHOMODE
 70
     1
  9
$REGENMODE
 70
     1
  9
$FILLMODE
 70
     1
  9
$QTEXTMODE
 70
     0
  9
$MIRRTEXT
 70
     1
  9
$DRAGMODE
 70
     2
  9
$LTSCALE
 40
10.0
  9
$OSMODE
 70
  2495
  9
$ATTMODE
 70
     1
  9
$TEXTSIZE
 40
3.5
  9
$TRACEWID
 40
0.5
  9
$TEXTSTYLE
  7
STANDARD
  9
$CLAYER
  8
STEMPEL
  9
$CELTYPE
  6
BYLAYER
  9
$CECOLOR
 62
   256
  9
$DIMSCALE
 40
1.0
  9
$DIMASZ
 40
3.5
  9
$DIMEXO
 40
1.0
  9
$DIMDLI
 40
7.0
  9
$DIMRND
 40
0.0
  9
$DIMDLE
 40
0.0
  9
$DIMEXE
 40
1.0
  9
$DIMTP
 40
0.0
  9
$DIMTM
 40
0.0
  9
$DIMTXT
 40
3.5
  9
$DIMCEN
 40
1.5
  9
$DIMTSZ
 40
0.0
  9
$DIMTOL
 70
     0
  9
$DIMLIM
 70
     0
  9
$DIMTIH
 70
     0
  9
$DIMTOH
 70
     0
  9
$DIMSE1
 70
     0
  9
$DIMSE2
 70
     0
  9
$DIMTAD
 70
     1
  9
$DIMZIN
 70
     8
  9
$DIMBLK
  1

  9
$DIMASO
 70
     1
  9
$DIMSHO
 70
     0
  9
$DIMPOST
  1

  9
$DIMAPOST
  1

  9
$DIMALT
 70
     0
  9
$DIMALTD
 70
     2
  9
$DIMALTF
 40
25.3999999999999986
  9
$DIMLFAC
 40
2.0
  9
$DIMTOFL
 70
     1
  9
$DIMTVP
 40
0.0
  9
$DIMTIX
 70
     0
  9
$DIMSOXD
 70
     0
  9
$DIMSAH
 70
     0
  9
$DIMBLK1
  1

  9
$DIMBLK2
  1

  9
$DIMSTYLE
  2
STANDARD
  9
$DIMCLRD
 70
     0
  9
$DIMCLRE
 70
     0
  9
$DIMCLRT
 70
     1
  9
$DIMTFAC
 40
0.5
  9
$DIMGAP
 40
1.5
  9
$LUNITS
 70
     2
  9
$LUPREC
 70
     2
  9
$SKETCHINC
 40
1.0
  9
$FILLETRAD
 40
15.0
  9
$AUNITS
 70
     0
  9
$AUPREC
 70
     0
  9
$MENU
  1
ACAD
  9
$ELEVATION
 40
0.0
  9
$PELEVATION
 40
0.0
  9
$THICKNESS
 40
0.0
  9
$LIMCHECK
 70
     0
  9
$BLIPMODE
 70
     0
  9
$CHAMFERA
 40
2.0
  9
$CHAMFERB
 40
2.0
  9
$SKPOLY
 70
     0
  9
$TDCREATE
 40
2455397.8646990740671754
  9
$TDUPDATE
 40
2459627.4180555557832122
  9
$TDINDWG
 40
0.2413698148
  9
$TDUSRTIMER
 40
0.2413698148
  9
$USRTIMER
 70
     1
  9
$ANGBASE
 50
0.0
  9
$ANGDIR
 70
     0
  9
$PDMODE
 70
     0
  9
$PDSIZE
 40
0.0
  9
$PLINEWID
 40
0.0
  9
$COORDS
 70
     1
  9
$SPLFRAME
 70
     0
  9
$SPLINETYPE
 70
     6
  9
$SPLINESEGS
 70
     8
  9
$ATTDIA
 70
     1
  9
$ATTREQ
 70
     1
  9
$HANDLING
 70
     1
  9
$HANDSEED
  5
21DA
  9
$SURFTAB1
 70
     6
  9
$SURFTAB2
 70
     6
  9
$SURFTYPE
 70
     6
  9
$SURFU
 70
     6
  9
$SURFV
 70
     6
  9
$UCSNAME
  2

  9
$UCSORG
 10
0.0
 20
0.0
 30
0.0
  9
$UCSXDIR
 10
1.0
 20
0.0
 30
0.0
  9
$UCSYDIR
 10
0.0
 20
1.0
 30
0.0
  9
$PUCSNAME
  2

  9
$PUCSORG
 10
0.0
 20
0.0
 30
0.0
  9
$PUCSXDIR
 10
1.0
 20
0.0
 30
0.0
  9
$PUCSYDIR
 10
0.0
 20
1.0
 30
0.0
  9
$USERI1
 70
     0
  9
$USERI2
 70
     0
  9
$USERI3
 70
     0
  9
$USERI4
 70
     0
  9
$USERI5
 70
     0
  9
$USERR1
 40
0.0
  9
$USERR2
 40
0.0
  9
$USERR3
 40
0.0
  9
$USERR4
 40
0.0
  9
$USERR5
 40
0.0
  9
$WORLDVIEW
 70
     1
  9
$SHADEDGE
 70
     3
  9
$SHADEDIF
 70
    70
  9
$TILEMODE
 70
     1
  9
$MAXACTVP
 70
    16
  9
$PLIMCHECK
 70
     0
  9
$PEXTMIN
 10
1.0000000000000000E+20
 20
1.0000000000000000E+20
 30
1.0000000000000000E+20
  9
$PEXTMAX
 10
-1.0000000000000000E+20
 20
-1.0000000000000000E+20
 30
-1.0000000000000000E+20
  9
$PLIMMIN
 10
-0.0674642631973264
 20
-0.0511601294987543
  9
$PLIMMAX
 10
209.9325357368026914
 20
296.9488398705012742
  9
$UNITMODE
 70
     0
  9
$VISRETAIN
 70
     0
  9
$PLINEGEN
 70
     0
  9
$PSLTSCALE
 70
     0
  0
ENDSEC
  0
SECTION
  2
TABLES
  0
TABLE
  2
VPORT
 70
     1
  0
VPORT
  2
*ACTIVE
 70
     0
 10
0.0
 20
0.0
 11
1.0
 21
1.0
 12
0.98059628812058
 22
-131.8435223449602915
 13
0.0
 23
0.0
 14
1.0
 24
1.0
 15
10.0
 25
10.0
 16
-0.0000000000001705
 26
0.0
 36
877.4584177752334426
 17
279.4575838088642854
 27
-1.5282341524536489
 37
-11.6746890294696204
 40
374.0107610366659969
 41
1.7852028639618129
 42
50.0
 43
0.0
 44
0.0
 50
0.0
 51
0.0
 71
     0
 72
  1500
 73
     1
 74
     0
 75
     0
 76
     0
 77
     0
 78
     0
  0
ENDTAB
  0
TABLE
  2
LTYPE
 70
     6
  0
LTYPE
  2
CONTINUOUS
 70
     0
  3
Solid line
 72
    65
 73
     0
 40
0.0
  0
LTYPE
  2
PHANTOM2
 70
     0
  3
Phantom (.5x) ___ _ _ ___ _ _ ___ _ _ ___ _ _
 72
    65
 73
     6
 40
1.25
 49
0.625
 49
-0.125
 49
0.125
 49
-0.125
 49
0.125
 49
-0.125
  0
LTYPE
  2
VERDECKT
 70
     0
  3
Verdeckt __ __ __ __ __ __ __ __ __ __ __ __ __
 72
    65
 73
     2
 40
0.375
 49
0.25
 49
-0.125
  0
ENDTAB
  0
TABLE
  2
LAYER
 70
    15
  0
LAYER
  2
0
 70
     0
 62
     7
  6
CONTINUOUS
  0
LAYER
  2
VOLL
 70
     0
 62
     1
  6
CONTINUOUS
  0
LAYER
  2
STEMPEL
 70
     0
 62
     3
  6
CONTINUOUS
  0
LAYER
  2
DEFPOINTS
 70
     0
 62
     7
  6
CONTINUOUS
  0
LAYER
  2
ADSK_ASSOC_ENTITY_BACKUPS
 70
     1
 62
    -7
  6
CONTINUOUS
  0
ENDTAB
  0
TABLE
  2
STYLE
 70
     4
  0
STYLE
  2
STANDARD
 70
     0
 40
0.0
 41
0.8
 50
0.0
 71
     0
 42
3.5
  3
simplex.shx
  4

  0
STYLE
  2
GREEKS
 70
     0
 40
0.0
 41
0.8
 50
0.0
 71
     0
 42
2.5
  3
SIMPLEX.shx
  4

  0
ENDTAB
  0
TABLE
  2
VIEW
 70
     1
  0
ENDTAB
  0
TABLE
  2
UCS
 70
     0
  0
ENDTAB
  0
TABLE
  2
APPID
 70
    24
  0
APPID
  2
ACAD
 70
     0
  0
APPID
  2
ACAD_NAV_VCDISPLAY
 70
     0
  0
APPID
  2
ACAD_MLEADERVER
 70
     0
  0
APPID
  2
ACAD_EXEMPT_FROM_CAD_STANDARDS
 70
     0
  0
APPID
  2
ACAD_PSEXT
 70
     0
  0
APPID
  2
ACAECLAYERSTANDARD
 70
     0
  0
APPID
  2
ACAUTHENVIRON
 70
     0
  0
APPID
  2
ACCMTRANSPARENCY
 70
     0
  0
APPID
  2
ACAD_STEPID
 70
     0
  0
APPID
  2
ACSYNERGY
 70
     0
  0
APPID
  2
SYNERGY_BODY_TBR_ID
 70
     0
  0
APPID
  2
ACAD_VIEW_EDGE_ID
 70
     0
  0
APPID
  2
ACSYNERGYSKETCH
 70
     0
  0
APPID
  2
ACAD_MODELDOC_XFORM
 70
     0
  0
APPID
  2
ACAD_DSTYLE_DIMJAG
 70
     0
  0
APPID
  2
ACAD_DSTYLE_DIMTALN
 70
     0
  0
APPID
  2
ACADANNOMONITORALERTICONDI
 70
     0
  0
APPID
  2
ACAD_DIMASSOC_CALC_DIMLFAC
 70
     0
  0
APPID
  2
ACAD_DIMASSOC_DIMLFAC
 70
     0
  0
APPID
  2
ACAD_DIMASSOC_OVERRIDDEN_D
 70
     0
  0
APPID
  2
ACAD_DSTYLE_DIMRADIAL_EXTENSION
 70
     0
  0
APPID
  2
GRADIENTCOLOR1ACI
 70
     0
  0
APPID
  2
GRADIENTCOLOR2ACI
 70
     0
  0
APPID
  2
AcDbAttr
 70
     0
  0
ENDTAB
  0
TABLE
  2
DIMSTYLE
 70
     2
  0
DIMSTYLE
  2
STANDARD
 70
     0
  3

  4

  5

  6

  7

 40
1.0
 41
0.18
 42
0.0625
 43
0.38
 44
0.18
 45
0.0
 46
0.0
 47
0.0
 48
0.0
140
0.18
141
0.09
142
0.0
143
25.3999999999999986
144
1.0
145
0.0
146
1.0
147
0.09
 71
     0
 72
     0
 73
     1
 74
     1
 75
     0
 76
     0
 77
     0
 78
     0
170
     0
171
     2
172
     0
173
     0
174
     0
175
     0
176
     0
177
     0
178
     0
  0
ENDTAB
  0
ENDSEC
  0
SECTION
  2
BLOCKS
  0
BLOCK
  8
0
  2
$MODEL_SPACE
 70
     0
 10
0.0
 20
0.0
 30
0.0
  3
$MODEL_SPACE
  1

  0
ENDBLK
  5
36
  8
0
  0
BLOCK
 67
     1
  8
0
  2
$PAPER_SPACE
 70
     0
 10
0.0
 20
0.0
 30
0.0
  3
$PAPER_SPACE
  1

  0
ENDBLK
  5
34
 67
     1
  8
0
  0
BLOCK
  8
0
  2
*S2
 70
     1
 10
0.0
 20
0.0
 30
0.0
  3
*S2
  1

  0
ENDBLK
  5
B3A
  8
0
  0
BLOCK
  8
0
  2
A$CF94DAA2E
 70
     0
 10
0.0
 20
0.0
 30
0.0
  3
A$CF94DAA2E
  1

  0
CIRCLE
  5
215B
  8
0
 10
129.7973054191288043
 20
97.1939330370280317
 30
-0.0000000000000284
 40
57.1499999999998565
  0
CIRCLE
  5
215C
  8
0
 10
129.7973054191288043
 20
97.1939330370280317
 30
-0.0000000000000284
 40
48.589999999999911
  0
CIRCLE
  5
215D
  8
0
 10
129.7973054191288895
 20
97.1939330370280459
 30
0.0
 40
42.2356959603185871
  0
CIRCLE
  5
215E
  8
0
 10
129.7973054191288895
 20
97.1939330370280459
 30
-0.0000000000000284
 40
43.0
  0
CIRCLE
  5
215F
  8
0
  6
VERDECKT
 62
     1
 10
129.7973054191288895
 20
97.1939330370280459
 30
0.0
 40
43.7379626816076623
  0
CIRCLE
  5
2160
  8
0
  6
VERDECKT
 62
     1
 10
129.7973054191288895
 20
97.1939330370280459
 30
-0.0000000000000284
 40
44.5
  0
CIRCLE
  5
2161
  8
0
  6
VERDECKT
 62
     1
 10
129.7973054191288895
 20
97.1939330370280459
 30
-0.0000000000000284
 40
49.8993168184099432
  0
ENDBLK
  5
2163
  8
0
  0
BLOCK
  8
0
  2
A$C709C67D9
 70
     0
 10
0.0
 20
0.0
 30
0.0
  3
A$C709C67D9
  1

  0
LINE
  5
2167
  8
0
 10
186.9473054191286963
 20
-150.0350682550879924
 30
0.0000000000000333
 11
72.6473054191289975
 21
-150.0350682550879924
 31
0.0000000000000333
210
0.0
220
1.0
230
-0.0000000000000002
  0
LINE
  5
2168
  8
0
 10
186.9473054191286963
 20
-50.0350682550879498
 30
0.0000000000000111
 11
72.6473054191289975
 21
-50.0350682550879498
 31
0.0000000000000111
210
0.0
220
1.0
230
-0.0000000000000002
  0
LINE
  5
2169
  8
0
 10
72.6473054191289975
 20
-150.0350682550879924
 30
0.0000000000000333
 11
72.6473054191289975
 21
-50.0350682550879498
 31
0.0000000000000111
210
0.0
220
1.0
230
-0.0000000000000002
  0
LINE
  5
216A
  8
0
 10
186.9473054191286963
 20
-150.0350682550879924
 30
0.0000000000000333
 11
186.9473054191286963
 21
-50.0350682550879498
 31
0.0000000000000111
210
0.0
220
1.0
230
-0.0000000000000002
  0
LINE
  5
216B
  8
0
 10
86.0593427375212059
 20
-270.0350682550879924
 30
0.00000000000006
 11
173.5352681007364879
 21
-270.0350682550879924
 31
0.00000000000006
210
0.0
220
1.0
230
-0.0000000000000002
  0
LINE
  5
216C
  8
0
 10
79.897988600718918
 20
-150.7669763565793062
 30
0.0000000000000335
 11
179.6966222375388043
 21
-150.7669763565793062
 31
0.0000000000000335
210
0.0
220
1.0
230
-0.0000000000000002
  0
ARC
  5
216D
  8
0
 10
-94.797305419134176
 20
-260.3403302151151024
 30
0.0
 40
9.5000000000053149
210
0.0
220
-0.0000000000000002
230
-1.0
 50
355.3189070859293111
 51
359.9999999999989768
  0
ARC
  5
216E
  8
0
 10
-164.7973054191234894
 20
-260.3403302151151024
 30
0.0
 40
9.5000000000053149
210
0.0
220
-0.0000000000000002
230
-1.0
 50
180.0000000000009095
 51
184.6810929140706889
  0
LINE
  5
216F
  8
0
 10
86.059342737521149
 20
-270.0350682550879924
 30
0.00000000000006
 11
85.3289938897272862
 21
-261.1156216327133848
 31
0.000000000000058
210
0.0
220
1.0
230
-0.0000000000000002
  0
LINE
  5
2170
  8
0
 10
173.5352681007366016
 20
-270.0350682550881061
 30
0.00000000000006
 11
174.2656169485304076
 21
-261.1156216327133848
 31
0.000000000000058
210
0.0
220
1.0
230
-0.0000000000000002
  0
LINE
  5
2171
  8
0
 10
174.2973054191288043
 20
-162.5100924028101019
 30
0.0000000000000361
 11
174.2973054191288043
 21
-260.3403302151152729
 31
0.0000000000000578
210
0.0
220
1.0
230
-0.0000000000000002
  0
LINE
  5
2172
  8
0
 10
85.2973054191288611
 20
-162.5100924028101019
 30
0.0000000000000361
 11
85.2973054191288611
 21
-260.3403302151152729
 31
0.0000000000000578
210
0.0
220
1.0
230
-0.0000000000000002
  0
LINE
  5
2173
  8
0
 10
178.387305419128694
 20
-150.0350682550879924
 30
0.0000000000000333
 11
179.6966222375388043
 21
-150.7669763565791925
 31
0.0000000000000335
210
0.0
220
1.0
230
-0.0000000000000002
  0
LINE
  5
2174
  8
0
 10
81.2073054191289287
 20
-150.0350682550879924
 30
0.0000000000000333
 11
79.8979886007189037
 21
-150.7669763565791925
 31
0.0000000000000335
210
0.0
220
1.0
230
-0.0000000000000002
  0
ARC
  5
2175
  8
0
 10
-182.2973054191305096
 20
-162.5100924028104998
 30
0.0
 40
8.00000000000162
210
0.0
220
-0.0000000000000002
230
-1.0
 50
0.0000000000030533
 51
29.2051903708183112
  0
ARC
  5
2176
  8
0
 10
-77.2973054191274258
 20
-162.5100924028104998
 30
0.0
 40
8.0000000000014548
210
0.0
220
-0.0000000000000002
230
-1.0
 50
150.7948096291810032
 51
179.999999999996902
  0
LINE
  5
2177
  8
0
 10
84.2803284506492929
 20
-158.6065825281903017
 30
0.0000000000000352
 11
79.8979886007188753
 21
-150.7669763565793062
 31
0.0000000000000335
210
0.0
220
1.0
230
-0.0000000000000002
  0
LINE
  5
2178
  8
0
 10
175.3142823876083867
 20
-158.6065825281903017
 30
0.0000000000000352
 11
179.6966222375388043
 21
-150.7669763565793062
 31
0.0000000000000335
210
0.0
220
1.0
230
-0.0000000000000002
  0
LINE
  5
2179
  8
0
  6
VERDECKT
 62
     1
 10
81.207305419128943
 20
-150.0350682550879924
 30
0.0000000000000333
 11
81.207305419128943
 21
-50.0350682550879498
 31
0.0000000000000111
210
0.0
220
1.0
230
-0.0000000000000002
  0
LINE
  5
217A
  8
0
  6
VERDECKT
 62
     1
 10
178.387305419128694
 20
-150.0350682550879924
 30
0.0000000000000333
 11
178.387305419128694
 21
-50.0350682550879498
 31
0.0000000000000111
210
0.0
220
1.0
230
-0.0000000000000002
  0
ARC
  5
217B
  8
0
  6
VERDECKT
 62
     1
 10
-162.7973054191296001
 20
-260.3186820096366887
 30
0.0
 40
9.999999999999261
210
0.0
220
-0.0000000000000002
230
-1.0
 50
179.9999999999990052
 51
184.6949549240879946
  0
ARC
  5
217C
  8
0
  6
VERDECKT
 62
     1
 10
-96.7973054191196809
 20
-260.3186820096369161
 30
0.0
 40
9.9999999999908162
210
0.0
220
-0.0000000000000002
230
-1.0
 50
355.305045075908879
 51
0.0000000000019592
  0
LINE
  5
217D
  8
0
  6
VERDECKT
 62
     1
 10
87.5616094588103238
 20
-270.0350682550879924
 30
0.00000000000006
 11
86.830859440117905
 21
-261.1371895217930046
 31
0.000000000000058
210
0.0
220
1.0
230
-0.0000000000000002
  0
LINE
  5
217E
  8
0
  6
VERDECKT
 62
     1
 10
172.0330013794473984
 20
-270.0350682550881061
 30
0.00000000000006
 11
172.7637513981397888
 21
-261.1371895217930046
 31
0.000000000000058
210
0.0
220
1.0
230
-0.0000000000000002
  0
LINE
  5
217F
  8
0
  6
VERDECKT
 62
     1
 10
172.7973054191288043
 20
-162.5100924028101019
 30
0.0000000000000361
 11
172.7973054191288043
 21
-260.3186820096365182
 31
0.0000000000000578
210
0.0
220
1.0
230
-0.0000000000000002
  0
LINE
  5
2180
  8
0
  6
VERDECKT
 62
     1
 10
86.7973054191288753
 20
-162.5100924028101019
 30
0.0000000000000361
 11
86.7973054191288753
 21
-260.3186820096365182
 31
0.0000000000000578
210
0.0
220
1.0
230
-0.0000000000000002
  0
LINE
  5
2181
  8
0
  6
VERDECKT
 62
     1
 10
85.5896452690594742
 20
-157.8746744266989879
 30
0.0000000000000351
 11
81.207305419128943
 21
-150.0350682550879924
 31
0.0000000000000333
210
0.0
220
1.0
230
-0.0000000000000002
  0
LINE
  5
2182
  8
0
  6
VERDECKT
 62
     1
 10
174.0049655691981911
 20
-157.8746744266989879
 30
0.0000000000000351
 11
178.387305419128694
 21
-150.0350682550879924
 31
0.0000000000000333
210
0.0
220
1.0
230
-0.0000000000000002
  0
ARC
  5
2183
  8
0
  6
VERDECKT
 62
     1
 10
-182.2973054191278095
 20
-162.510092402809704
 30
0.0
 40
9.4999999999989484
210
0.0
220
-0.0000000000000002
230
-1.0
 50
359.9999999999977831
 51
29.2051903708223612
  0
ARC
  5
2184
  8
0
  6
VERDECKT
 62
     1
 10
-77.2973054191295006
 20
-162.5100924028097893
 30
0.0
 40
9.4999999999993587
210
0.0
220
-0.0000000000000002
230
-1.0
 50
150.7948096291781894
 51
180.0000000000015064
  0
ENDBLK
  5
2186
  8
0
  0
ENDSEC
  0
SECTION
  2
ENTITIES
  0
TEXT
  5
8F
  8
VOLL
 10
78.076754716981128
 20
31.025947764705851
 30
0.0
 40
1.8
  1

  7
GREEKS
  0
INSERT
  5
B3C
  8
ADSK_ASSOC_ENTITY_BACKUPS
  2
*S2
 10
0.0
 20
0.0
 30
0.0
  0
INSERT
  5
2164
  8
STEMPEL
  2
A$CF94DAA2E
 10
150.6408746778560044
 20
-359.0932211970236949
 30
-23.3493780589391804
  0
INSERT
  5
2187
  8
STEMPEL
  2
A$C709C67D9
 10
150.6408746778560044
 20
102.3408434202554957
 30
-23.3493780589392692
  0
VIEWPORT
  5
928
 67
     1
  8
0
 10
104.9325357368027056
 20
148.4488398705011889
 30
0.0
 40
533.9969448798291296
 41
299.1239570917758783
 68
     1
 69
     1
1001
ACAD
1000
MVIEW
1002
{
1070
    16
1010
0.0
1020
0.0
1030
0.0
1010
0.0
1020
0.0
1030
1.0
1040
0.0
1040
299.1239570917758783
1040
104.9325357368027056
1040
148.4488398705011889
1040
50.0
1040
0.0
1040
0.0
1070
     0
1070
  1500
1070
     1
1070
     1
1070
     0
1070
     0
1070
     0
1070
     0
1040
0.0
1040
0.0
1040
0.0
1040
10.0
1040
10.0
1040
10.0
1040
10.0
1070
     0
1002
{
1002
}
1002
}
  0
ENDSEC
  0
EOF
