  0
SECTION
  2
HEADER
  9
$ACADVER
  1
AC1009
  9
$INSBASE
 10
0.0
 20
0.0
 30
0.0
  9
$EXTMIN
 10
204.3591245131777896
 20
-285.4110418423106239
 30
-32.1830564750806474
  9
$EXTMAX
 10
306.6449625798321108
 20
59.3141148928051933
 30
-32.1830564750805834
  9
$LIMMIN
 10
0.0
 20
0.0
  9
$LIMMAX
 10
210.0
 20
297.0
  9
$ORTHOMODE
 70
     1
  9
$REGENMODE
 70
     1
  9
$FILLMODE
 70
     1
  9
$QTEXTMODE
 70
     0
  9
$MIRRTEXT
 70
     1
  9
$DRAGMODE
 70
     2
  9
$LTSCALE
 40
10.0
  9
$OSMODE
 70
  2495
  9
$ATTMODE
 70
     1
  9
$TEXTSIZE
 40
3.5
  9
$TRACEWID
 40
0.5
  9
$TEXTSTYLE
  7
STANDARD
  9
$CLAYER
  8
STEMPEL
  9
$CELTYPE
  6
BYLAYER
  9
$CECOLOR
 62
   256
  9
$DIMSCALE
 40
1.0
  9
$DIMASZ
 40
3.5
  9
$DIMEXO
 40
1.0
  9
$DIMDLI
 40
7.0
  9
$DIMRND
 40
0.0
  9
$DIMDLE
 40
0.0
  9
$DIMEXE
 40
1.0
  9
$DIMTP
 40
0.0
  9
$DIMTM
 40
0.0
  9
$DIMTXT
 40
3.5
  9
$DIMCEN
 40
1.5
  9
$DIMTSZ
 40
0.0
  9
$DIMTOL
 70
     0
  9
$DIMLIM
 70
     0
  9
$DIMTIH
 70
     0
  9
$DIMTOH
 70
     0
  9
$DIMSE1
 70
     0
  9
$DIMSE2
 70
     0
  9
$DIMTAD
 70
     1
  9
$DIMZIN
 70
     8
  9
$DIMBLK
  1

  9
$DIMASO
 70
     1
  9
$DIMSHO
 70
     0
  9
$DIMPOST
  1

  9
$DIMAPOST
  1

  9
$DIMALT
 70
     0
  9
$DIMALTD
 70
     2
  9
$DIMALTF
 40
25.3999999999999986
  9
$DIMLFAC
 40
2.0
  9
$DIMTOFL
 70
     1
  9
$DIMTVP
 40
0.0
  9
$DIMTIX
 70
     0
  9
$DIMSOXD
 70
     0
  9
$DIMSAH
 70
     0
  9
$DIMBLK1
  1

  9
$DIMBLK2
  1

  9
$DIMSTYLE
  2
STANDARD
  9
$DIMCLRD
 70
     0
  9
$DIMCLRE
 70
     0
  9
$DIMCLRT
 70
     1
  9
$DIMTFAC
 40
0.5
  9
$DIMGAP
 40
1.5
  9
$LUNITS
 70
     2
  9
$LUPREC
 70
     2
  9
$SKETCHINC
 40
1.0
  9
$FILLETRAD
 40
15.0
  9
$AUNITS
 70
     0
  9
$AUPREC
 70
     0
  9
$MENU
  1
ACAD
  9
$ELEVATION
 40
0.0
  9
$PELEVATION
 40
0.0
  9
$THICKNESS
 40
0.0
  9
$LIMCHECK
 70
     0
  9
$BLIPMODE
 70
     0
  9
$CHAMFERA
 40
2.0
  9
$CHAMFERB
 40
2.0
  9
$SKPOLY
 70
     0
  9
$TDCREATE
 40
2455397.8646990740671754
  9
$TDUPDATE
 40
2459627.4118634262122214
  9
$TDINDWG
 40
0.2362887963
  9
$TDUSRTIMER
 40
0.2362887963
  9
$USRTIMER
 70
     1
  9
$ANGBASE
 50
0.0
  9
$ANGDIR
 70
     0
  9
$PDMODE
 70
     0
  9
$PDSIZE
 40
0.0
  9
$PLINEWID
 40
0.0
  9
$COORDS
 70
     1
  9
$SPLFRAME
 70
     0
  9
$SPLINETYPE
 70
     6
  9
$SPLINESEGS
 70
     8
  9
$ATTDIA
 70
     1
  9
$ATTREQ
 70
     1
  9
$HANDLING
 70
     1
  9
$HANDSEED
  5
2009
  9
$SURFTAB1
 70
     6
  9
$SURFTAB2
 70
     6
  9
$SURFTYPE
 70
     6
  9
$SURFU
 70
     6
  9
$SURFV
 70
     6
  9
$UCSNAME
  2

  9
$UCSORG
 10
0.0
 20
0.0
 30
0.0
  9
$UCSXDIR
 10
1.0
 20
0.0
 30
0.0
  9
$UCSYDIR
 10
0.0
 20
1.0
 30
0.0
  9
$PUCSNAME
  2

  9
$PUCSORG
 10
0.0
 20
0.0
 30
0.0
  9
$PUCSXDIR
 10
1.0
 20
0.0
 30
0.0
  9
$PUCSYDIR
 10
0.0
 20
1.0
 30
0.0
  9
$USERI1
 70
     0
  9
$USERI2
 70
     0
  9
$USERI3
 70
     0
  9
$USERI4
 70
     0
  9
$USERI5
 70
     0
  9
$USERR1
 40
0.0
  9
$USERR2
 40
0.0
  9
$USERR3
 40
0.0
  9
$USERR4
 40
0.0
  9
$USERR5
 40
0.0
  9
$WORLDVIEW
 70
     1
  9
$SHADEDGE
 70
     3
  9
$SHADEDIF
 70
    70
  9
$TILEMODE
 70
     1
  9
$MAXACTVP
 70
    16
  9
$PLIMCHECK
 70
     0
  9
$PEXTMIN
 10
1.0000000000000000E+20
 20
1.0000000000000000E+20
 30
1.0000000000000000E+20
  9
$PEXTMAX
 10
-1.0000000000000000E+20
 20
-1.0000000000000000E+20
 30
-1.0000000000000000E+20
  9
$PLIMMIN
 10
-0.0674642631973264
 20
-0.0511601294987543
  9
$PLIMMAX
 10
209.9325357368026914
 20
296.9488398705012742
  9
$UNITMODE
 70
     0
  9
$VISRETAIN
 70
     0
  9
$PLINEGEN
 70
     0
  9
$PSLTSCALE
 70
     0
  0
ENDSEC
  0
SECTION
  2
TABLES
  0
TABLE
  2
VPORT
 70
     1
  0
VPORT
  2
*ACTIVE
 70
     0
 10
0.0
 20
0.0
 11
1.0
 21
1.0
 12
0.0000031730350543
 22
-123.9577400581648021
 13
0.0
 23
0.0
 14
1.0
 24
1.0
 15
10.0
 25
10.0
 16
-0.000000000000199
 26
0.0
 36
846.7716479247352481
 17
255.5020403734698107
 27
10.9092765834120602
 37
-16.0915282375402917
 40
347.1904141134360771
 41
1.7852028639618129
 42
50.0
 43
0.0
 44
0.0
 50
0.0
 51
0.0
 71
     0
 72
  1500
 73
     1
 74
     0
 75
     0
 76
     0
 77
     0
 78
     0
  0
ENDTAB
  0
TABLE
  2
LTYPE
 70
     6
  0
LTYPE
  2
CONTINUOUS
 70
     0
  3
Solid line
 72
    65
 73
     0
 40
0.0
  0
LTYPE
  2
PHANTOM2
 70
     0
  3
Phantom (.5x) ___ _ _ ___ _ _ ___ _ _ ___ _ _
 72
    65
 73
     6
 40
1.25
 49
0.625
 49
-0.125
 49
0.125
 49
-0.125
 49
0.125
 49
-0.125
  0
LTYPE
  2
VERDECKT
 70
     0
  3
Verdeckt __ __ __ __ __ __ __ __ __ __ __ __ __
 72
    65
 73
     2
 40
0.375
 49
0.25
 49
-0.125
  0
ENDTAB
  0
TABLE
  2
LAYER
 70
    15
  0
LAYER
  2
0
 70
     0
 62
     7
  6
CONTINUOUS
  0
LAYER
  2
VOLL
 70
     0
 62
     1
  6
CONTINUOUS
  0
LAYER
  2
STEMPEL
 70
     0
 62
     3
  6
CONTINUOUS
  0
LAYER
  2
DEFPOINTS
 70
     0
 62
     7
  6
CONTINUOUS
  0
LAYER
  2
ADSK_ASSOC_ENTITY_BACKUPS
 70
     1
 62
    -7
  6
CONTINUOUS
  0
ENDTAB
  0
TABLE
  2
STYLE
 70
     4
  0
STYLE
  2
STANDARD
 70
     0
 40
0.0
 41
0.8
 50
0.0
 71
     0
 42
3.5
  3
simplex.shx
  4

  0
STYLE
  2
GREEKS
 70
     0
 40
0.0
 41
0.8
 50
0.0
 71
     0
 42
2.5
  3
SIMPLEX.shx
  4

  0
ENDTAB
  0
TABLE
  2
VIEW
 70
     1
  0
ENDTAB
  0
TABLE
  2
UCS
 70
     0
  0
ENDTAB
  0
TABLE
  2
APPID
 70
    24
  0
APPID
  2
ACAD
 70
     0
  0
APPID
  2
ACAD_NAV_VCDISPLAY
 70
     0
  0
APPID
  2
ACAD_MLEADERVER
 70
     0
  0
APPID
  2
ACAD_EXEMPT_FROM_CAD_STANDARDS
 70
     0
  0
APPID
  2
ACAD_PSEXT
 70
     0
  0
APPID
  2
ACAECLAYERSTANDARD
 70
     0
  0
APPID
  2
ACAUTHENVIRON
 70
     0
  0
APPID
  2
ACCMTRANSPARENCY
 70
     0
  0
APPID
  2
ACAD_STEPID
 70
     0
  0
APPID
  2
ACSYNERGY
 70
     0
  0
APPID
  2
SYNERGY_BODY_TBR_ID
 70
     0
  0
APPID
  2
ACAD_VIEW_EDGE_ID
 70
     0
  0
APPID
  2
ACSYNERGYSKETCH
 70
     0
  0
APPID
  2
ACAD_MODELDOC_XFORM
 70
     0
  0
APPID
  2
ACAD_DSTYLE_DIMJAG
 70
     0
  0
APPID
  2
ACAD_DSTYLE_DIMTALN
 70
     0
  0
APPID
  2
ACADANNOMONITORALERTICONDI
 70
     0
  0
APPID
  2
ACAD_DIMASSOC_CALC_DIMLFAC
 70
     0
  0
APPID
  2
ACAD_DIMASSOC_DIMLFAC
 70
     0
  0
APPID
  2
ACAD_DIMASSOC_OVERRIDDEN_D
 70
     0
  0
APPID
  2
ACAD_DSTYLE_DIMRADIAL_EXTENSION
 70
     0
  0
APPID
  2
GRADIENTCOLOR1ACI
 70
     0
  0
APPID
  2
GRADIENTCOLOR2ACI
 70
     0
  0
APPID
  2
AcDbAttr
 70
     0
  0
ENDTAB
  0
TABLE
  2
DIMSTYLE
 70
     2
  0
DIMSTYLE
  2
STANDARD
 70
     0
  3

  4

  5

  6

  7

 40
1.0
 41
0.18
 42
0.0625
 43
0.38
 44
0.18
 45
0.0
 46
0.0
 47
0.0
 48
0.0
140
0.18
141
0.09
142
0.0
143
25.3999999999999986
144
1.0
145
0.0
146
1.0
147
0.09
 71
     0
 72
     0
 73
     1
 74
     1
 75
     0
 76
     0
 77
     0
 78
     0
170
     0
171
     2
172
     0
173
     0
174
     0
175
     0
176
     0
177
     0
178
     0
  0
ENDTAB
  0
ENDSEC
  0
SECTION
  2
BLOCKS
  0
BLOCK
  8
0
  2
$MODEL_SPACE
 70
     0
 10
0.0
 20
0.0
 30
0.0
  3
$MODEL_SPACE
  1

  0
ENDBLK
  5
36
  8
0
  0
BLOCK
 67
     1
  8
0
  2
$PAPER_SPACE
 70
     0
 10
0.0
 20
0.0
 30
0.0
  3
$PAPER_SPACE
  1

  0
ENDBLK
  5
34
 67
     1
  8
0
  0
BLOCK
  8
0
  2
*S2
 70
     1
 10
0.0
 20
0.0
 30
0.0
  3
*S2
  1

  0
ENDBLK
  5
B3A
  8
0
  0
BLOCK
  8
0
  2
A$C6C4EE574
 70
     0
 10
0.0
 20
0.0
 30
0.0
  3
A$C6C4EE574
  1

  0
CIRCLE
  5
1F87
  8
0
 10
129.7973054191288895
 20
97.1939330370280743
 30
0.0000000000000568
 40
33.651424205020362
  0
CIRCLE
  5
1F88
  8
0
 10
129.7973054191288895
 20
97.1939330370280743
 30
0.0000000000000284
 40
35.0
  0
CIRCLE
  5
1F89
  8
0
 10
129.7973054191288043
 20
97.1939330370280459
 30
0.0000000000000284
 40
44.5
  0
CIRCLE
  5
1F8A
  8
0
 10
129.7973054191288043
 20
97.1939330370280459
 30
0.0000000000000284
 40
51.0
  0
CIRCLE
  5
1F8B
  8
0
  6
VERDECKT
 62
     1
 10
129.7973054191288895
 20
97.1939330370280743
 30
0.0000000000000568
 40
35.0682242197709684
  0
CIRCLE
  5
1F8C
  8
0
  6
VERDECKT
 62
     1
 10
129.7973054191288895
 20
97.1939330370280743
 30
0.0000000000000284
 40
36.5
  0
CIRCLE
  5
1F8D
  8
0
  6
VERDECKT
 62
     1
 10
129.7973054191288895
 20
97.1939330370280743
 30
0.0000000000000284
 40
45.762615579272051
  0
ENDBLK
  5
1F8F
  8
0
  0
BLOCK
  8
0
  2
A$C0A1F70A1
 70
     0
 10
0.0
 20
0.0
 30
0.0
  3
A$C0A1F70A1
  1

  0
LINE
  5
1F93
  8
0
 10
94.7290811993580064
 20
-260.0350682550879924
 30
0.0000000000000577
 11
164.8655296388998863
 21
-260.0350682550879924
 31
0.0000000000000577
210
0.0
220
1.0
230
-0.0000000000000002
  0
LINE
  5
1F94
  8
0
 10
84.0346898398569238
 20
-150.8448842212060015
 30
0.0000000000000335
 11
175.5599209984009974
 21
-150.8448842212060015
 31
0.0000000000000335
210
0.0
220
1.0
230
-0.0000000000000002
  0
ARC
  5
1F95
  8
0
 10
-101.7973054191296001
 20
-250.4231118722240126
 30
0.0
 40
8.5000000000006661
210
0.0
220
-0.0000000000000002
230
-1.0
 50
350.8963774672729983
 51
359.9999999999993747
  0
ARC
  5
1F96
  8
0
 10
-157.7973054191282927
 20
-250.4231118722240126
 30
0.0
 40
8.5000000000006537
210
0.0
220
-0.0000000000000002
230
-1.0
 50
180.0000000000005116
 51
189.103622532726888
  0
LINE
  5
1F97
  8
0
 10
94.7290811993580633
 20
-260.0350682550879924
 30
0.0000000000000577
 11
93.4043730748094987
 21
-251.7679860907576028
 31
0.0000000000000559
210
0.0
220
1.0
230
-0.0000000000000002
  0
LINE
  5
1F98
  8
0
 10
164.8655296388998863
 20
-260.0350682550881061
 30
0.0000000000000577
 11
166.1902377634484083
 21
-251.7679860907576028
 31
0.0000000000000559
210
0.0
220
1.0
230
-0.0000000000000002
  0
LINE
  5
1F99
  8
0
 10
166.2973054191288895
 20
-167.6316588339473981
 30
0.0000000000000372
 11
166.2973054191288895
 21
-250.4231118722240979
 31
0.0000000000000556
210
0.0
220
1.0
230
-0.0000000000000002
  0
LINE
  5
1F9A
  8
0
 10
93.2973054191289748
 20
-167.6316588339473981
 30
0.0000000000000372
 11
93.2973054191289748
 21
-250.4231118722240979
 31
0.0000000000000556
210
0.0
220
1.0
230
-0.0000000000000002
  0
LINE
  5
1F9B
  8
0
 10
174.2973054191288895
 20
-150.0350682550881061
 30
0.0000000000000333
 11
175.5599209984009974
 21
-150.8448842212060015
 31
0.0000000000000335
210
0.0
220
1.0
230
-0.0000000000000002
  0
LINE
  5
1F9C
  8
0
 10
85.2973054191289748
 20
-150.0350682550881061
 30
0.0000000000000333
 11
84.0346898398569238
 21
-150.8448842212060015
 31
0.0000000000000335
210
0.0
220
1.0
230
-0.0000000000000002
  0
LINE
  5
1F9D
  8
0
 10
92.0312551752467272
 20
-163.3126403479853082
 30
0.0000000000000363
 11
84.0346898398568669
 21
-150.8448842212060015
 31
0.0000000000000335
210
0.0
220
1.0
230
-0.0000000000000002
  0
LINE
  5
1F9E
  8
0
 10
167.5633556630112082
 20
-163.3126403479853082
 30
0.0000000000000363
 11
175.5599209984009974
 21
-150.8448842212060015
 31
0.0000000000000335
210
0.0
220
1.0
230
-0.0000000000000002
  0
ARC
  5
1F9F
  8
0
 10
-174.2973054191294011
 20
-167.6316588339473128
 30
0.0
 40
8.0000000000004547
210
0.0
220
-0.0000000000000002
230
-1.0
 50
359.9999999999996021
 51
32.6752872483042722
  0
ARC
  5
1FA0
  8
0
 10
-85.2973054191285343
 20
-167.6316588339473128
 30
0.0
 40
8.0000000000004441
210
0.0
220
-0.0000000000000002
230
-1.0
 50
147.3247127516956141
 51
180.0000000000003979
  0
LINE
  5
1FA1
  8
0
 10
78.7973054191288611
 20
-50.0350682550879995
 30
0.0000000000000111
 11
180.7973054191288043
 21
-50.0350682550879995
 31
0.0000000000000111
210
0.0
220
1.0
230
-0.0000000000000002
  0
LINE
  5
1FA2
  8
0
 10
78.7973054191288611
 20
-150.0350682550881061
 30
0.0000000000000333
 11
180.7973054191288043
 21
-150.0350682550881061
 31
0.0000000000000333
210
0.0
220
1.0
230
-0.0000000000000002
  0
LINE
  5
1FA3
  8
0
 10
180.7973054191288043
 20
-50.0350682550879995
 30
0.0000000000000111
 11
180.7973054191288043
 21
-150.0350682550881061
 31
0.0000000000000333
210
0.0
220
1.0
230
-0.0000000000000002
  0
LINE
  5
1FA4
  8
0
 10
78.7973054191288611
 20
-50.0350682550879995
 30
0.0000000000000111
 11
78.7973054191288611
 21
-150.0350682550881061
 31
0.0000000000000333
210
0.0
220
1.0
230
-0.0000000000000002
  0
LINE
  5
1FA5
  8
0
  6
VERDECKT
 62
     1
 10
96.1458812141086128
 20
-259.7813387528909743
 30
0.0000000000000577
 11
163.4487296241493084
 21
-259.7813387528909743
 31
0.0000000000000577
210
0.0
220
1.0
230
-0.0000000000000002
  0
ARC
  5
1FA6
  8
0
  6
VERDECKT
 62
     1
 10
-154.7973054191338917
 20
-250.3277479552801879
 30
0.0
 40
9.9999999999950546
210
0.0
220
-0.0000000000000002
230
-1.0
 50
179.9999999999984084
 51
188.8296734186145045
  0
ARC
  5
1FA7
  8
0
  6
VERDECKT
 62
     1
 10
-104.7973054191311064
 20
-250.3277479552797899
 30
0.0
 40
10.00000000000216
210
0.0
220
-0.0000000000000002
230
-1.0
 50
351.1703265813891903
 51
359.9999999999989768
  0
LINE
  5
1FA8
  8
0
  6
VERDECKT
 62
     1
 10
96.1458812141086838
 20
-259.7813387528909743
 30
0.0000000000000577
 11
94.9158152418318224
 21
-251.8627241361961069
 31
0.0000000000000559
210
0.0
220
1.0
230
-0.0000000000000002
  0
LINE
  5
1FA9
  8
0
  6
VERDECKT
 62
     1
 10
163.4487296241493084
 20
-259.7813387528909743
 30
0.0000000000000577
 11
164.678795596426113
 21
-251.8627241361961069
 31
0.0000000000000559
210
0.0
220
1.0
230
-0.0000000000000002
  0
LINE
  5
1FAA
  8
0
  6
VERDECKT
 62
     1
 10
164.7973054191290032
 20
-167.6316588339473981
 30
0.0000000000000372
 11
164.7973054191290032
 21
-250.3277479552799036
 31
0.0000000000000556
210
0.0
220
1.0
230
-0.0000000000000002
  0
LINE
  5
1FAB
  8
0
  6
VERDECKT
 62
     1
 10
94.7973054191289748
 20
-167.6316588339473981
 30
0.0000000000000372
 11
94.7973054191289748
 21
-250.3277479552799036
 31
0.0000000000000556
210
0.0
220
1.0
230
-0.0000000000000002
  0
LINE
  5
1FAC
  8
0
  6
VERDECKT
 62
     1
 10
163.4487296241493084
 20
-259.7813387528909743
 30
0.0000000000000577
 11
164.8655296388998863
 21
-260.0350682550879924
 31
0.0000000000000577
210
0.0
220
1.0
230
-0.0000000000000002
  0
LINE
  5
1FAD
  8
0
  6
VERDECKT
 62
     1
 10
96.1458812141086128
 20
-259.7813387528909743
 30
0.0000000000000577
 11
94.7290811993580064
 21
-260.0350682550879924
 31
0.0000000000000577
210
0.0
220
1.0
230
-0.0000000000000002
  0
ARC
  5
1FAE
  8
0
  6
VERDECKT
 62
     1
 10
-174.2973054191301117
 20
-167.631658833947796
 30
0.0
 40
9.5000000000011084
210
0.0
220
-0.0000000000000002
230
-1.0
 50
0.0000000000025699
 51
32.675287248304933
  0
ARC
  5
1FAF
  8
0
  6
VERDECKT
 62
     1
 10
-85.2973054191278948
 20
-167.631658833947796
 30
0.0
 40
9.5000000000010996
210
0.0
220
-0.0000000000000002
230
-1.0
 50
147.3247127516949888
 51
179.9999999999974136
  0
LINE
  5
1FB0
  8
0
  6
VERDECKT
 62
     1
 10
93.2938707545186929
 20
-162.5028243818674127
 30
0.0000000000000361
 11
85.2973054191289464
 21
-150.0350682550881061
 31
0.0000000000000333
210
0.0
220
1.0
230
-0.0000000000000002
  0
LINE
  5
1FB1
  8
0
  6
VERDECKT
 62
     1
 10
166.300740083739214
 20
-162.5028243818674127
 30
0.0000000000000361
 11
174.2973054191288895
 21
-150.0350682550881061
 31
0.0000000000000333
210
0.0
220
1.0
230
-0.0000000000000002
  0
LINE
  5
1FB2
  8
0
  6
VERDECKT
 62
     1
 10
174.2973054191288043
 20
-50.0350682550879995
 30
0.0000000000000111
 11
174.2973054191288043
 21
-150.0350682550881061
 31
0.0000000000000333
210
0.0
220
1.0
230
-0.0000000000000002
  0
LINE
  5
1FB3
  8
0
  6
VERDECKT
 62
     1
 10
85.2973054191288611
 20
-50.0350682550879995
 30
0.0000000000000111
 11
85.2973054191288611
 21
-150.0350682550881061
 31
0.0000000000000333
210
0.0
220
1.0
230
-0.0000000000000002
  0
ENDBLK
  5
1FB5
  8
0
  0
ENDSEC
  0
SECTION
  2
ENTITIES
  0
TEXT
  5
8F
  8
VOLL
 10
78.076754716981128
 20
31.025947764705851
 30
0.0
 40
1.8
  1

  7
GREEKS
  0
INSERT
  5
B3C
  8
ADSK_ASSOC_ENTITY_BACKUPS
  2
*S2
 10
0.0
 20
0.0
 30
0.0
  0
INSERT
  5
1F90
  8
STEMPEL
  2
A$C6C4EE574
 10
125.8476571607030934
 20
-331.6049748793387266
 30
-32.1830564750806403
  0
INSERT
  5
1FB6
  8
STEMPEL
  2
A$C0A1F70A1
 10
125.5618190940489001
 20
109.3491831478931999
 30
-32.1830564750806616
  0
VIEWPORT
  5
928
 67
     1
  8
0
 10
104.9325357368027056
 20
148.4488398705011889
 30
0.0
 40
533.9969448798291296
 41
299.1239570917758783
 68
     1
 69
     1
1001
ACAD
1000
MVIEW
1002
{
1070
    16
1010
0.0
1020
0.0
1030
0.0
1010
0.0
1020
0.0
1030
1.0
1040
0.0
1040
299.1239570917758783
1040
104.9325357368027056
1040
148.4488398705011889
1040
50.0
1040
0.0
1040
0.0
1070
     0
1070
  1500
1070
     1
1070
     1
1070
     0
1070
     0
1070
     0
1070
     0
1040
0.0
1040
0.0
1040
0.0
1040
10.0
1040
10.0
1040
10.0
1040
10.0
1070
     0
1002
{
1002
}
1002
}
  0
ENDSEC
  0
EOF
