  0
SECTION
  2
HEADER
  9
$ACADVER
  1
AC1009
  9
$INSBASE
 10
0.0
 20
0.0
 30
0.0
  9
$EXTMIN
 10
192.8259960098766896
 20
-247.3512298748053979
 30
-31.3330307118169387
  9
$EXTMAX
 10
268.9259960098769966
 20
60.3179545165744386
 30
-31.3330307118168605
  9
$LIMMIN
 10
0.0
 20
0.0
  9
$LIMMAX
 10
210.0
 20
297.0
  9
$ORTHOMODE
 70
     1
  9
$REGENMODE
 70
     1
  9
$FILLMODE
 70
     1
  9
$QTEXTMODE
 70
     0
  9
$MIRRTEXT
 70
     1
  9
$DRAGMODE
 70
     2
  9
$LTSCALE
 40
10.0
  9
$OSMODE
 70
  2495
  9
$ATTMODE
 70
     1
  9
$TEXTSIZE
 40
3.5
  9
$TRACEWID
 40
0.5
  9
$TEXTSTYLE
  7
STANDARD
  9
$CLAYER
  8
STEMPEL
  9
$CELTYPE
  6
BYLAYER
  9
$CECOLOR
 62
   256
  9
$DIMSCALE
 40
1.0
  9
$DIMASZ
 40
3.5
  9
$DIMEXO
 40
1.0
  9
$DIMDLI
 40
7.0
  9
$DIMRND
 40
0.0
  9
$DIMDLE
 40
0.0
  9
$DIMEXE
 40
1.0
  9
$DIMTP
 40
0.0
  9
$DIMTM
 40
0.0
  9
$DIMTXT
 40
3.5
  9
$DIMCEN
 40
1.5
  9
$DIMTSZ
 40
0.0
  9
$DIMTOL
 70
     0
  9
$DIMLIM
 70
     0
  9
$DIMTIH
 70
     0
  9
$DIMTOH
 70
     0
  9
$DIMSE1
 70
     0
  9
$DIMSE2
 70
     0
  9
$DIMTAD
 70
     1
  9
$DIMZIN
 70
     8
  9
$DIMBLK
  1

  9
$DIMASO
 70
     1
  9
$DIMSHO
 70
     0
  9
$DIMPOST
  1

  9
$DIMAPOST
  1

  9
$DIMALT
 70
     0
  9
$DIMALTD
 70
     2
  9
$DIMALTF
 40
25.3999999999999986
  9
$DIMLFAC
 40
2.0
  9
$DIMTOFL
 70
     1
  9
$DIMTVP
 40
0.0
  9
$DIMTIX
 70
     0
  9
$DIMSOXD
 70
     0
  9
$DIMSAH
 70
     0
  9
$DIMBLK1
  1

  9
$DIMBLK2
  1

  9
$DIMSTYLE
  2
STANDARD
  9
$DIMCLRD
 70
     0
  9
$DIMCLRE
 70
     0
  9
$DIMCLRT
 70
     1
  9
$DIMTFAC
 40
0.5
  9
$DIMGAP
 40
1.5
  9
$LUNITS
 70
     2
  9
$LUPREC
 70
     2
  9
$SKETCHINC
 40
1.0
  9
$FILLETRAD
 40
15.0
  9
$AUNITS
 70
     0
  9
$AUPREC
 70
     0
  9
$MENU
  1
ACAD
  9
$ELEVATION
 40
0.0
  9
$PELEVATION
 40
0.0
  9
$THICKNESS
 40
0.0
  9
$LIMCHECK
 70
     0
  9
$BLIPMODE
 70
     0
  9
$CHAMFERA
 40
2.0
  9
$CHAMFERB
 40
2.0
  9
$SKPOLY
 70
     0
  9
$TDCREATE
 40
2455397.8646990740671754
  9
$TDUPDATE
 40
2459627.4082291671074927
  9
$TDINDWG
 40
0.182642963
  9
$TDUSRTIMER
 40
0.182642963
  9
$USRTIMER
 70
     1
  9
$ANGBASE
 50
0.0
  9
$ANGDIR
 70
     0
  9
$PDMODE
 70
     0
  9
$PDSIZE
 40
0.0
  9
$PLINEWID
 40
0.0
  9
$COORDS
 70
     1
  9
$SPLFRAME
 70
     0
  9
$SPLINETYPE
 70
     6
  9
$SPLINESEGS
 70
     8
  9
$ATTDIA
 70
     1
  9
$ATTREQ
 70
     1
  9
$HANDLING
 70
     1
  9
$HANDSEED
  5
1D3E
  9
$SURFTAB1
 70
     6
  9
$SURFTAB2
 70
     6
  9
$SURFTYPE
 70
     6
  9
$SURFU
 70
     6
  9
$SURFV
 70
     6
  9
$UCSNAME
  2

  9
$UCSORG
 10
0.0
 20
0.0
 30
0.0
  9
$UCSXDIR
 10
1.0
 20
0.0
 30
0.0
  9
$UCSYDIR
 10
0.0
 20
1.0
 30
0.0
  9
$PUCSNAME
  2

  9
$PUCSORG
 10
0.0
 20
0.0
 30
0.0
  9
$PUCSXDIR
 10
1.0
 20
0.0
 30
0.0
  9
$PUCSYDIR
 10
0.0
 20
1.0
 30
0.0
  9
$USERI1
 70
     0
  9
$USERI2
 70
     0
  9
$USERI3
 70
     0
  9
$USERI4
 70
     0
  9
$USERI5
 70
     0
  9
$USERR1
 40
0.0
  9
$USERR2
 40
0.0
  9
$USERR3
 40
0.0
  9
$USERR4
 40
0.0
  9
$USERR5
 40
0.0
  9
$WORLDVIEW
 70
     1
  9
$SHADEDGE
 70
     3
  9
$SHADEDIF
 70
    70
  9
$TILEMODE
 70
     1
  9
$MAXACTVP
 70
    16
  9
$PLIMCHECK
 70
     0
  9
$PEXTMIN
 10
-0.0770747576191298
 20
-57.2808220381965612
 30
-0.0000000000000058
  9
$PEXTMAX
 10
209.9421501429885097
 20
296.9650567847872935
 30
0.0000000000000104
  9
$PLIMMIN
 10
-0.0674642631973264
 20
-0.0511601294987543
  9
$PLIMMAX
 10
209.9325357368026914
 20
296.9488398705012742
  9
$UNITMODE
 70
     0
  9
$VISRETAIN
 70
     0
  9
$PLINEGEN
 70
     0
  9
$PSLTSCALE
 70
     0
  0
ENDSEC
  0
SECTION
  2
TABLES
  0
TABLE
  2
VPORT
 70
     1
  0
VPORT
  2
*ACTIVE
 70
     0
 10
0.0
 20
0.0
 11
1.0
 21
1.0
 12
0.9770170987201822
 22
-99.4566733167116723
 13
0.0
 23
0.0
 14
1.0
 24
1.0
 15
10.0
 25
10.0
 16
-0.0000000000001705
 26
0.0
 36
801.7462238441214595
 17
229.8989789111566893
 27
5.9400356375961962
 37
-15.6665153559084391
 40
309.8694407755851898
 41
1.7852028639618129
 42
50.0
 43
0.0
 44
0.0
 50
0.0
 51
0.0
 71
     0
 72
  1500
 73
     1
 74
     0
 75
     0
 76
     0
 77
     0
 78
     0
  0
ENDTAB
  0
TABLE
  2
LTYPE
 70
     6
  0
LTYPE
  2
CONTINUOUS
 70
     0
  3
Solid line
 72
    65
 73
     0
 40
0.0
  0
LTYPE
  2
PHANTOM2
 70
     0
  3
Phantom (.5x) ___ _ _ ___ _ _ ___ _ _ ___ _ _
 72
    65
 73
     6
 40
1.25
 49
0.625
 49
-0.125
 49
0.125
 49
-0.125
 49
0.125
 49
-0.125
  0
LTYPE
  2
VERDECKT
 70
     0
  3
Verdeckt __ __ __ __ __ __ __ __ __ __ __ __ __
 72
    65
 73
     2
 40
0.375
 49
0.25
 49
-0.125
  0
ENDTAB
  0
TABLE
  2
LAYER
 70
    15
  0
LAYER
  2
0
 70
     0
 62
     7
  6
CONTINUOUS
  0
LAYER
  2
VOLL
 70
     0
 62
     1
  6
CONTINUOUS
  0
LAYER
  2
STEMPEL
 70
     0
 62
     3
  6
CONTINUOUS
  0
LAYER
  2
DEFPOINTS
 70
     0
 62
     7
  6
CONTINUOUS
  0
LAYER
  2
ADSK_ASSOC_ENTITY_BACKUPS
 70
     1
 62
    -7
  6
CONTINUOUS
  0
ENDTAB
  0
TABLE
  2
STYLE
 70
     4
  0
STYLE
  2
STANDARD
 70
     0
 40
0.0
 41
0.8
 50
0.0
 71
     0
 42
3.5
  3
simplex.shx
  4

  0
STYLE
  2
GREEKS
 70
     0
 40
0.0
 41
0.8
 50
0.0
 71
     0
 42
2.5
  3
SIMPLEX.shx
  4

  0
ENDTAB
  0
TABLE
  2
VIEW
 70
     1
  0
ENDTAB
  0
TABLE
  2
UCS
 70
     0
  0
ENDTAB
  0
TABLE
  2
APPID
 70
    22
  0
APPID
  2
ACAD
 70
     0
  0
APPID
  2
ACAD_NAV_VCDISPLAY
 70
     0
  0
APPID
  2
ACAD_MLEADERVER
 70
     0
  0
APPID
  2
ACAD_EXEMPT_FROM_CAD_STANDARDS
 70
     0
  0
APPID
  2
ACAD_PSEXT
 70
     0
  0
APPID
  2
ACAECLAYERSTANDARD
 70
     0
  0
APPID
  2
ACAUTHENVIRON
 70
     0
  0
APPID
  2
ACCMTRANSPARENCY
 70
     0
  0
APPID
  2
ACAD_STEPID
 70
     0
  0
APPID
  2
ACSYNERGY
 70
     0
  0
APPID
  2
SYNERGY_BODY_TBR_ID
 70
     0
  0
APPID
  2
ACAD_VIEW_EDGE_ID
 70
     0
  0
APPID
  2
ACSYNERGYSKETCH
 70
     0
  0
APPID
  2
ACAD_MODELDOC_XFORM
 70
     0
  0
APPID
  2
ACAD_DSTYLE_DIMJAG
 70
     0
  0
APPID
  2
ACAD_DSTYLE_DIMTALN
 70
     0
  0
APPID
  2
ACADANNOMONITORALERTICONDI
 70
     0
  0
APPID
  2
ACAD_DIMASSOC_CALC_DIMLFAC
 70
     0
  0
APPID
  2
ACAD_DIMASSOC_DIMLFAC
 70
     0
  0
APPID
  2
ACAD_DIMASSOC_OVERRIDDEN_D
 70
     0
  0
APPID
  2
ACAD_DSTYLE_DIMRADIAL_EXTENSION
 70
     0
  0
APPID
  2
AcDbAttr
 70
     0
  0
ENDTAB
  0
TABLE
  2
DIMSTYLE
 70
     2
  0
DIMSTYLE
  2
STANDARD
 70
     0
  3

  4

  5

  6

  7

 40
1.0
 41
0.18
 42
0.0625
 43
0.38
 44
0.18
 45
0.0
 46
0.0
 47
0.0
 48
0.0
140
0.18
141
0.09
142
0.0
143
25.3999999999999986
144
1.0
145
0.0
146
1.0
147
0.09
 71
     0
 72
     0
 73
     1
 74
     1
 75
     0
 76
     0
 77
     0
 78
     0
170
     0
171
     2
172
     0
173
     0
174
     0
175
     0
176
     0
177
     0
178
     0
  0
ENDTAB
  0
ENDSEC
  0
SECTION
  2
BLOCKS
  0
BLOCK
  8
0
  2
$MODEL_SPACE
 70
     0
 10
0.0
 20
0.0
 30
0.0
  3
$MODEL_SPACE
  1

  0
ENDBLK
  5
36
  8
0
  0
BLOCK
 67
     1
  8
0
  2
$PAPER_SPACE
 70
     0
 10
0.0
 20
0.0
 30
0.0
  3
$PAPER_SPACE
  1

  0
ENDBLK
  5
34
 67
     1
  8
0
  0
BLOCK
  8
0
  2
*S2
 70
     1
 10
0.0
 20
0.0
 30
0.0
  3
*S2
  1

  0
ENDBLK
  5
B3A
  8
0
  0
BLOCK
  8
0
  2
A$C2EE49F9D
 70
     0
 10
0.0
 20
0.0
 30
0.0
  3
A$C2EE49F9D
  1

  0
CIRCLE
  5
1CBA
  8
0
 10
129.7973054191288043
 20
97.1939330370280032
 30
0.0000000000000284
 40
29.2099999999999902
  0
CIRCLE
  5
1CBB
  8
0
 10
129.7973054191288043
 20
97.1939330370280032
 30
0.0000000000000284
 40
38.0500000000000185
  0
CIRCLE
  5
1CBC
  8
0
 10
129.7973054191288043
 20
97.193933037027989
 30
0.0000000000000568
 40
24.3000906917927715
  0
CIRCLE
  5
1CBD
  8
0
 10
129.7973054191288895
 20
97.1939330370280032
 30
0.0000000000000284
 40
25.0000000000001315
  0
CIRCLE
  5
1CBE
  8
0
  6
VERDECKT
 62
     1
 10
129.7973054191288043
 20
97.193933037027989
 30
0.0000000000000568
 40
25.8058204481076316
  0
CIRCLE
  5
1CBF
  8
0
  6
VERDECKT
 62
     1
 10
129.7973054191288895
 20
97.1939330370280032
 30
0.0000000000000284
 40
26.5000000000001315
  0
CIRCLE
  5
1CC0
  8
0
  6
VERDECKT
 62
     1
 10
129.7973054191288895
 20
97.1939330370280032
 30
0.0000000000000284
 40
30.5374133245803883
  0
ENDBLK
  5
1CC2
  8
0
  0
BLOCK
  8
0
  2
A$C20316901
 70
     0
 10
0.0
 20
0.0
 30
0.0
  3
A$C20316901
  1

  0
LINE
  5
1CC6
  8
0
 10
91.7473054191287929
 20
-50.0350682550880634
 30
0.0000000000000111
 11
167.8473054191289009
 21
-50.0350682550880634
 31
0.0000000000000111
210
0.0
220
1.0
230
-0.0000000000000002
  0
LINE
  5
1CC7
  8
0
 10
91.7473054191287929
 20
-150.0350682550879071
 30
0.0000000000000333
 11
167.8473054191289009
 21
-150.0350682550879071
 31
0.0000000000000333
210
0.0
220
1.0
230
-0.0000000000000002
  0
LINE
  5
1CC8
  8
0
 10
167.8473054191289009
 20
-50.0350682550880634
 30
0.0000000000000111
 11
167.8473054191289009
 21
-150.0350682550879071
 31
0.0000000000000333
210
0.0
220
1.0
230
-0.0000000000000002
  0
LINE
  5
1CC9
  8
0
 10
91.7473054191288213
 20
-50.0350682550880421
 30
0.0000000000000111
 11
91.7473054191287645
 21
-150.0350682550879071
 31
0.0000000000000333
210
0.0
220
1.0
230
-0.0000000000000002
  0
LINE
  5
1CCA
  8
0
 10
103.9914849710211939
 20
-260.0350682550879924
 30
0.0000000000000577
 11
155.6031258672365141
 21
-260.0350682550879924
 31
0.0000000000000577
210
0.0
220
1.0
230
-0.0000000000000002
  0
LINE
  5
1CCB
  8
0
 10
99.2598920945486043
 20
-150.7336195171484974
 30
0.0000000000000335
 11
160.3347187437092884
 21
-150.7336195171484974
 31
0.0000000000000335
210
0.0
220
1.0
230
-0.0000000000000002
  0
ARC
  5
1CCC
  8
0
 10
-109.7973054191361939
 20
-251.8167635405438034
 30
0.0
 40
6.5000000000073603
210
0.0
220
-0.0000000000000002
230
-1.0
 50
355.0000000000026148
 51
359.9999999999973284
  0
ARC
  5
1CCD
  8
0
 10
-149.7973054191440099
 20
-251.8167635405445992
 30
0.0
 40
6.49999999998502
210
0.0
220
-0.0000000000000002
230
-1.0
 50
179.9999999999957083
 51
185.0000000000075033
  0
LINE
  5
1CCE
  8
0
 10
103.9914849710211939
 20
-260.0350682550879924
 30
0.0000000000000577
 11
103.3220398815324046
 21
-252.3832758684038993
 31
0.000000000000056
210
0.0
220
1.0
230
-0.0000000000000002
  0
LINE
  5
1CCF
  8
0
 10
155.6031258672365141
 20
-260.0350682550879924
 30
0.0000000000000577
 11
156.2725709567253034
 21
-252.3832758684038993
 31
0.000000000000056
210
0.0
220
1.0
230
-0.0000000000000002
  0
LINE
  5
1CD0
  8
0
 10
156.2973054191290885
 20
-160.3821736223439132
 30
0.0000000000000356
 11
156.2973054191290885
 21
-251.8167635405440876
 31
0.0000000000000559
210
0.0
220
1.0
230
-0.0000000000000002
  0
LINE
  5
1CD1
  8
0
 10
103.2973054191288043
 20
-160.3821736223439132
 30
0.0000000000000356
 11
103.2973054191289037
 21
-251.8167635405440876
 31
0.0000000000000559
210
0.0
220
1.0
230
-0.0000000000000002
  0
LINE
  5
1CD2
  8
0
 10
159.0073054191288975
 20
-150.0350682550879924
 30
0.0000000000000333
 11
160.3347187437092884
 21
-150.7336195171484974
 31
0.0000000000000335
210
0.0
220
1.0
230
-0.0000000000000002
  0
LINE
  5
1CD3
  8
0
 10
100.5873054191289953
 20
-150.0350682550879924
 30
0.0000000000000333
 11
99.2598920945485759
 21
-150.7336195171484974
 31
0.0000000000000335
210
0.0
220
1.0
230
-0.0000000000000002
  0
LINE
  5
1CD4
  8
0
 10
102.3768431502248006
 20
-156.6565668913549985
 30
0.0000000000000348
 11
99.2598920945486327
 21
-150.7336195171484974
 31
0.0000000000000335
210
0.0
220
1.0
230
-0.0000000000000002
  0
LINE
  5
1CD5
  8
0
 10
157.2177676880330921
 20
-156.6565668913549985
 30
0.0000000000000348
 11
160.3347187437092032
 21
-150.7336195171484974
 31
0.0000000000000335
210
0.0
220
1.0
230
-0.0000000000000002
  0
ARC
  5
1CD6
  8
0
 10
-164.297305419129799
 20
-160.3821736223439132
 30
0.0
 40
8.0000000000007372
210
0.0
220
-0.0000000000000002
230
-1.0
 50
0.0
 51
27.7555887319437815
  0
ARC
  5
1CD7
  8
0
 10
-95.2973054191279232
 20
-160.3821736223441121
 30
0.0
 40
8.0000000000009166
210
0.0
220
-0.0000000000000002
230
-1.0
 50
152.2444112680560124
 51
179.9999999999990052
  0
LINE
  5
1CD8
  8
0
  6
VERDECKT
 62
     1
 10
159.0073054191288975
 20
-50.0350682550879995
 30
0.0000000000000111
 11
159.0073054191288122
 21
-150.0350682550879071
 31
0.0000000000000333
210
0.0
220
1.0
230
-0.0000000000000002
  0
LINE
  5
1CD9
  8
0
  6
VERDECKT
 62
     1
 10
100.5873054191287963
 20
-50.0350682550879924
 30
0.0000000000000111
 11
100.5873054191287963
 21
-150.0350682550879071
 31
0.0000000000000333
210
0.0
220
1.0
230
-0.0000000000000002
  0
LINE
  5
1CDA
  8
0
  6
VERDECKT
 62
     1
 10
105.4972147273361003
 20
-260.0350682550879924
 30
0.0000000000000577
 11
104.8353584382114008
 21
-252.4700162534795993
 31
0.0000000000000561
210
0.0
220
1.0
230
-0.0000000000000002
  0
LINE
  5
1CDB
  8
0
  6
VERDECKT
 62
     1
 10
154.0973961109216077
 20
-260.0350682550879924
 30
0.0000000000000577
 11
154.7592524000463072
 21
-252.4700162534795993
 31
0.0000000000000561
210
0.0
220
1.0
230
-0.0000000000000002
  0
ARC
  5
1CDC
  8
0
  6
VERDECKT
 62
     1
 10
-114.7973054191241999
 20
-251.5984588260035082
 30
0.0
 40
9.9999999999953388
210
0.0
220
-0.0000000000000002
230
-1.0
 50
355.0000000000002274
 51
0.0000000000012977
  0
ARC
  5
1CDD
  8
0
  6
VERDECKT
 62
     1
 10
-144.7973054191334938
 20
-251.5984588260035082
 30
0.0
 40
9.9999999999953673
210
0.0
220
-0.0000000000000002
230
-1.0
 50
179.9999999999986073
 51
184.9999999999996874
  0
ARC
  5
1CDE
  8
0
  6
VERDECKT
 62
     1
 10
-164.2973054191311064
 20
-160.3821736223443963
 30
0.0
 40
9.5000000000020464
210
0.0
220
-0.0000000000000002
230
-1.0
 50
0.0000000000025699
 51
27.7555887319430887
  0
ARC
  5
1CDF
  8
0
  6
VERDECKT
 62
     1
 10
-95.2973054191267863
 20
-160.3821736223443963
 30
0.0
 40
9.5000000000020588
210
0.0
220
-0.0000000000000002
230
-1.0
 50
152.2444112680566093
 51
179.999999999997101
  0
LINE
  5
1CE0
  8
0
  6
VERDECKT
 62
     1
 10
103.7042564748052058
 20
-155.9580156292944935
 30
0.0000000000000346
 11
100.5873054191290947
 21
-150.0350682550879924
 31
0.0000000000000333
210
0.0
220
1.0
230
-0.0000000000000002
  0
LINE
  5
1CE1
  8
0
  6
VERDECKT
 62
     1
 10
155.8903543634525874
 20
-155.9580156292944935
 30
0.0000000000000346
 11
159.0073054191288122
 21
-150.0350682550879924
 31
0.0000000000000333
210
0.0
220
1.0
230
-0.0000000000000002
  0
LINE
  5
1CE2
  8
0
  6
VERDECKT
 62
     1
 10
154.7973054191290885
 20
-160.3821736223439132
 30
0.0000000000000356
 11
154.7973054191290885
 21
-251.5984588260033092
 31
0.0000000000000559
210
0.0
220
1.0
230
-0.0000000000000002
  0
LINE
  5
1CE3
  8
0
  6
VERDECKT
 62
     1
 10
104.7973054191288043
 20
-160.3821736223439132
 30
0.0000000000000356
 11
104.7973054191289037
 21
-251.5984588260033092
 31
0.0000000000000559
210
0.0
220
1.0
230
-0.0000000000000002
  0
ENDBLK
  5
1CE5
  8
0
  0
ENDSEC
  0
SECTION
  2
ENTITIES
  0
TEXT
  5
8F
  8
VOLL
 10
78.076754716981128
 20
31.025947764705851
 30
0.0
 40
1.8
  1

  7
GREEKS
  0
INSERT
  5
B3C
  8
ADSK_ASSOC_ENTITY_BACKUPS
  2
*S2
 10
0.0
 20
0.0
 30
0.0
  0
INSERT
  5
1CC3
  8
STEMPEL
  2
A$C2EE49F9D
 10
101.0786905907478967
 20
-306.495162911833404
 30
-31.3330307118169209
  0
INSERT
  5
1CE6
  8
STEMPEL
  2
A$C20316901
 10
101.0786905907478967
 20
110.3530227716623955
 30
-31.3330307118169493
  0
VIEWPORT
  5
928
 67
     1
  8
0
 10
273.3097021126329196
 20
114.9134290199081931
 30
0.0
 40
820.8766383430398719
 41
459.8226089114087927
 68
     1
 69
     1
1001
ACAD
1000
MVIEW
1002
{
1070
    16
1010
0.0
1020
0.0
1030
0.0
1010
0.0
1020
0.0
1030
1.0
1040
0.0
1040
459.8226089114087927
1040
273.3097021126329196
1040
114.9134290199081931
1040
50.0
1040
0.0
1040
0.0
1070
     0
1070
  1500
1070
     1
1070
     1
1070
     0
1070
     0
1070
     0
1070
     0
1040
0.0
1040
0.0
1040
0.0
1040
10.0
1040
10.0
1040
10.0
1040
10.0
1070
     0
1002
{
1002
}
1002
}
  0
ENDSEC
  0
EOF
