  0
SECTION
  2
HEADER
  9
$ACADVER
  1
AC1009
  9
$INSBASE
 10
0.0
 20
0.0
 30
0.0
  9
$EXTMIN
 10
194.5764789301161954
 20
-232.3045677755420968
 30
-18.3752631442369996
  9
$EXTMAX
 10
258.0989566787603167
 20
67.1859272940523624
 30
-18.3738612870835816
  9
$LIMMIN
 10
0.0
 20
0.0
  9
$LIMMAX
 10
210.0
 20
297.0
  9
$ORTHOMODE
 70
     1
  9
$REGENMODE
 70
     1
  9
$FILLMODE
 70
     1
  9
$QTEXTMODE
 70
     0
  9
$MIRRTEXT
 70
     1
  9
$DRAGMODE
 70
     2
  9
$LTSCALE
 40
10.0
  9
$OSMODE
 70
  2495
  9
$ATTMODE
 70
     1
  9
$TEXTSIZE
 40
3.5
  9
$TRACEWID
 40
0.5
  9
$TEXTSTYLE
  7
STANDARD
  9
$CLAYER
  8
STEMPEL
  9
$CELTYPE
  6
BYLAYER
  9
$CECOLOR
 62
   256
  9
$DIMSCALE
 40
1.0
  9
$DIMASZ
 40
3.5
  9
$DIMEXO
 40
1.0
  9
$DIMDLI
 40
7.0
  9
$DIMRND
 40
0.0
  9
$DIMDLE
 40
0.0
  9
$DIMEXE
 40
1.0
  9
$DIMTP
 40
0.0
  9
$DIMTM
 40
0.0
  9
$DIMTXT
 40
3.5
  9
$DIMCEN
 40
1.5
  9
$DIMTSZ
 40
0.0
  9
$DIMTOL
 70
     0
  9
$DIMLIM
 70
     0
  9
$DIMTIH
 70
     0
  9
$DIMTOH
 70
     0
  9
$DIMSE1
 70
     0
  9
$DIMSE2
 70
     0
  9
$DIMTAD
 70
     1
  9
$DIMZIN
 70
     8
  9
$DIMBLK
  1

  9
$DIMASO
 70
     1
  9
$DIMSHO
 70
     0
  9
$DIMPOST
  1

  9
$DIMAPOST
  1

  9
$DIMALT
 70
     0
  9
$DIMALTD
 70
     2
  9
$DIMALTF
 40
25.3999999999999986
  9
$DIMLFAC
 40
2.0
  9
$DIMTOFL
 70
     1
  9
$DIMTVP
 40
0.0
  9
$DIMTIX
 70
     0
  9
$DIMSOXD
 70
     0
  9
$DIMSAH
 70
     0
  9
$DIMBLK1
  1

  9
$DIMBLK2
  1

  9
$DIMSTYLE
  2
STANDARD
  9
$DIMCLRD
 70
     0
  9
$DIMCLRE
 70
     0
  9
$DIMCLRT
 70
     1
  9
$DIMTFAC
 40
0.5
  9
$DIMGAP
 40
1.5
  9
$LUNITS
 70
     2
  9
$LUPREC
 70
     2
  9
$SKETCHINC
 40
1.0
  9
$FILLETRAD
 40
15.0
  9
$AUNITS
 70
     0
  9
$AUPREC
 70
     0
  9
$MENU
  1
ACAD
  9
$ELEVATION
 40
0.0
  9
$PELEVATION
 40
0.0
  9
$THICKNESS
 40
0.0
  9
$LIMCHECK
 70
     0
  9
$BLIPMODE
 70
     0
  9
$CHAMFERA
 40
2.0
  9
$CHAMFERB
 40
2.0
  9
$SKPOLY
 70
     0
  9
$TDCREATE
 40
2455397.8646990740671754
  9
$TDUPDATE
 40
2459627.3998726848512888
  9
$TDINDWG
 40
0.1931175
  9
$TDUSRTIMER
 40
0.1931175
  9
$USRTIMER
 70
     1
  9
$ANGBASE
 50
0.0
  9
$ANGDIR
 70
     0
  9
$PDMODE
 70
     0
  9
$PDSIZE
 40
0.0
  9
$PLINEWID
 40
0.0
  9
$COORDS
 70
     1
  9
$SPLFRAME
 70
     0
  9
$SPLINETYPE
 70
     6
  9
$SPLINESEGS
 70
     8
  9
$ATTDIA
 70
     1
  9
$ATTREQ
 70
     1
  9
$HANDLING
 70
     1
  9
$HANDSEED
  5
1C26
  9
$SURFTAB1
 70
     6
  9
$SURFTAB2
 70
     6
  9
$SURFTYPE
 70
     6
  9
$SURFU
 70
     6
  9
$SURFV
 70
     6
  9
$UCSNAME
  2

  9
$UCSORG
 10
0.0
 20
0.0
 30
0.0
  9
$UCSXDIR
 10
1.0
 20
0.0
 30
0.0
  9
$UCSYDIR
 10
0.0
 20
1.0
 30
0.0
  9
$PUCSNAME
  2

  9
$PUCSORG
 10
0.0
 20
0.0
 30
0.0
  9
$PUCSXDIR
 10
1.0
 20
0.0
 30
0.0
  9
$PUCSYDIR
 10
0.0
 20
1.0
 30
0.0
  9
$USERI1
 70
     0
  9
$USERI2
 70
     0
  9
$USERI3
 70
     0
  9
$USERI4
 70
     0
  9
$USERI5
 70
     0
  9
$USERR1
 40
0.0
  9
$USERR2
 40
0.0
  9
$USERR3
 40
0.0
  9
$USERR4
 40
0.0
  9
$USERR5
 40
0.0
  9
$WORLDVIEW
 70
     1
  9
$SHADEDGE
 70
     3
  9
$SHADEDIF
 70
    70
  9
$TILEMODE
 70
     1
  9
$MAXACTVP
 70
    16
  9
$PLIMCHECK
 70
     0
  9
$PEXTMIN
 10
1.0000000000000000E+20
 20
1.0000000000000000E+20
 30
1.0000000000000000E+20
  9
$PEXTMAX
 10
-1.0000000000000000E+20
 20
-1.0000000000000000E+20
 30
-1.0000000000000000E+20
  9
$PLIMMIN
 10
-0.0674642631973264
 20
-0.0511601294987543
  9
$PLIMMAX
 10
209.9325357368026914
 20
296.9488398705012742
  9
$UNITMODE
 70
     0
  9
$VISRETAIN
 70
     0
  9
$PLINEGEN
 70
     0
  9
$PSLTSCALE
 70
     0
  0
ENDSEC
  0
SECTION
  2
TABLES
  0
TABLE
  2
VPORT
 70
     1
  0
VPORT
  2
*ACTIVE
 70
     0
 10
0.0
 20
0.0
 11
1.0
 21
1.0
 12
0.5163973998934069
 22
-95.6267035554025142
 13
0.0
 23
0.0
 14
1.0
 24
1.0
 15
10.0
 25
10.0
 16
-0.0000000000001705
 26
0.0
 36
793.1062278141126853
 17
225.8213204045447924
 27
13.0673833146576595
 37
-9.1873512178006056
 40
301.6322626147882033
 41
1.7852028639618129
 42
50.0
 43
0.0
 44
0.0
 50
0.0
 51
0.0
 71
     0
 72
  1500
 73
     1
 74
     0
 75
     0
 76
     0
 77
     0
 78
     0
  0
ENDTAB
  0
TABLE
  2
LTYPE
 70
     3
  0
LTYPE
  2
CONTINUOUS
 70
     0
  3
Solid line
 72
    65
 73
     0
 40
0.0
  0
LTYPE
  2
PHANTOM2
 70
     0
  3
Phantom (.5x) ___ _ _ ___ _ _ ___ _ _ ___ _ _
 72
    65
 73
     6
 40
1.25
 49
0.625
 49
-0.125
 49
0.125
 49
-0.125
 49
0.125
 49
-0.125
  0
LTYPE
  2
VERDECKT
 70
     0
  3
Verdeckt __ __ __ __ __ __ __ __ __ __ __ __ __
 72
    65
 73
     2
 40
0.375
 49
0.25
 49
-0.125
  0
ENDTAB
  0
TABLE
  2
LAYER
 70
     7
  0
LAYER
  2
0
 70
     0
 62
     7
  6
CONTINUOUS
  0
LAYER
  2
VOLL
 70
     0
 62
     1
  6
CONTINUOUS
  0
LAYER
  2
STEMPEL
 70
     0
 62
     3
  6
CONTINUOUS
  0
LAYER
  2
DEFPOINTS
 70
     0
 62
     7
  6
CONTINUOUS
  0
LAYER
  2
ADSK_ASSOC_ENTITY_BACKUPS
 70
     1
 62
    -7
  6
CONTINUOUS
  0
ENDTAB
  0
TABLE
  2
STYLE
 70
     3
  0
STYLE
  2
STANDARD
 70
     0
 40
0.0
 41
0.8
 50
0.0
 71
     0
 42
3.5
  3
simplex.shx
  4

  0
STYLE
  2
GREEKS
 70
     0
 40
0.0
 41
0.8
 50
0.0
 71
     0
 42
2.5
  3
SIMPLEX.shx
  4

  0
ENDTAB
  0
TABLE
  2
VIEW
 70
     0
  0
ENDTAB
  0
TABLE
  2
UCS
 70
     0
  0
ENDTAB
  0
TABLE
  2
APPID
 70
    21
  0
APPID
  2
ACAD
 70
     0
  0
APPID
  2
ACAD_NAV_VCDISPLAY
 70
     0
  0
APPID
  2
ACAD_MLEADERVER
 70
     0
  0
APPID
  2
ACAD_EXEMPT_FROM_CAD_STANDARDS
 70
     0
  0
APPID
  2
ACAD_PSEXT
 70
     0
  0
APPID
  2
ACAECLAYERSTANDARD
 70
     0
  0
APPID
  2
ACAUTHENVIRON
 70
     0
  0
APPID
  2
ACCMTRANSPARENCY
 70
     0
  0
APPID
  2
ACAD_STEPID
 70
     0
  0
APPID
  2
ACSYNERGY
 70
     0
  0
APPID
  2
SYNERGY_BODY_TBR_ID
 70
     0
  0
APPID
  2
ACAD_VIEW_EDGE_ID
 70
     0
  0
APPID
  2
ACSYNERGYSKETCH
 70
     0
  0
APPID
  2
ACAD_MODELDOC_XFORM
 70
     0
  0
APPID
  2
ACAD_DSTYLE_DIMJAG
 70
     0
  0
APPID
  2
ACAD_DSTYLE_DIMTALN
 70
     0
  0
APPID
  2
ACADANNOMONITORALERTICONDI
 70
     0
  0
APPID
  2
ACAD_DIMASSOC_CALC_DIMLFAC
 70
     0
  0
APPID
  2
ACAD_DIMASSOC_DIMLFAC
 70
     0
  0
APPID
  2
ACAD_DIMASSOC_OVERRIDDEN_D
 70
     0
  0
APPID
  2
ACAD_DSTYLE_DIMRADIAL_EXTENSION
 70
     0
  0
ENDTAB
  0
TABLE
  2
DIMSTYLE
 70
     1
  0
DIMSTYLE
  2
STANDARD
 70
     0
  3

  4

  5

  6

  7

 40
1.0
 41
0.18
 42
0.0625
 43
0.38
 44
0.18
 45
0.0
 46
0.0
 47
0.0
 48
0.0
140
0.18
141
0.09
142
0.0
143
25.3999999999999986
144
1.0
145
0.0
146
1.0
147
0.09
 71
     0
 72
     0
 73
     1
 74
     1
 75
     0
 76
     0
 77
     0
 78
     0
170
     0
171
     2
172
     0
173
     0
174
     0
175
     0
176
     0
177
     0
178
     0
  0
ENDTAB
  0
ENDSEC
  0
SECTION
  2
BLOCKS
  0
BLOCK
  8
0
  2
$MODEL_SPACE
 70
     0
 10
0.0
 20
0.0
 30
0.0
  3
$MODEL_SPACE
  1

  0
ENDBLK
  5
36
  8
0
  0
BLOCK
 67
     1
  8
0
  2
$PAPER_SPACE
 70
     0
 10
0.0
 20
0.0
 30
0.0
  3
$PAPER_SPACE
  1

  0
ENDBLK
  5
34
 67
     1
  8
0
  0
BLOCK
  8
0
  2
*S0
 70
     1
 10
0.0
 20
0.0
 30
0.0
  3
*S0
  1

  0
ENDBLK
  5
B3A
  8
0
  0
BLOCK
  8
0
  2
A$C85A256BD
 70
     0
 10
0.0
 20
0.0
 30
0.0
  3
A$C85A256BD
  1

  0
CIRCLE
  5
1B7E
  8
0
 10
129.7973054191288043
 20
97.1939330370280743
 30
-0.0000000000000284
 40
22.950000000000049
  0
CIRCLE
  5
1B7F
  8
0
 10
129.7973054191288043
 20
97.1939330370280743
 30
-0.0000000000000284
 40
31.75
  0
CIRCLE
  5
1B80
  8
0
 10
129.7973054191288895
 20
97.1939330370281453
 30
-0.0000000000000568
 40
18.8875793553186213
  0
CIRCLE
  5
1B81
  8
0
 10
129.7973054191288895
 20
97.1939330370281453
 30
-0.0000000000000284
 40
19.5
  0
CIRCLE
  5
1B82
  8
0
  6
VERDECKT
 62
     1
 10
129.7973054191288895
 20
97.1939330370281453
 30
-0.0000000000000568
 40
20.3933091116335916
  0
CIRCLE
  5
1B83
  8
0
  6
VERDECKT
 62
     1
 10
129.7973054191288895
 20
97.1939330370281453
 30
-0.0000000000000284
 40
21.0
  0
CIRCLE
  5
1B84
  8
0
  6
VERDECKT
 62
     1
 10
129.7973054191288895
 20
97.1939330370281453
 30
-0.0000000000000284
 40
24.5902314428424198
  0
ENDBLK
  5
1B86
  8
0
  0
BLOCK
  8
0
  2
A$C3EFA17B8
 70
     0
 10
0.0
 20
0.0
 30
0.0
  3
A$C3EFA17B8
  1

  0
LINE
  5
1B8A
  8
0
 10
98.0473054191288753
 20
-50.0350682550880634
 30
0.0000000000000111
 11
161.5473054191288043
 21
-50.0350682550880634
 31
0.0000000000000111
210
0.0
220
1.0
230
-0.0000000000000002
  0
LINE
  5
1B8B
  8
0
 10
98.0473054191288753
 20
-150.0350682550879924
 30
0.0000000000000333
 11
161.5473054191288043
 21
-150.0350682550879924
 31
0.0000000000000333
210
0.0
220
1.0
230
-0.0000000000000002
  0
LINE
  5
1B8C
  8
0
 10
161.5473054191288043
 20
-50.0350682550880634
 30
0.0000000000000111
 11
161.5473054191288043
 21
-150.0350682550879924
 31
0.0000000000000333
210
0.0
220
1.0
230
-0.0000000000000002
  0
LINE
  5
1B8D
  8
0
 10
98.0473054191288753
 20
-50.0350682550880634
 30
0.0000000000000111
 11
98.0473054191288753
 21
-150.0350682550879924
 31
0.0000000000000333
210
0.0
220
1.0
230
-0.0000000000000002
  0
LINE
  5
1B8E
  8
0
 10
109.403996307495305
 20
-260.0350682550882198
 30
0.0000000000000577
 11
150.1906145307623888
 21
-260.0350682550882198
 31
0.0000000000000577
210
0.0
220
1.0
230
-0.0000000000000002
  0
ARC
  5
1B8F
  8
0
 10
-114.2973054191234041
 20
-252.8604244834548069
 30
0.0
 40
5.499999999994543
210
0.0
220
-0.0000000000000002
230
-1.0
 50
354.9999999999976126
 51
0.0000000000023663
  0
ARC
  5
1B90
  8
0
 10
-145.2973054191342897
 20
-252.8604244834548069
 30
0.0
 40
5.499999999994543
210
0.0
220
-0.0000000000000002
230
-1.0
 50
179.9999999999976126
 51
185.0000000000023022
  0
LINE
  5
1B91
  8
0
 10
109.4039963074952055
 20
-260.0350682550882198
 30
0.0000000000000577
 11
108.8182345796242032
 21
-253.3397810685667082
 31
0.0000000000000563
210
0.0
220
1.0
230
-0.0000000000000002
  0
LINE
  5
1B92
  8
0
 10
150.1906145307625025
 20
-260.0350682550882198
 30
0.0000000000000577
 11
150.7763762586334053
 21
-253.3397810685667082
 31
0.0000000000000563
210
0.0
220
1.0
230
-0.0000000000000002
  0
LINE
  5
1B93
  8
0
 10
150.7973054191288043
 20
-161.848583638190604
 30
0.0000000000000359
 11
150.7973054191288043
 21
-252.860424483454608
 31
0.0000000000000561
210
0.0
220
1.0
230
-0.0000000000000002
  0
LINE
  5
1B94
  8
0
 10
108.7973054191288043
 20
-161.848583638190604
 30
0.0000000000000359
 11
108.7973054191288043
 21
-252.860424483454608
 31
0.0000000000000561
210
0.0
220
1.0
230
-0.0000000000000002
  0
LINE
  5
1B95
  8
0
 10
107.301144459373802
 20
-154.7685316628212888
 30
0.0000000000000344
 11
105.2070739762863951
 21
-150.0350682550881061
 31
0.0000000000000333
210
0.0
220
1.0
230
-0.0000000000000002
  0
LINE
  5
1B96
  8
0
 10
152.2934663788838066
 20
-154.7685316628212888
 30
0.0000000000000344
 11
154.3875368619713129
 21
-150.0350682550881061
 31
0.0000000000000333
210
0.0
220
1.0
230
-0.0000000000000002
  0
ARC
  5
1B97
  8
0
 10
-168.2973054191292022
 20
-161.8485836381906893
 30
0.0
 40
17.5000000000004015
210
0.0
220
-0.0000000000000002
230
-1.0
 50
0.0000000000002799
 51
23.8644595187079389
  0
ARC
  5
1B98
  8
0
 10
-91.2973054191290885
 20
-161.8485836381904903
 30
0.0
 40
17.4999999999997691
210
0.0
220
-0.0000000000000002
230
-1.0
 50
156.1355404812915992
 51
180.0000000000001137
  0
LINE
  5
1B99
  8
0
  6
VERDECKT
 62
     1
 10
152.7473054191289066
 20
-50.0350682550880634
 30
0.0000000000000111
 11
152.7473054191289066
 21
-150.0350682550879924
 31
0.0000000000000333
210
0.0
220
1.0
230
-0.0000000000000002
  0
LINE
  5
1B9A
  8
0
  6
VERDECKT
 62
     1
 10
106.8473054191288014
 20
-50.0350682550880634
 30
0.0000000000000111
 11
106.8473054191288014
 21
-150.0350682550879924
 31
0.0000000000000333
210
0.0
220
1.0
230
-0.0000000000000002
  0
ARC
  5
1B9B
  8
0
  6
VERDECKT
 62
     1
 10
-120.2973054191398035
 20
-252.5984588260023997
 30
0.0
 40
10.0000000000109104
210
0.0
220
-0.0000000000000002
230
-1.0
 50
355.000000000003979
 51
359.9999999999977263
  0
ARC
  5
1B9C
  8
0
  6
VERDECKT
 62
     1
 10
-139.2973054191328117
 20
-252.5984588260031103
 30
0.0
 40
9.9999999999960192
210
0.0
220
-0.0000000000000002
230
-1.0
 50
179.9999999999984936
 51
184.9999999999996021
  0
LINE
  5
1B9D
  8
0
  6
VERDECKT
 62
     1
 10
110.9097260638101972
 20
-260.0350682550882198
 30
0.0000000000000577
 11
110.3353584382114008
 21
-253.4700162534792014
 31
0.0000000000000563
210
0.0
220
1.0
230
-0.0000000000000002
  0
LINE
  5
1B9E
  8
0
  6
VERDECKT
 62
     1
 10
148.6848847744473971
 20
-260.0350682550882198
 30
0.0000000000000577
 11
149.2592524000463072
 21
-253.4700162534792014
 31
0.0000000000000563
210
0.0
220
1.0
230
-0.0000000000000002
  0
LINE
  5
1B9F
  8
0
  6
VERDECKT
 62
     1
 10
108.9293868273527011
 20
-154.741431406350614
 30
0.0000000000000344
 11
106.8473054191288014
 21
-150.0350682550879924
 31
0.0000000000000333
210
0.0
220
1.0
230
-0.0000000000000002
  0
LINE
  5
1BA0
  8
0
  6
VERDECKT
 62
     1
 10
150.6652240109050069
 20
-154.741431406350614
 30
0.0000000000000344
 11
152.7473054191289066
 21
-150.0350682550879924
 31
0.0000000000000333
210
0.0
220
1.0
230
-0.0000000000000002
  0
ARC
  5
1BA1
  8
0
  6
VERDECKT
 62
     1
 10
-94.2973054191289748
 20
-161.2146217838312054
 30
0.0
 40
15.9999999999998792
210
0.0
220
-0.0000000000000002
230
-1.0
 50
156.1355404812908887
 51
180.0
  0
ARC
  5
1BA2
  8
0
  6
VERDECKT
 62
     1
 10
-165.2973054191290032
 20
-161.2146217838312907
 30
0.0
 40
16.000000000000199
210
0.0
220
-0.0000000000000002
230
-1.0
 50
0.0
 51
23.8644595187087489
  0
LINE
  5
1BA3
  8
0
  6
VERDECKT
 62
     1
 10
149.2973054191288043
 20
-161.2146217838312907
 30
0.0000000000000358
 11
149.2973054191288043
 21
-252.5984588260027977
 31
0.0000000000000561
210
0.0
220
1.0
230
-0.0000000000000002
  0
LINE
  5
1BA4
  8
0
  6
VERDECKT
 62
     1
 10
110.2973054191288043
 20
-161.2146217838312907
 30
0.0000000000000358
 11
110.2973054191288043
 21
-252.5984588260027977
 31
0.0000000000000561
210
0.0
220
1.0
230
-0.0000000000000002
  0
ENDBLK
  5
1BA6
  8
0
  0
ENDSEC
  0
SECTION
  2
ENTITIES
  0
TEXT
  5
8F
  8
VOLL
 10
78.076754716981128
 20
31.025947764705851
 30
0.0
 40
1.8
  1

  7
GREEKS
  0
INSERT
  5
B3C
  8
ADSK_ASSOC_ENTITY_BACKUPS
  2
*S0
 10
0.0
 20
0.0
 30
0.0
  0
INSERT
  5
1B87
  8
STEMPEL
  2
A$C85A256BD
 10
96.5437743440171658
 20
-297.7168771913496812
 30
-18.3747024356011117
  0
INSERT
  5
1BA7
  8
STEMPEL
  2
A$C3EFA17B8
 10
96.5437743440171658
 20
117.2051725556376027
 30
-18.3747024356011899
  0
VIEWPORT
  5
928
 67
     1
  8
0
 10
104.9325357368027056
 20
148.4488398705011889
 30
0.0
 40
533.9969448798291296
 41
299.1239570917758783
 68
     1
 69
     1
1001
ACAD
1000
MVIEW
1002
{
1070
    16
1010
0.0
1020
0.0
1030
0.0
1010
0.0
1020
0.0
1030
1.0
1040
0.0
1040
299.1239570917758783
1040
104.9325357368027056
1040
148.4488398705011889
1040
50.0
1040
0.0
1040
0.0
1070
     0
1070
  1500
1070
     1
1070
     1
1070
     0
1070
     0
1070
     0
1070
     0
1040
0.0
1040
0.0
1040
0.0
1040
10.0
1040
10.0
1040
10.0
1040
10.0
1070
     0
1002
{
1002
}
1002
}
  0
ENDSEC
  0
EOF
