  0
SECTION
  2
HEADER
  9
$ACADVER
  1
AC1009
  9
$INSBASE
 10
0.0
 20
0.0
 30
0.0
  9
$EXTMIN
 10
951.2618163481440661
 20
-47.7866952861691274
 30
-37.0104842243678718
  9
$EXTMAX
 10
1084.2618163481440661
 20
346.6692926769973724
 30
-37.0104842243678291
  9
$LIMMIN
 10
0.0
 20
0.0
  9
$LIMMAX
 10
419.9999999999998863
 20
594.0
  9
$ORTHOMODE
 70
     1
  9
$REGENMODE
 70
     1
  9
$FILLMODE
 70
     1
  9
$QTEXTMODE
 70
     0
  9
$MIRRTEXT
 70
     1
  9
$DRAGMODE
 70
     2
  9
$LTSCALE
 40
20.0
  9
$OSMODE
 70
  2495
  9
$ATTMODE
 70
     1
  9
$TEXTSIZE
 40
3.5
  9
$TRACEWID
 40
0.5
  9
$TEXTSTYLE
  7
STANDARD
  9
$CLAYER
  8
STEMPEL
  9
$CELTYPE
  6
BYLAYER
  9
$CECOLOR
 62
   256
  9
$DIMSCALE
 40
1.0
  9
$DIMASZ
 40
3.5
  9
$DIMEXO
 40
1.0
  9
$DIMDLI
 40
7.0
  9
$DIMRND
 40
0.0
  9
$DIMDLE
 40
0.0
  9
$DIMEXE
 40
1.0
  9
$DIMTP
 40
0.0
  9
$DIMTM
 40
0.0
  9
$DIMTXT
 40
3.5
  9
$DIMCEN
 40
1.5
  9
$DIMTSZ
 40
0.0
  9
$DIMTOL
 70
     0
  9
$DIMLIM
 70
     0
  9
$DIMTIH
 70
     0
  9
$DIMTOH
 70
     0
  9
$DIMSE1
 70
     0
  9
$DIMSE2
 70
     0
  9
$DIMTAD
 70
     1
  9
$DIMZIN
 70
     8
  9
$DIMBLK
  1

  9
$DIMASO
 70
     1
  9
$DIMSHO
 70
     0
  9
$DIMPOST
  1

  9
$DIMAPOST
  1

  9
$DIMALT
 70
     0
  9
$DIMALTD
 70
     2
  9
$DIMALTF
 40
25.3999999999999986
  9
$DIMLFAC
 40
2.0
  9
$DIMTOFL
 70
     1
  9
$DIMTVP
 40
0.0
  9
$DIMTIX
 70
     0
  9
$DIMSOXD
 70
     0
  9
$DIMSAH
 70
     0
  9
$DIMBLK1
  1

  9
$DIMBLK2
  1

  9
$DIMSTYLE
  2
STANDARD
  9
$DIMCLRD
 70
     0
  9
$DIMCLRE
 70
     0
  9
$DIMCLRT
 70
     1
  9
$DIMTFAC
 40
0.5142857142857143
  9
$DIMGAP
 40
1.5
  9
$LUNITS
 70
     2
  9
$LUPREC
 70
     2
  9
$SKETCHINC
 40
1.0
  9
$FILLETRAD
 40
10.0
  9
$AUNITS
 70
     0
  9
$AUPREC
 70
     0
  9
$MENU
  1
ACAD
  9
$ELEVATION
 40
0.0
  9
$PELEVATION
 40
0.0
  9
$THICKNESS
 40
0.0
  9
$LIMCHECK
 70
     0
  9
$BLIPMODE
 70
     0
  9
$CHAMFERA
 40
0.0
  9
$CHAMFERB
 40
0.0
  9
$SKPOLY
 70
     0
  9
$TDCREATE
 40
2455397.8646990740671754
  9
$TDUPDATE
 40
2459627.3647453710436821
  9
$TDINDWG
 40
0.3986253125
  9
$TDUSRTIMER
 40
0.3986253125
  9
$USRTIMER
 70
     1
  9
$ANGBASE
 50
0.0
  9
$ANGDIR
 70
     0
  9
$PDMODE
 70
     0
  9
$PDSIZE
 40
0.0
  9
$PLINEWID
 40
0.0
  9
$COORDS
 70
     1
  9
$SPLFRAME
 70
     0
  9
$SPLINETYPE
 70
     6
  9
$SPLINESEGS
 70
     8
  9
$ATTDIA
 70
     1
  9
$ATTREQ
 70
     1
  9
$HANDLING
 70
     1
  9
$HANDSEED
  5
36F9
  9
$SURFTAB1
 70
     6
  9
$SURFTAB2
 70
     6
  9
$SURFTYPE
 70
     6
  9
$SURFU
 70
     6
  9
$SURFV
 70
     6
  9
$UCSNAME
  2

  9
$UCSORG
 10
0.0
 20
0.0
 30
0.0
  9
$UCSXDIR
 10
1.0
 20
0.0
 30
0.0
  9
$UCSYDIR
 10
0.0
 20
1.0
 30
0.0
  9
$PUCSNAME
  2

  9
$PUCSORG
 10
0.0
 20
0.0
 30
0.0
  9
$PUCSXDIR
 10
1.0
 20
0.0
 30
0.0
  9
$PUCSYDIR
 10
0.0
 20
1.0
 30
0.0
  9
$USERI1
 70
     0
  9
$USERI2
 70
     0
  9
$USERI3
 70
     0
  9
$USERI4
 70
     0
  9
$USERI5
 70
     0
  9
$USERR1
 40
0.0
  9
$USERR2
 40
0.0
  9
$USERR3
 40
0.0
  9
$USERR4
 40
0.0
  9
$USERR5
 40
0.0
  9
$WORLDVIEW
 70
     1
  9
$SHADEDGE
 70
     3
  9
$SHADEDIF
 70
    70
  9
$TILEMODE
 70
     1
  9
$MAXACTVP
 70
    16
  9
$PLIMCHECK
 70
     0
  9
$PEXTMIN
 10
1.0000000000000000E+20
 20
1.0000000000000000E+20
 30
1.0000000000000000E+20
  9
$PEXTMAX
 10
-1.0000000000000000E+20
 20
-1.0000000000000000E+20
 30
-1.0000000000000000E+20
  9
$PLIMMIN
 10
-4.4741746920527126
 20
-6.7709829610579666
  9
$PLIMMAX
 10
205.5258253079472865
 20
290.2290170389420041
  9
$UNITMODE
 70
     0
  9
$VISRETAIN
 70
     0
  9
$PLINEGEN
 70
     0
  9
$PSLTSCALE
 70
     0
  0
ENDSEC
  0
SECTION
  2
TABLES
  0
TABLE
  2
VPORT
 70
     1
  0
VPORT
  2
*ACTIVE
 70
     0
 10
0.0
 20
0.0
 11
1.0
 21
1.0
 12
4.2934305834792212
 22
-77.5984174022621573
 13
0.0
 23
0.0
 14
1.0
 24
1.0
 15
10.0
 25
10.0
 16
-0.0000000000001137
 26
0.0
 36
697.4482825576582172
 17
1013.4683857646649585
 27
227.0397160976762905
 37
-18.505242112183879
 40
397.2768889497921805
 41
1.7852028639618129
 42
50.0
 43
0.0
 44
0.0
 50
0.0
 51
0.0
 71
     0
 72
  1500
 73
     1
 74
     0
 75
     0
 76
     0
 77
     0
 78
     0
  0
ENDTAB
  0
TABLE
  2
LTYPE
 70
     7
  0
LTYPE
  2
CONTINUOUS
 70
     0
  3
Solid line
 72
    65
 73
     0
 40
0.0
  0
LTYPE
  2
PHANTOM2
 70
     0
  3
Phantom (.5x) ___ _ _ ___ _ _ ___ _ _ ___ _ _
 72
    65
 73
     6
 40
1.25
 49
0.625
 49
-0.125
 49
0.125
 49
-0.125
 49
0.125
 49
-0.125
  0
LTYPE
  2
AUSGEZOGEN
 70
     0
  3
Ausgezogene Linie
 72
    65
 73
     0
 40
0.0
  0
LTYPE
  2
VERDECKT
 70
     0
  3
Verdeckt __ __ __ __ __ __ __ __ __ __ __ __ __
 72
    65
 73
     2
 40
0.375
 49
0.25
 49
-0.125
  0
ENDTAB
  0
TABLE
  2
LAYER
 70
    15
  0
LAYER
  2
0
 70
     0
 62
     7
  6
CONTINUOUS
  0
LAYER
  2
VOLL
 70
     0
 62
     1
  6
CONTINUOUS
  0
LAYER
  2
STEMPEL
 70
     0
 62
     3
  6
CONTINUOUS
  0
LAYER
  2
DEFPOINTS
 70
     0
 62
     7
  6
CONTINUOUS
  0
LAYER
  2
ADSK_ASSOC_ENTITY_BACKUPS
 70
     1
 62
    -7
  6
CONTINUOUS
  0
ENDTAB
  0
TABLE
  2
STYLE
 70
     4
  0
STYLE
  2
STANDARD
 70
     0
 40
0.0
 41
0.8
 50
0.0
 71
     0
 42
3.5
  3
simplex.shx
  4

  0
STYLE
  2
GREEKS
 70
     0
 40
0.0
 41
0.8
 50
0.0
 71
     0
 42
2.5
  3
SIMPLEX.shx
  4

  0
ENDTAB
  0
TABLE
  2
VIEW
 70
     1
  0
ENDTAB
  0
TABLE
  2
UCS
 70
     0
  0
ENDTAB
  0
TABLE
  2
APPID
 70
    35
  0
APPID
  2
ACAD
 70
     0
  0
APPID
  2
ACAD_EXEMPT_FROM_CAD_STANDARDS
 70
     0
  0
APPID
  2
ACAD_NAV_VCDISPLAY
 70
     0
  0
APPID
  2
ACAECLAYERSTANDARD
 70
     0
  0
APPID
  2
ACCMTRANSPARENCY
 70
     0
  0
APPID
  2
ACAD_PSEXT
 70
     0
  0
APPID
  2
GRADIENTCOLOR1ACI
 70
     0
  0
APPID
  2
GRADIENTCOLOR2ACI
 70
     0
  0
APPID
  2
ACAD_MLEADERVER
 70
     0
  0
APPID
  2
ACAD_OBJECT_CHANGE_GUID
 70
     0
  0
APPID
  2
MCAD_NO_VIS
 70
     0
  0
APPID
  2
ACAD_TEMP_GRAPHIC
 70
     0
  0
APPID
  2
ACATTRIBSERVICES
 70
     0
  0
APPID
  2
DESIGNERASSEMBLIES
 70
     0
  0
APPID
  2
ACAD_DSTYLE_DIMJAG
 70
     0
  0
APPID
  2
ACAD_DSTYLE_DIMBREAK
 70
     0
  0
APPID
  2
GENIUS_GENSCREG_15
 70
     0
  0
APPID
  2
GENIUS_GENOBJ-N-SDF_13
 70
     0
  0
APPID
  2
GENIUS_GENODEF_13
 70
     0
  0
APPID
  2
RAK
 70
     0
  0
APPID
  2
ACAUTHENVIRON
 70
     0
  0
APPID
  2
ACDBDYNAMICBLOCKTRUENAME
 70
     0
  0
APPID
  2
ACDBDYNAMICBLOCKGUID
 70
     0
  0
APPID
  2
ACSYNERGY
 70
     0
  0
APPID
  2
SYNERGY_BODY_TBR_ID
 70
     0
  0
APPID
  2
ACAD_VIEW_EDGE_ID
 70
     0
  0
APPID
  2
ACSYNERGYSKETCH
 70
     0
  0
APPID
  2
ACAD_STEPID
 70
     0
  0
APPID
  2
ACAD_MODELDOC_XFORM
 70
     0
  0
APPID
  2
GENIUS_GENDTOL_13
 70
     0
  0
APPID
  2
ACAD_DSTYLE_DIMINSPECT
 70
     0
  0
APPID
  2
ACADANNOMONITORALERTICONDI
 70
     0
  0
APPID
  2
GENIUS_GENDIMSH_14
 70
     0
  0
APPID
  2
ACAD_DSTYLE_DIMTALN
 70
     0
  0
APPID
  2
AcDbAttr
 70
     0
  0
ENDTAB
  0
TABLE
  2
DIMSTYLE
 70
     3
  0
DIMSTYLE
  2
STANDARD
 70
     0
  3

  4

  5

  6

  7

 40
1.0
 41
0.18
 42
0.0625
 43
0.38
 44
0.18
 45
0.0
 46
0.0
 47
0.0
 48
0.0
140
0.18
141
0.09
142
0.0
143
25.3999999999999986
144
1.0
145
0.0
146
1.0
147
0.09
 71
     0
 72
     0
 73
     1
 74
     1
 75
     0
 76
     0
 77
     0
 78
     0
170
     0
171
     2
172
     0
173
     0
174
     0
175
     0
176
     0
177
     0
178
     0
  0
ENDTAB
  0
ENDSEC
  0
SECTION
  2
BLOCKS
  0
BLOCK
  8
0
  2
$MODEL_SPACE
 70
     0
 10
0.0
 20
0.0
 30
0.0
  3
$MODEL_SPACE
  1

  0
ENDBLK
  5
36
  8
0
  0
BLOCK
 67
     1
  8
0
  2
$PAPER_SPACE
 70
     0
 10
0.0
 20
0.0
 30
0.0
  3
$PAPER_SPACE
  1

  0
ENDBLK
  5
34
 67
     1
  8
0
  0
BLOCK
  8
0
  2
*S0
 70
     1
 10
0.0
 20
0.0
 30
0.0
  3
*S0
  1

  0
ENDBLK
  5
FA2
  8
0
  0
BLOCK
  8
0
  2
A$C9D4B720F
 70
     0
 10
0.0
 20
0.0
 30
0.0
  3
A$C9D4B720F
  1

  0
CIRCLE
  5
365B
  8
0
 10
701.5112652587621369
 20
155.0350682550881061
 30
0.0000000000001137
 40
59.3192208867888127
  0
CIRCLE
  5
365C
  8
0
 10
701.5112652587621369
 20
155.0350682550881061
 30
0.0000000000001137
 40
48.9999999999999716
  0
CIRCLE
  5
365D
  8
0
 10
701.5112652587622506
 20
155.0350682550881061
 30
0.0000000000001137
 40
52.9999999999999289
  0
CIRCLE
  5
365E
  8
0
 10
701.5112652587622506
 20
155.0350682550881061
 30
0.0000000000001137
 40
53.4999999999998934
  0
CIRCLE
  5
365F
  8
0
 10
701.5112652587622506
 20
155.0350682550881061
 30
0.0000000000001137
 40
55.7067558379247885
  0
CIRCLE
  5
3660
  8
0
 10
701.5112652587622506
 20
155.0350682550881061
 30
0.0000000000001137
 40
58.9999999999999076
  0
CIRCLE
  5
3661
  8
0
 10
701.5112652587620232
 20
155.0350682550881061
 30
0.0000000000001137
 40
66.5
  0
CIRCLE
  5
3662
  8
0
  6
VERDECKT
 62
     1
 10
701.5112652587621369
 20
155.0350682550881061
 30
0.0000000000001137
 40
57.6999999999999389
  0
CIRCLE
  5
3663
  8
0
  6
VERDECKT
 62
     1
 10
701.5112652587622506
 20
155.0350682550881061
 30
0.0000000000001137
 40
56.9999999999999076
  0
CIRCLE
  5
3664
  8
0
  6
VERDECKT
 62
     1
 10
701.5112652587622506
 20
155.0350682550881061
 30
0.0000000000001137
 40
54.9999999999999289
  0
CIRCLE
  5
3665
  8
0
  6
VERDECKT
 62
     1
 10
701.5112652587621369
 20
155.0350682550881061
 30
0.0000000000001137
 40
50.9999999999999716
  0
CIRCLE
  5
3666
  8
0
  6
VERDECKT
 62
     1
 10
701.5112652587620232
 20
155.0350682550881061
 30
0.0000000000001137
 40
57.6999999999999318
  0
ENDBLK
  5
3668
  8
0
  0
BLOCK
  8
0
  2
A$C5BA657BB
 70
     0
 10
0.0
 20
0.0
 30
0.0
  3
A$C5BA657BB
  1

  0
LINE
  5
366C
  8
0
 10
768.4206190907444807
 20
73.370624119385127
 30
-0.0000000000000033
 11
887.0590608643220776
 21
73.3706241193848854
 31
-0.0000000000000033
210
0.0
220
1.0
230
-0.0000000000000002
  0
LINE
  5
366D
  8
0
 10
772.0330841396084907
 20
182.1966889764632072
 30
-0.0000000000000275
 11
883.4465958154580676
 21
182.1966889764630082
 31
-0.0000000000000275
210
0.0
220
1.0
230
-0.0000000000000002
  0
LINE
  5
366E
  8
0
 10
770.0398399775333473
 20
72.1966889764631361
 30
-0.000000000000003
 11
768.4206190907444807
 21
73.3706241193849849
 31
-0.0000000000000033
210
0.0
220
1.0
230
-0.0000000000000002
  0
LINE
  5
366F
  8
0
 10
885.4398399775332109
 20
72.1966889764630224
 30
-0.000000000000003
 11
887.0590608643220776
 21
73.370624119384857
 31
-0.0000000000000033
210
0.0
220
1.0
230
-0.0000000000000002
  0
LINE
  5
3670
  8
0
 10
883.4465958154580676
 20
182.1966889764630082
 30
-0.0000000000000275
 11
884.3975346534494975
 21
180.1573940574089931
 31
-0.000000000000027
210
0.0
220
1.0
230
-0.0000000000000002
  0
LINE
  5
3671
  8
0
 10
772.0330841396084907
 20
182.1966889764630935
 30
-0.0000000000000275
 11
771.0821453016172882
 21
180.1573940574091068
 31
-0.000000000000027
210
0.0
220
1.0
230
-0.0000000000000002
  0
ARC
  5
3672
  8
0
 10
-793.7398399775331654
 20
169.5919375138915939
 30
-0.000000000000013
 40
24.9999999999997691
210
0.0
220
-0.0000000000000002
230
-1.0
 50
0.0000000000008142
 51
25.0000000000000711
  0
ARC
  5
3673
  8
0
 10
-861.7398399775331654
 20
169.5919375138913949
 30
-0.000000000000013
 40
25.0000000000001101
210
0.0
220
-0.0000000000000002
230
-1.0
 50
154.9999999999998863
 51
179.9999999999992042
  0
LINE
  5
3674
  8
0
 10
886.7398399775331654
 20
169.5919375138919065
 30
-0.0000000000000247
 11
886.7398399775331654
 21
154.4298895071445088
 31
-0.0000000000000213
210
0.0
220
1.0
230
-0.0000000000000002
  0
LINE
  5
3675
  8
0
 10
768.7398399775335065
 20
169.5919375138919918
 30
-0.0000000000000247
 11
768.7398399775335065
 21
154.4298895071445941
 31
-0.0000000000000213
210
0.0
220
1.0
230
-0.0000000000000002
  0
ARC
  5
3676
  8
0
 10
-793.7398399775340749
 20
154.429889507144793
 30
-0.000000000000013
 40
25.0000000000006892
210
0.0
220
-0.0000000000000002
230
-1.0
 50
333.1119523822749784
 51
359.9999999999996021
  0
ARC
  5
3677
  8
0
 10
-861.7398399775327107
 20
154.4298895071445941
 30
-0.000000000000013
 40
25.0000000000005684
210
0.0
220
-0.0000000000000002
230
-1.0
 50
180.0000000000003979
 51
206.8880476177249932
  0
ARC
  5
3678
  8
0
 10
-760.7398399775345297
 20
137.6966889764632924
 30
-0.000000000000013
 40
11.9999999999988702
210
0.0
220
-0.0000000000000002
230
-1.0
 50
153.1119523822771953
 51
180.0000000000011937
  0
ARC
  5
3679
  8
0
 10
-894.7398399775321423
 20
137.6966889764632072
 30
-0.000000000000013
 40
11.9999999999988596
210
0.0
220
-0.0000000000000002
230
-1.0
 50
359.9999999999988063
 51
26.8880476177228012
  0
LINE
  5
367A
  8
0
 10
882.7398399775332791
 20
137.6966889764628945
 30
-0.0000000000000176
 11
882.7398399775332791
 21
119.1241778534104014
 31
-0.0000000000000134
210
0.0
220
1.0
230
-0.0000000000000002
  0
LINE
  5
367B
  8
0
 10
772.7398399775331654
 20
137.6966889764630082
 30
-0.0000000000000176
 11
772.7398399775331654
 21
119.1241778534106004
 31
-0.0000000000000134
210
0.0
220
1.0
230
-0.0000000000000002
  0
ARC
  5
367C
  8
0
 10
-787.7398399775329381
 20
119.1241778534106004
 30
-0.000000000000013
 40
14.9999999999996607
210
0.0
220
-0.0000000000000002
230
-1.0
 50
325.698847243209002
 51
0.0
  0
ARC
  5
367D
  8
0
 10
-867.7398399775336202
 20
119.1241778534105009
 30
-0.000000000000013
 40
14.9999999999996607
210
0.0
220
-0.0000000000000002
230
-1.0
 50
180.0
 51
214.3011527567907137
  0
ARC
  5
367E
  8
0
 10
-768.7398399775321423
 20
106.1626964565946025
 30
-0.000000000000013
 40
8.0000000000011422
210
0.0
220
-0.0000000000000002
230
-1.0
 50
145.6988472432088884
 51
179.9999999999974989
  0
ARC
  5
367F
  8
0
 10
-886.739839977534416
 20
106.162696456594503
 30
-0.000000000000013
 40
8.0000000000011369
210
0.0
220
-0.0000000000000002
230
-1.0
 50
0.0000000000024427
 51
34.3011527567907208
  0
LINE
  5
3680
  8
0
 10
878.7398399775331654
 20
106.1626964565948015
 30
-0.0000000000000106
 11
878.7398399775331654
 21
87.440301841339803
 31
-0.0000000000000064
210
0.0
220
1.0
230
-0.0000000000000002
  0
LINE
  5
3681
  8
0
 10
776.7398399775331654
 20
106.162696456594901
 30
-0.0000000000000106
 11
776.7398399775331654
 21
87.4403018413399309
 31
-0.0000000000000064
210
0.0
220
1.0
230
-0.0000000000000002
  0
ARC
  5
3682
  8
0
 10
-768.739839977532597
 20
87.4403018413400872
 30
-0.000000000000013
 40
8.0000000000006821
210
0.0
220
-0.0000000000000002
230
-1.0
 50
180.0000000000011937
 51
215.9421118713804901
  0
ARC
  5
3683
  8
0
 10
-886.7398399775338476
 20
87.4403018413399877
 30
-0.000000000000013
 40
8.0000000000006661
210
0.0
220
-0.0000000000000002
230
-1.0
 50
324.0578881286194814
 51
359.9999999999988063
  0
LINE
  5
3684
  8
0
 10
880.2629564303781535
 20
82.7445612696523369
 30
-0.0000000000000054
 11
887.0590608643220776
 21
73.3706241193848712
 31
-0.0000000000000033
210
0.0
220
1.0
230
-0.0000000000000002
  0
LINE
  5
3685
  8
0
 10
775.2167235246884047
 20
82.7445612696524648
 30
-0.0000000000000054
 11
768.4206190907444807
 21
73.3706241193849991
 31
-0.0000000000000033
210
0.0
220
1.0
230
-0.0000000000000002
  0
LINE
  5
3686
  8
0
 10
761.2398399775330518
 20
-27.8033110235368888
 30
0.0000000000000192
 11
894.2398399775330518
 21
-27.8033110235368888
 31
0.0000000000000192
210
0.0
220
1.0
230
-0.0000000000000002
  0
LINE
  5
3687
  8
0
 10
761.2398399775330518
 20
72.196688976463065
 30
-0.000000000000003
 11
894.2398399775330518
 21
72.196688976463065
 31
-0.000000000000003
210
0.0
220
1.0
230
-0.0000000000000002
  0
LINE
  5
3688
  8
0
 10
894.2398399775330518
 20
72.196688976463065
 30
-0.000000000000003
 11
894.2398399775330518
 21
-27.8033110235368888
 31
0.0000000000000192
210
0.0
220
1.0
230
-0.0000000000000002
  0
LINE
  5
3689
  8
0
 10
761.2398399775330518
 20
72.196688976463065
 30
-0.000000000000003
 11
761.2398399775330518
 21
-27.8033110235368888
 31
0.0000000000000192
210
0.0
220
1.0
230
-0.0000000000000002
  0
LINE
  5
368A
  8
0
  6
VERDECKT
 62
     1
 10
878.6437355435892869
 20
81.570626126730474
 30
-0.0000000000000051
 11
885.4398399775332109
 21
72.196688976463065
 31
-0.000000000000003
210
0.0
220
1.0
230
-0.0000000000000002
  0
LINE
  5
368B
  8
0
  6
VERDECKT
 62
     1
 10
776.835944411477044
 20
81.5706261267305592
 30
-0.0000000000000051
 11
770.0398399775333473
 21
72.1966889764631787
 31
-0.000000000000003
210
0.0
220
1.0
230
-0.0000000000000002
  0
ARC
  5
368C
  8
0
  6
VERDECKT
 62
     1
 10
-768.7398399775338476
 20
87.4403018413397177
 30
-0.000000000000013
 40
9.9999999999994316
210
0.0
220
-0.0000000000000002
230
-1.0
 50
179.9999999999988063
 51
215.9421118713833891
  0
ARC
  5
368D
  8
0
  6
VERDECKT
 62
     1
 10
-886.7398399775328244
 20
87.440301841339604
 30
-0.000000000000013
 40
9.9999999999995275
210
0.0
220
-0.0000000000000002
230
-1.0
 50
324.0578881286169235
 51
0.0000000000012213
  0
LINE
  5
368E
  8
0
  6
VERDECKT
 62
     1
 10
876.7398399775331654
 20
106.1626964565948015
 30
-0.0000000000000106
 11
876.7398399775331654
 21
87.440301841339803
 31
-0.0000000000000064
210
0.0
220
1.0
230
-0.0000000000000002
  0
LINE
  5
368F
  8
0
  6
VERDECKT
 62
     1
 10
778.7398399775332791
 20
106.162696456594901
 30
-0.0000000000000106
 11
778.7398399775332791
 21
87.4403018413399309
 31
-0.0000000000000064
210
0.0
220
1.0
230
-0.0000000000000002
  0
ARC
  5
3690
  8
0
  6
VERDECKT
 62
     1
 10
-768.7398399775327107
 20
106.1626964565948015
 30
-0.000000000000013
 40
10.0000000000005702
210
0.0
220
-0.0000000000000002
230
-1.0
 50
145.6988472432080926
 51
179.9999999999992042
  0
ARC
  5
3691
  8
0
  6
VERDECKT
 62
     1
 10
-886.7398399775337339
 20
106.162696456594702
 30
-0.000000000000013
 40
10.0000000000005702
210
0.0
220
-0.0000000000000002
230
-1.0
 50
0.0000000000008142
 51
34.3011527567918506
  0
ARC
  5
3692
  8
0
  6
VERDECKT
 62
     1
 10
-787.7398399775337339
 20
119.1241778534107993
 30
-0.000000000000013
 40
13.0000000000004601
210
0.0
220
-0.0000000000000002
230
-1.0
 50
325.6988472432099115
 51
359.9999999999992042
  0
ARC
  5
3693
  8
0
  6
VERDECKT
 62
     1
 10
-867.7398399775327107
 20
119.1241778534106999
 30
-0.000000000000013
 40
13.0000000000005596
210
0.0
220
-0.0000000000000002
230
-1.0
 50
180.0000000000007958
 51
214.3011527567896053
  0
LINE
  5
3694
  8
0
  6
VERDECKT
 62
     1
 10
880.7398399775332791
 20
137.696488445781398
 30
-0.0000000000000176
 11
880.7398399775332791
 21
119.1241778534105009
 31
-0.0000000000000134
210
0.0
220
1.0
230
-0.0000000000000002
  0
LINE
  5
3695
  8
0
  6
VERDECKT
 62
     1
 10
774.7398399775332791
 20
137.6964884457815117
 30
-0.0000000000000176
 11
774.7398399775332791
 21
119.1241778534106004
 31
-0.0000000000000134
210
0.0
220
1.0
230
-0.0000000000000002
  0
ARC
  5
3696
  8
0
  6
VERDECKT
 62
     1
 10
-760.7398399775335065
 20
137.696488445781398
 30
-0.000000000000013
 40
13.9999999999999893
210
0.0
220
-0.0000000000000002
230
-1.0
 50
153.1119523822775079
 51
179.9999999999996021
  0
ARC
  5
3697
  8
0
  6
VERDECKT
 62
     1
 10
-894.7398399775331654
 20
137.6964884457813127
 30
-0.000000000000013
 40
14.0
210
0.0
220
-0.0000000000000002
230
-1.0
 50
0.0000000000008142
 51
26.8880476177224388
  0
ARC
  5
3698
  8
0
  6
VERDECKT
 62
     1
 10
-793.7398399775322559
 20
154.429688976462586
 30
-0.000000000000013
 40
22.9999999999988702
210
0.0
220
-0.0000000000000002
230
-1.0
 50
333.1119523822740121
 51
0.0000000000008142
  0
ARC
  5
3699
  8
0
  6
VERDECKT
 62
     1
 10
-861.739839977534416
 20
154.4296889764625007
 30
-0.000000000000013
 40
22.9999999999988702
210
0.0
220
-0.0000000000000002
230
-1.0
 50
179.9999999999992042
 51
206.8880476177261016
  0
LINE
  5
369A
  8
0
  6
VERDECKT
 62
     1
 10
884.7398399775331654
 20
169.5919375138919065
 30
-0.0000000000000247
 11
884.7398399775331654
 21
154.4296889764628133
 31
-0.0000000000000213
210
0.0
220
1.0
230
-0.0000000000000002
  0
LINE
  5
369B
  8
0
  6
VERDECKT
 62
     1
 10
770.7398399775335065
 20
169.5919375138919918
 30
-0.0000000000000247
 11
770.7398399775335065
 21
154.4296889764628986
 31
-0.0000000000000213
210
0.0
220
1.0
230
-0.0000000000000002
  0
ARC
  5
369C
  8
0
  6
VERDECKT
 62
     1
 10
-793.7398399775354392
 20
169.5919375138915086
 30
-0.000000000000013
 40
23.0000000000019291
210
0.0
220
-0.0000000000000002
230
-1.0
 50
0.0000000000012213
 51
24.999999999997879
  0
ARC
  5
369D
  8
0
  6
VERDECKT
 62
     1
 10
-861.7398399775313464
 20
169.5919375138913949
 30
-0.000000000000013
 40
23.000000000001819
210
0.0
220
-0.0000000000000002
230
-1.0
 50
155.0000000000021032
 51
179.9999999999988063
  0
LINE
  5
369E
  8
0
  6
VERDECKT
 62
     1
 10
881.2398399775331654
 20
182.1966889764630082
 30
-0.0000000000000275
 11
882.584919079376391
 21
179.3121575339274898
 31
-0.0000000000000268
210
0.0
220
1.0
230
-0.0000000000000002
  0
LINE
  5
369F
  8
0
  6
VERDECKT
 62
     1
 10
774.2398399775335065
 20
182.1966889764630935
 30
-0.0000000000000275
 11
772.8947608756903946
 21
179.3121575339276887
 31
-0.0000000000000268
210
0.0
220
1.0
230
-0.0000000000000002
  0
LINE
  5
36A0
  8
0
  6
VERDECKT
 62
     1
 10
885.4398399775329835
 20
72.1966889764631219
 30
-0.000000000000003
 11
885.4398399775329835
 21
-27.8033110235368888
 31
0.0000000000000192
210
0.0
220
1.0
230
-0.0000000000000002
  0
LINE
  5
36A1
  8
0
  6
VERDECKT
 62
     1
 10
770.0398399775332337
 20
72.1966889764631219
 30
-0.000000000000003
 11
770.0398399775332337
 21
-27.8033110235368888
 31
0.0000000000000192
210
0.0
220
1.0
230
-0.0000000000000002
  0
ENDBLK
  5
36A3
  8
0
  0
ENDSEC
  0
SECTION
  2
ENTITIES
  0
TEXT
  5
8F
  8
VOLL
 10
78.076754716981128
 20
31.025947764705851
 30
0.0
 40
1.8
  1

  7
GREEKS
  0
INSERT
  5
FA4
  8
ADSK_ASSOC_ENTITY_BACKUPS
  2
*S0
 10
0.0
 20
0.0
 30
0.0
  0
INSERT
  5
3669
  8
STEMPEL
  2
A$C9D4B720F
 10
316.250551089381986
 20
-136.3217635412572122
 30
-37.0104842243679428
  0
INSERT
  5
36A4
  8
STEMPEL
  2
A$C5BA657BB
 10
190.0219763706109006
 20
164.4726037005341936
 30
-37.0104842243678434
  0
VIEWPORT
  5
702
 67
     1
  8
0
 10
100.5258253079473008
 20
141.7290170389420041
 30
0.0
 40
533.9969448798291296
 41
299.1239570917758783
 68
     1
 69
     1
1001
ACAD
1000
MVIEW
1002
{
1070
    16
1010
0.0
1020
0.0
1030
0.0
1010
0.0
1020
0.0
1030
1.0
1040
0.0
1040
299.1239570917758783
1040
100.5258253079473008
1040
141.7290170389420041
1040
50.0
1040
0.0
1040
0.0
1070
     0
1070
  1500
1070
     1
1070
     1
1070
     0
1070
     0
1070
     0
1070
     0
1040
0.0
1040
0.0
1040
0.0
1040
10.0
1040
10.0
1040
10.0
1040
10.0
1070
     0
1002
{
1002
}
1002
}
1001
GENIUS_GENOBJ-N-SDF_13
1002
{
1000
OWNER
1000
GEN
1002
}
1001
GENIUS_GENODEF_13
1002
{
1000
HIER
1070
     0
1002
}
1002
{
1000
MANEDIT
1070
     0
1002
}
1002
{
1000
NOSEL
1070
     0
1002
}
1002
{
1000
BEHIND
1070
     0
1002
}
1002
{
1000
OTHER
1070
     0
1002
}
1002
{
1000
REACTOR
1002
}
1001
GENIUS_GENSCREG_15
1000
PF
1040
1.0
1000
DF
1040
1.0
1000
MIN
1011
-188.9700346985364945
1021
0.0
1031
0.0
1021
8.5699790133709257
1031
0.0
1000
MAX
1011
507.3836799140186145
1021
0.0
1031
0.0
1021
314.9493814215755947
1031
0.0
1000
FLAGS
1070
     4
  0
ENDSEC
  0
EOF
