  0
SECTION
  2
HEADER
  9
$ACADVER
  1
AC1009
  9
$INSBASE
 10
0.0
 20
0.0
 30
0.0
  9
$EXTMIN
 10
201.0236033945404017
 20
-281.513760950367498
 30
-22.1230651039135715
  9
$EXTMAX
 10
296.0236033945403733
 20
55.4935971140286668
 30
-22.1230651039135218
  9
$LIMMIN
 10
0.0
 20
0.0
  9
$LIMMAX
 10
210.0
 20
297.0
  9
$ORTHOMODE
 70
     1
  9
$REGENMODE
 70
     1
  9
$FILLMODE
 70
     1
  9
$QTEXTMODE
 70
     0
  9
$MIRRTEXT
 70
     1
  9
$DRAGMODE
 70
     2
  9
$LTSCALE
 40
10.0
  9
$OSMODE
 70
  2495
  9
$ATTMODE
 70
     1
  9
$TEXTSIZE
 40
3.5
  9
$TRACEWID
 40
0.5
  9
$TEXTSTYLE
  7
STANDARD
  9
$CLAYER
  8
STEMPEL
  9
$CELTYPE
  6
BYLAYER
  9
$CECOLOR
 62
   256
  9
$DIMSCALE
 40
1.0
  9
$DIMASZ
 40
3.5
  9
$DIMEXO
 40
1.0
  9
$DIMDLI
 40
7.0
  9
$DIMRND
 40
0.0
  9
$DIMDLE
 40
0.0
  9
$DIMEXE
 40
1.0
  9
$DIMTP
 40
0.0
  9
$DIMTM
 40
0.0
  9
$DIMTXT
 40
3.5
  9
$DIMCEN
 40
1.5
  9
$DIMTSZ
 40
0.0
  9
$DIMTOL
 70
     0
  9
$DIMLIM
 70
     0
  9
$DIMTIH
 70
     0
  9
$DIMTOH
 70
     0
  9
$DIMSE1
 70
     0
  9
$DIMSE2
 70
     0
  9
$DIMTAD
 70
     1
  9
$DIMZIN
 70
     8
  9
$DIMBLK
  1

  9
$DIMASO
 70
     1
  9
$DIMSHO
 70
     0
  9
$DIMPOST
  1

  9
$DIMAPOST
  1

  9
$DIMALT
 70
     0
  9
$DIMALTD
 70
     2
  9
$DIMALTF
 40
25.3999999999999986
  9
$DIMLFAC
 40
2.0
  9
$DIMTOFL
 70
     1
  9
$DIMTVP
 40
0.0
  9
$DIMTIX
 70
     0
  9
$DIMSOXD
 70
     0
  9
$DIMSAH
 70
     0
  9
$DIMBLK1
  1

  9
$DIMBLK2
  1

  9
$DIMSTYLE
  2
STANDARD
  9
$DIMCLRD
 70
     0
  9
$DIMCLRE
 70
     0
  9
$DIMCLRT
 70
     1
  9
$DIMTFAC
 40
0.5
  9
$DIMGAP
 40
1.5
  9
$LUNITS
 70
     2
  9
$LUPREC
 70
     2
  9
$SKETCHINC
 40
1.0
  9
$FILLETRAD
 40
15.0
  9
$AUNITS
 70
     0
  9
$AUPREC
 70
     0
  9
$MENU
  1
ACAD
  9
$ELEVATION
 40
0.0
  9
$PELEVATION
 40
0.0
  9
$THICKNESS
 40
0.0
  9
$LIMCHECK
 70
     0
  9
$BLIPMODE
 70
     0
  9
$CHAMFERA
 40
2.0
  9
$CHAMFERB
 40
2.0
  9
$SKPOLY
 70
     0
  9
$TDCREATE
 40
2455397.8646990740671754
  9
$TDUPDATE
 40
2459627.3410416669212282
  9
$TDINDWG
 40
0.184842037
  9
$TDUSRTIMER
 40
0.184842037
  9
$USRTIMER
 70
     1
  9
$ANGBASE
 50
0.0
  9
$ANGDIR
 70
     0
  9
$PDMODE
 70
     0
  9
$PDSIZE
 40
0.0
  9
$PLINEWID
 40
0.0
  9
$COORDS
 70
     1
  9
$SPLFRAME
 70
     0
  9
$SPLINETYPE
 70
     6
  9
$SPLINESEGS
 70
     8
  9
$ATTDIA
 70
     1
  9
$ATTREQ
 70
     1
  9
$HANDLING
 70
     1
  9
$HANDSEED
  5
1DC3
  9
$SURFTAB1
 70
     6
  9
$SURFTAB2
 70
     6
  9
$SURFTYPE
 70
     6
  9
$SURFU
 70
     6
  9
$SURFV
 70
     6
  9
$UCSNAME
  2

  9
$UCSORG
 10
0.0
 20
0.0
 30
0.0
  9
$UCSXDIR
 10
1.0
 20
0.0
 30
0.0
  9
$UCSYDIR
 10
0.0
 20
1.0
 30
0.0
  9
$PUCSNAME
  2

  9
$PUCSORG
 10
0.0
 20
0.0
 30
0.0
  9
$PUCSXDIR
 10
1.0
 20
0.0
 30
0.0
  9
$PUCSYDIR
 10
0.0
 20
1.0
 30
0.0
  9
$USERI1
 70
     0
  9
$USERI2
 70
     0
  9
$USERI3
 70
     0
  9
$USERI4
 70
     0
  9
$USERI5
 70
     0
  9
$USERR1
 40
0.0
  9
$USERR2
 40
0.0
  9
$USERR3
 40
0.0
  9
$USERR4
 40
0.0
  9
$USERR5
 40
0.0
  9
$WORLDVIEW
 70
     1
  9
$SHADEDGE
 70
     3
  9
$SHADEDIF
 70
    70
  9
$TILEMODE
 70
     1
  9
$MAXACTVP
 70
    16
  9
$PLIMCHECK
 70
     0
  9
$PEXTMIN
 10
-0.0807522031430494
 20
-62.004674587274728
 30
-0.0000000349181948
  9
$PEXTMAX
 10
209.9405956238032047
 20
296.9596533571905752
 30
0.0000000814935746
  9
$PLIMMIN
 10
-0.0674642631973264
 20
-0.0511601294987543
  9
$PLIMMAX
 10
209.9325357368026914
 20
296.9488398705012742
  9
$UNITMODE
 70
     0
  9
$VISRETAIN
 70
     0
  9
$PLINEGEN
 70
     0
  9
$PSLTSCALE
 70
     0
  0
ENDSEC
  0
SECTION
  2
TABLES
  0
TABLE
  2
VPORT
 70
     1
  0
VPORT
  2
*ACTIVE
 70
     0
 10
0.0
 20
0.0
 11
1.0
 21
1.0
 12
0.8563242982174585
 22
-116.4385818334167055
 13
0.0
 23
0.0
 14
1.0
 24
1.0
 15
10.0
 25
10.0
 16
-0.0000000000001705
 26
0.0
 36
823.3199859579654003
 17
247.6672790963228863
 27
3.4284999152473281
 37
-11.0615325519567609
 40
339.4174226035933088
 41
1.7852028639618129
 42
50.0
 43
0.0
 44
0.0
 50
0.0
 51
0.0
 71
     0
 72
  1500
 73
     1
 74
     0
 75
     0
 76
     0
 77
     0
 78
     0
  0
ENDTAB
  0
TABLE
  2
LTYPE
 70
     6
  0
LTYPE
  2
CONTINUOUS
 70
     0
  3
Solid line
 72
    65
 73
     0
 40
0.0
  0
LTYPE
  2
PHANTOM2
 70
     0
  3
Phantom (.5x) ___ _ _ ___ _ _ ___ _ _ ___ _ _
 72
    65
 73
     6
 40
1.25
 49
0.625
 49
-0.125
 49
0.125
 49
-0.125
 49
0.125
 49
-0.125
  0
LTYPE
  2
VERDECKT
 70
     0
  3
Verdeckt __ __ __ __ __ __ __ __ __ __ __ __ __
 72
    65
 73
     2
 40
0.375
 49
0.25
 49
-0.125
  0
ENDTAB
  0
TABLE
  2
LAYER
 70
    15
  0
LAYER
  2
0
 70
     0
 62
     7
  6
CONTINUOUS
  0
LAYER
  2
VOLL
 70
     0
 62
     1
  6
CONTINUOUS
  0
LAYER
  2
STEMPEL
 70
     0
 62
     3
  6
CONTINUOUS
  0
LAYER
  2
DEFPOINTS
 70
     0
 62
     7
  6
CONTINUOUS
  0
LAYER
  2
ADSK_ASSOC_ENTITY_BACKUPS
 70
     1
 62
    -7
  6
CONTINUOUS
  0
ENDTAB
  0
TABLE
  2
STYLE
 70
     4
  0
STYLE
  2
STANDARD
 70
     0
 40
0.0
 41
0.8
 50
0.0
 71
     0
 42
3.5
  3
simplex.shx
  4

  0
STYLE
  2
GREEKS
 70
     0
 40
0.0
 41
0.8
 50
0.0
 71
     0
 42
2.5
  3
SIMPLEX.shx
  4

  0
ENDTAB
  0
TABLE
  2
VIEW
 70
     1
  0
ENDTAB
  0
TABLE
  2
UCS
 70
     0
  0
ENDTAB
  0
TABLE
  2
APPID
 70
    22
  0
APPID
  2
ACAD
 70
     0
  0
APPID
  2
ACAD_NAV_VCDISPLAY
 70
     0
  0
APPID
  2
ACAD_MLEADERVER
 70
     0
  0
APPID
  2
ACAD_EXEMPT_FROM_CAD_STANDARDS
 70
     0
  0
APPID
  2
ACAD_PSEXT
 70
     0
  0
APPID
  2
ACAECLAYERSTANDARD
 70
     0
  0
APPID
  2
ACAUTHENVIRON
 70
     0
  0
APPID
  2
ACCMTRANSPARENCY
 70
     0
  0
APPID
  2
ACAD_STEPID
 70
     0
  0
APPID
  2
ACSYNERGY
 70
     0
  0
APPID
  2
SYNERGY_BODY_TBR_ID
 70
     0
  0
APPID
  2
ACAD_VIEW_EDGE_ID
 70
     0
  0
APPID
  2
ACSYNERGYSKETCH
 70
     0
  0
APPID
  2
ACAD_MODELDOC_XFORM
 70
     0
  0
APPID
  2
ACAD_DSTYLE_DIMJAG
 70
     0
  0
APPID
  2
ACAD_DSTYLE_DIMTALN
 70
     0
  0
APPID
  2
ACADANNOMONITORALERTICONDI
 70
     0
  0
APPID
  2
ACAD_DIMASSOC_CALC_DIMLFAC
 70
     0
  0
APPID
  2
ACAD_DIMASSOC_DIMLFAC
 70
     0
  0
APPID
  2
ACAD_DIMASSOC_OVERRIDDEN_D
 70
     0
  0
APPID
  2
ACAD_DSTYLE_DIMRADIAL_EXTENSION
 70
     0
  0
APPID
  2
AcDbAttr
 70
     0
  0
ENDTAB
  0
TABLE
  2
DIMSTYLE
 70
     2
  0
DIMSTYLE
  2
STANDARD
 70
     0
  3

  4

  5

  6

  7

 40
1.0
 41
0.18
 42
0.0625
 43
0.38
 44
0.18
 45
0.0
 46
0.0
 47
0.0
 48
0.0
140
0.18
141
0.09
142
0.0
143
25.3999999999999986
144
1.0
145
0.0
146
1.0
147
0.09
 71
     0
 72
     0
 73
     1
 74
     1
 75
     0
 76
     0
 77
     0
 78
     0
170
     0
171
     2
172
     0
173
     0
174
     0
175
     0
176
     0
177
     0
178
     0
  0
ENDTAB
  0
ENDSEC
  0
SECTION
  2
BLOCKS
  0
BLOCK
  8
0
  2
$MODEL_SPACE
 70
     0
 10
0.0
 20
0.0
 30
0.0
  3
$MODEL_SPACE
  1

  0
ENDBLK
  5
36
  8
0
  0
BLOCK
 67
     1
  8
0
  2
$PAPER_SPACE
 70
     0
 10
0.0
 20
0.0
 30
0.0
  3
$PAPER_SPACE
  1

  0
ENDBLK
  5
34
 67
     1
  8
0
  0
BLOCK
  8
0
  2
*S2
 70
     1
 10
0.0
 20
0.0
 30
0.0
  3
*S2
  1

  0
ENDBLK
  5
B3A
  8
0
  0
BLOCK
  8
0
  2
A$C4BB15F17
 70
     0
 10
0.0
 20
0.0
 30
0.0
  3
A$C4BB15F17
  1

  0
CIRCLE
  5
1D2A
  8
0
 10
129.7973054191288043
 20
97.193933037027989
 30
0.0000000000000284
 40
42.1000000000000227
  0
CIRCLE
  5
1D2B
  8
0
 10
129.7973054191288043
 20
97.193933037027989
 30
0.0000000000000284
 40
34.8999999999999773
  0
CIRCLE
  5
1D2C
  8
0
 10
129.7973054191288043
 20
97.193933037027989
 30
0.0000000000000284
 40
38.0000000000001066
  0
CIRCLE
  5
1D2D
  8
0
 10
129.7973054191288043
 20
97.193933037027989
 30
0.0000000000000284
 40
39.7653973282752986
  0
CIRCLE
  5
1D2E
  8
0
 10
129.7973054191288043
 20
97.193933037027989
 30
0.0000000000000284
 40
47.5
  0
CIRCLE
  5
1D2F
  8
0
  6
VERDECKT
 62
     1
 10
129.7973054191288043
 20
97.193933037027989
 30
0.0000000000000284
 40
39.6000000000000227
  0
CIRCLE
  5
1D30
  8
0
  6
VERDECKT
 62
     1
 10
129.7973054191288043
 20
97.193933037027989
 30
0.0000000000000284
 40
36.5
  0
CIRCLE
  5
1D31
  8
0
  6
VERDECKT
 62
     1
 10
129.7973054191288043
 20
97.193933037027989
 30
0.0000000000000284
 40
40.4999999999999929
  0
CIRCLE
  5
1D32
  8
0
  6
VERDECKT
 62
     1
 10
129.7973054191288043
 20
97.193933037027989
 30
0.0000000000000284
 40
40.1956537289413518
  0
CIRCLE
  5
1D33
  8
0
  6
VERDECKT
 62
     1
 10
129.7973054191288043
 20
97.193933037027989
 30
0.0000000000000284
 40
38.7000000000000384
  0
CIRCLE
  5
1D34
  8
0
  6
VERDECKT
 62
     1
 10
129.7973054191288043
 20
97.193933037027989
 30
0.0000000000000284
 40
38.7000000000000384
  0
ENDBLK
  5
1D36
  8
0
  0
BLOCK
  8
0
  2
A$C4E78C87A
 70
     0
 10
0.0
 20
0.0
 30
0.0
  3
A$C4E78C87A
  1

  0
LINE
  5
1D3A
  8
0
 10
90.0319080908535625
 20
-50.0350682550880634
 30
0.0000000000000111
 11
169.5627027474041029
 21
-50.0350682550880634
 31
0.0000000000000111
210
0.0
220
1.0
230
-0.0000000000000002
  0
LINE
  5
1D3B
  8
0
 10
89.6016516901874951
 20
-159.4667198380905972
 30
0.0000000000000354
 11
169.9929591480702129
 21
-159.4667198380905972
 31
0.0000000000000354
210
0.0
220
1.0
230
-0.0000000000000002
  0
LINE
  5
1D3C
  8
0
 10
171.8821376319291971
 20
-59.713267228381838
 30
0.0000000000000133
 11
171.8973054191287986
 21
-65.4033483032852843
 31
0.0000000000000145
210
0.0
220
1.0
230
-0.0000000000000002
  0
LINE
  5
1D3D
  8
0
 10
87.7124732063285251
 20
-59.713267228381838
 30
0.0000000000000133
 11
87.6973054191288952
 21
-65.4033483032852843
 31
0.0000000000000145
210
0.0
220
1.0
230
-0.0000000000000002
  0
ARC
  5
1D3E
  8
0
 10
-112.697305419117896
 20
-65.3350682550901354
 30
0.0
 40
25.0000932431148115
210
0.0
220
-0.0000000000000002
230
-1.0
 50
338.8168456069615218
 51
359.843514045638301
  0
ARC
  5
1D3F
  8
0
 10
-146.8973054191399967
 20
-65.3350682550901354
 30
0.0
 40
25.0000932431145984
210
0.0
220
-0.0000000000000002
230
-1.0
 50
180.1564859543615
 51
201.1831543930385919
  0
ARC
  5
1D40
  8
0
 10
-78.1973054191306147
 20
-78.7050682550877383
 30
0.0
 40
11.9999999999982201
210
0.0
220
-0.0000000000000002
230
-1.0
 50
158.8168456069593901
 51
180.0000000000013074
  0
ARC
  5
1D41
  8
0
 10
-181.397305419127207
 20
-78.7050682550877667
 30
0.0
 40
11.9999999999983498
210
0.0
220
-0.0000000000000002
230
-1.0
 50
0.0
 51
21.1831543930418214
  0
LINE
  5
1D42
  8
0
 10
169.3973054191289123
 20
-78.7050682550880225
 30
0.0000000000000175
 11
169.3973054191289123
 21
-99.6463418376710308
 31
0.0000000000000221
210
0.0
220
1.0
230
-0.0000000000000002
  0
LINE
  5
1D43
  8
0
 10
90.1973054191288242
 20
-78.7050682550880225
 30
0.0000000000000175
 11
90.1973054191288242
 21
-99.6463418376710308
 31
0.0000000000000221
210
0.0
220
1.0
230
-0.0000000000000002
  0
ARC
  5
1D44
  8
0
 10
-102.1973054191294068
 20
-99.6463418376708034
 30
0.0
 40
12.0000000000005898
210
0.0
220
-0.0000000000000002
230
-1.0
 50
327.6719358778385072
 51
359.99999999999892
  0
ARC
  5
1D45
  8
0
 10
-157.3973054191284859
 20
-99.6463418376708745
 30
0.0
 40
12.0000000000003695
210
0.0
220
-0.0000000000000002
230
-1.0
 50
180.0000000000005969
 51
212.3280641221618055
  0
ARC
  5
1D46
  8
0
 10
-85.2973054191289748
 20
-110.3416679196565013
 30
0.0
 40
7.9999999999998721
210
0.0
220
-0.0000000000000002
230
-1.0
 50
147.6719358778370861
 51
180.0000000000007105
  0
ARC
  5
1D47
  8
0
 10
-174.2973054191290032
 20
-110.3416679196566008
 30
0.0
 40
8.0000000000001705
210
0.0
220
-0.0000000000000002
230
-1.0
 50
0.0
 51
32.3280641221624734
  0
ARC
  5
1D48
  8
0
 10
-109.304239915567706
 20
-59.770823407002112
 30
0.0
 40
21.5918434215309603
210
0.0
220
-0.0000000000000002
230
-1.0
 50
0.1527303602983199
 51
26.8014207398320998
  0
ARC
  5
1D49
  8
0
 10
-150.2903709226899878
 20
-59.7708234070021192
 30
0.0
 40
21.5918434215309816
210
0.0
220
-0.0000000000000002
230
-1.0
 50
153.1985792601678895
 51
179.847269639701608
  0
LINE
  5
1D4A
  8
0
 10
166.2973054191288043
 20
-110.3416679196566008
 30
0.0000000000000245
 11
166.2973054191288043
 21
-147.5381680369195863
 31
0.0000000000000328
210
0.0
220
1.0
230
-0.0000000000000002
  0
LINE
  5
1D4B
  8
0
 10
93.2973054191288469
 20
-110.3416679196566008
 30
0.0000000000000245
 11
93.2973054191288469
 21
-147.5381680369195863
 31
0.0000000000000328
210
0.0
220
1.0
230
-0.0000000000000002
  0
ARC
  5
1D4C
  8
0
 10
-81.2973054191294864
 20
-147.5381680369198136
 30
0.0
 40
11.9999999999993694
210
0.0
220
-0.0000000000000002
230
-1.0
 50
179.9999999999988063
 51
200.8067910127107893
  0
ARC
  5
1D4D
  8
0
 10
-178.2973054191282074
 20
-147.5381680369198136
 30
0.0
 40
11.9999999999993694
210
0.0
220
-0.0000000000000002
230
-1.0
 50
339.193208987289097
 51
0.0000000000012213
  0
LINE
  5
1D4E
  8
0
 10
167.0799024520686089
 20
-151.8007811644023946
 30
0.0000000000000337
 11
169.9929591480702129
 21
-159.4667198380905972
 31
0.0000000000000354
210
0.0
220
1.0
230
-0.0000000000000002
  0
LINE
  5
1D4F
  8
0
 10
92.5147083861891133
 20
-151.8007811644023946
 30
0.0000000000000337
 11
89.6016516901874951
 21
-159.4667198380905972
 31
0.0000000000000354
210
0.0
220
1.0
230
-0.0000000000000002
  0
LINE
  5
1D50
  8
0
 10
91.0973054191287872
 20
-160.035068255088305
 30
0.0000000000000355
 11
89.6016516901874951
 21
-159.4667198380905972
 31
0.0000000000000354
210
0.0
220
1.0
230
-0.0000000000000002
  0
LINE
  5
1D51
  8
0
 10
168.4973054191289066
 20
-160.035068255088305
 30
0.0000000000000355
 11
169.9929591480702129
 21
-159.4667198380905972
 31
0.0000000000000354
210
0.0
220
1.0
230
-0.0000000000000002
  0
LINE
  5
1D52
  8
0
 10
177.2973054191288043
 20
-260.0350682550882766
 30
0.0000000000000577
 11
82.2973054191288611
 21
-260.0350682550882766
 31
0.0000000000000577
210
0.0
220
1.0
230
-0.0000000000000002
  0
LINE
  5
1D53
  8
0
 10
177.2973054191288043
 20
-160.035068255088305
 30
0.0000000000000355
 11
82.2973054191288611
 21
-160.035068255088305
 31
0.0000000000000355
210
0.0
220
1.0
230
-0.0000000000000002
  0
LINE
  5
1D54
  8
0
 10
82.2973054191288611
 20
-260.0350682550882766
 30
0.0000000000000577
 11
82.2973054191288611
 21
-160.035068255088305
 31
0.0000000000000355
210
0.0
220
1.0
230
-0.0000000000000002
  0
LINE
  5
1D55
  8
0
 10
177.2973054191288043
 20
-260.0350682550882766
 30
0.0000000000000577
 11
177.2973054191288043
 21
-160.035068255088305
 31
0.0000000000000355
210
0.0
220
1.0
230
-0.0000000000000002
  0
ARC
  5
1D56
  8
0
  6
VERDECKT
 62
     1
 10
-85.2973054191287616
 20
-110.3416679196566008
 30
0.0
 40
9.6000000000001204
210
0.0
220
-0.0000000000000002
230
-1.0
 50
147.6719358778360061
 51
180.0
  0
ARC
  5
1D57
  8
0
  6
VERDECKT
 62
     1
 10
-174.2973054191288895
 20
-110.3416679196566008
 30
0.0
 40
9.600000000000108
210
0.0
220
-0.0000000000000002
230
-1.0
 50
359.9999999999998863
 51
32.328064122164001
  0
ARC
  5
1D58
  8
0
  6
VERDECKT
 62
     1
 10
-102.1973054191258967
 20
-99.6463418376718977
 30
0.0
 40
10.3999999999970694
210
0.0
220
-0.0000000000000002
230
-1.0
 50
327.671935877834585
 51
0.0000000000047836
  0
ARC
  5
1D59
  8
0
  6
VERDECKT
 62
     1
 10
-157.3973054191318113
 20
-99.6463418376718977
 30
0.0
 40
10.39999999999708
210
0.0
220
-0.0000000000000002
230
-1.0
 50
179.9999999999951967
 51
212.3280641221653866
  0
LINE
  5
1D5A
  8
0
  6
VERDECKT
 62
     1
 10
167.7973054191288043
 20
-78.7050682550880225
 30
0.0000000000000175
 11
167.7973054191288043
 21
-99.6463418376710308
 31
0.0000000000000221
210
0.0
220
1.0
230
-0.0000000000000002
  0
LINE
  5
1D5B
  8
0
  6
VERDECKT
 62
     1
 10
91.7973054191288753
 20
-78.7050682550880225
 30
0.0000000000000175
 11
91.7973054191288753
 21
-99.6463418376710308
 31
0.0000000000000221
210
0.0
220
1.0
230
-0.0000000000000002
  0
ARC
  5
1D5C
  8
0
  6
VERDECKT
 62
     1
 10
-78.1973054191285826
 20
-78.7050682550878804
 30
0.0
 40
13.6000000000002697
210
0.0
220
-0.0000000000000002
230
-1.0
 50
158.816845606964506
 51
180.0000000000005116
  0
ARC
  5
1D5D
  8
0
  6
VERDECKT
 62
     1
 10
-181.3973054191293102
 20
-78.705068255087923
 30
0.0
 40
13.6000000000004206
210
0.0
220
-0.0000000000000002
230
-1.0
 50
359.9999999999996021
 51
21.1831543930354584
  0
ARC
  5
1D5E
  8
0
  6
VERDECKT
 62
     1
 10
-112.6973054191267067
 20
-65.3350682550882595
 30
0.0
 40
23.4000932431236492
210
0.0
220
-0.0000000000000002
230
-1.0
 50
338.8168456069636818
 51
359.838252568719895
  0
ARC
  5
1D5F
  8
0
  6
VERDECKT
 62
     1
 10
-146.8973054191309018
 20
-65.3350682550882595
 30
0.0
 40
23.4000932431236492
210
0.0
220
-0.0000000000000002
230
-1.0
 50
180.161747431280105
 51
201.1831543930362898
  0
LINE
  5
1D60
  8
0
  6
VERDECKT
 62
     1
 10
170.2973054191288043
 20
-60.5839906622067232
 30
0.0000000000000135
 11
170.2973054191288043
 21
-65.4011272210134535
 31
0.0000000000000145
210
0.0
220
1.0
230
-0.0000000000000002
  0
LINE
  5
1D61
  8
0
  6
VERDECKT
 62
     1
 10
89.2973054191288753
 20
-60.5839906622067232
 30
0.0000000000000135
 11
89.2973054191288753
 21
-65.4011272210134535
 31
0.0000000000000145
210
0.0
220
1.0
230
-0.0000000000000002
  0
ARC
  5
1D62
  8
0
  6
VERDECKT
 62
     1
 10
-112.6973054191282984
 20
-60.5839906622066025
 30
0.0
 40
23.3999999999995012
210
0.0
220
-0.0000000000000002
230
-1.0
 50
359.9999999999997158
 51
25.0000000000002593
  0
ARC
  5
1D63
  8
0
  6
VERDECKT
 62
     1
 10
-146.897305419129907
 20
-60.5839906622064817
 30
0.0
 40
23.3999999999989292
210
0.0
220
-0.0000000000000002
230
-1.0
 50
154.9999999999994031
 51
180.0000000000005969
  0
LINE
  5
1D64
  8
0
  6
VERDECKT
 62
     1
 10
167.7973054191290032
 20
-50.0350682550880421
 30
0.0000000000000111
 11
168.1049076357865033
 21
-50.694723337474322
 31
0.0000000000000113
210
0.0
220
1.0
230
-0.0000000000000002
  0
LINE
  5
1D65
  8
0
  6
VERDECKT
 62
     1
 10
91.7973054191287048
 20
-50.0350682550880421
 30
0.0000000000000111
 11
91.4897032024711763
 21
-50.694723337474322
 31
0.0000000000000113
210
0.0
220
1.0
230
-0.0000000000000002
  0
LINE
  5
1D66
  8
0
  6
VERDECKT
 62
     1
 10
164.6973054191286963
 20
-110.3416679196566008
 30
0.0000000000000245
 11
164.6973054191286963
 21
-147.5381680369195863
 31
0.0000000000000328
210
0.0
220
1.0
230
-0.0000000000000002
  0
LINE
  5
1D67
  8
0
  6
VERDECKT
 62
     1
 10
94.8973054191289975
 20
-110.3416679196566008
 30
0.0000000000000245
 11
94.8973054191289975
 21
-147.5381680369195863
 31
0.0000000000000328
210
0.0
220
1.0
230
-0.0000000000000002
  0
LINE
  5
1D68
  8
0
  6
VERDECKT
 62
     1
 10
165.5842487231273026
 20
-152.3691295813999886
 30
0.0000000000000338
 11
168.4973054191289066
 21
-160.035068255088305
 31
0.0000000000000355
210
0.0
220
1.0
230
-0.0000000000000002
  0
LINE
  5
1D69
  8
0
  6
VERDECKT
 62
     1
 10
94.0103621151304338
 20
-152.3691295813999886
 30
0.0000000000000338
 11
91.0973054191288156
 21
-160.035068255088305
 31
0.0000000000000355
210
0.0
220
1.0
230
-0.0000000000000002
  0
ARC
  5
1D6A
  8
0
  6
VERDECKT
 62
     1
 10
-81.2973054191258768
 20
-147.5381680369185062
 30
0.0
 40
13.6000000000031207
210
0.0
220
-0.0000000000000002
230
-1.0
 50
180.0000000000044054
 51
200.8067910127103062
  0
ARC
  5
1D6B
  8
0
  6
VERDECKT
 62
     1
 10
-178.2973054191317885
 20
-147.5381680369185062
 30
0.0
 40
13.6000000000031207
210
0.0
220
-0.0000000000000002
230
-1.0
 50
339.1932089872897222
 51
359.9999999999956231
  0
LINE
  5
1D6C
  8
0
  6
VERDECKT
 62
     1
 10
91.0973054191288156
 20
-260.0350682550882766
 30
0.0000000000000577
 11
91.0973054191288156
 21
-160.0350682550881913
 31
0.0000000000000355
210
0.0
220
1.0
230
-0.0000000000000002
  0
LINE
  5
1D6D
  8
0
  6
VERDECKT
 62
     1
 10
168.4973054191289066
 20
-260.0350682550882766
 30
0.0000000000000577
 11
168.4973054191289066
 21
-160.0350682550881913
 31
0.0000000000000355
210
0.0
220
1.0
230
-0.0000000000000002
  0
ENDBLK
  5
1D6F
  8
0
  0
ENDSEC
  0
SECTION
  2
ENTITIES
  0
TEXT
  5
8F
  8
VOLL
 10
78.076754716981128
 20
31.025947764705851
 30
0.0
 40
1.8
  1

  7
GREEKS
  0
INSERT
  5
B3C
  8
ADSK_ASSOC_ENTITY_BACKUPS
  2
*S2
 10
0.0
 20
0.0
 30
0.0
  0
INSERT
  5
1D37
  8
STEMPEL
  2
A$C4BB15F17
 10
118.726297975411498
 20
-331.2076939873953734
 30
-22.1230651039135502
  0
INSERT
  5
1D70
  8
STEMPEL
  2
A$C4E78C87A
 10
118.726297975411498
 20
105.5286653691166947
 30
-22.1230651039135715
  0
VIEWPORT
  5
928
 67
     1
  8
0
 10
193.7900693122751932
 20
76.1399828252359043
 30
0.0
 40
1032.5523658815070576
 41
578.3949750058170594
 68
     1
 69
     1
1001
ACAD
1000
MVIEW
1002
{
1070
    16
1010
0.0
1020
0.0
1030
0.0
1010
0.0
1020
0.0
1030
1.0
1040
0.0
1040
578.3949750058170594
1040
193.7900693122751932
1040
76.1399828252359043
1040
50.0
1040
0.0
1040
0.0
1070
     0
1070
  1500
1070
     1
1070
     1
1070
     0
1070
     0
1070
     0
1070
     0
1040
0.0
1040
0.0
1040
0.0
1040
10.0
1040
10.0
1040
10.0
1040
10.0
1070
     0
1002
{
1002
}
1002
}
  0
ENDSEC
  0
EOF
