  0
SECTION
  2
HEADER
  9
$ACADVER
  1
AC1009
  9
$INSBASE
 10
0.0
 20
0.0
 30
0.0
  9
$EXTMIN
 10
209.9573466490984117
 20
-288.2422671366139184
 30
-27.9493991444843886
  9
$EXTMAX
 10
311.9573466490983833
 20
53.8477023581219001
 30
-27.9493991444843495
  9
$LIMMIN
 10
0.0
 20
0.0
  9
$LIMMAX
 10
210.0
 20
297.0
  9
$ORTHOMODE
 70
     1
  9
$REGENMODE
 70
     1
  9
$FILLMODE
 70
     1
  9
$QTEXTMODE
 70
     0
  9
$MIRRTEXT
 70
     1
  9
$DRAGMODE
 70
     2
  9
$LTSCALE
 40
10.0
  9
$OSMODE
 70
  2495
  9
$ATTMODE
 70
     1
  9
$TEXTSIZE
 40
3.5
  9
$TRACEWID
 40
0.5
  9
$TEXTSTYLE
  7
STANDARD
  9
$CLAYER
  8
STEMPEL
  9
$CELTYPE
  6
BYLAYER
  9
$CECOLOR
 62
   256
  9
$DIMSCALE
 40
1.0
  9
$DIMASZ
 40
3.5
  9
$DIMEXO
 40
1.0
  9
$DIMDLI
 40
7.0
  9
$DIMRND
 40
0.0
  9
$DIMDLE
 40
0.0
  9
$DIMEXE
 40
1.0
  9
$DIMTP
 40
0.0
  9
$DIMTM
 40
0.0
  9
$DIMTXT
 40
3.5
  9
$DIMCEN
 40
1.5
  9
$DIMTSZ
 40
0.0
  9
$DIMTOL
 70
     0
  9
$DIMLIM
 70
     0
  9
$DIMTIH
 70
     0
  9
$DIMTOH
 70
     0
  9
$DIMSE1
 70
     0
  9
$DIMSE2
 70
     0
  9
$DIMTAD
 70
     1
  9
$DIMZIN
 70
     8
  9
$DIMBLK
  1

  9
$DIMASO
 70
     1
  9
$DIMSHO
 70
     0
  9
$DIMPOST
  1

  9
$DIMAPOST
  1

  9
$DIMALT
 70
     0
  9
$DIMALTD
 70
     2
  9
$DIMALTF
 40
25.3999999999999986
  9
$DIMLFAC
 40
2.0
  9
$DIMTOFL
 70
     1
  9
$DIMTVP
 40
0.0
  9
$DIMTIX
 70
     0
  9
$DIMSOXD
 70
     0
  9
$DIMSAH
 70
     0
  9
$DIMBLK1
  1

  9
$DIMBLK2
  1

  9
$DIMSTYLE
  2
STANDARD
  9
$DIMCLRD
 70
     0
  9
$DIMCLRE
 70
     0
  9
$DIMCLRT
 70
     1
  9
$DIMTFAC
 40
0.5
  9
$DIMGAP
 40
1.5
  9
$LUNITS
 70
     2
  9
$LUPREC
 70
     2
  9
$SKETCHINC
 40
1.0
  9
$FILLETRAD
 40
15.0
  9
$AUNITS
 70
     0
  9
$AUPREC
 70
     0
  9
$MENU
  1
ACAD
  9
$ELEVATION
 40
0.0
  9
$PELEVATION
 40
0.0
  9
$THICKNESS
 40
0.0
  9
$LIMCHECK
 70
     0
  9
$BLIPMODE
 70
     0
  9
$CHAMFERA
 40
2.0
  9
$CHAMFERB
 40
2.0
  9
$SKPOLY
 70
     0
  9
$TDCREATE
 40
2455397.8646990740671754
  9
$TDUPDATE
 40
2459627.3313541668467224
  9
$TDINDWG
 40
0.2087077778
  9
$TDUSRTIMER
 40
0.2087077778
  9
$USRTIMER
 70
     1
  9
$ANGBASE
 50
0.0
  9
$ANGDIR
 70
     0
  9
$PDMODE
 70
     0
  9
$PDSIZE
 40
0.0
  9
$PLINEWID
 40
0.0
  9
$COORDS
 70
     1
  9
$SPLFRAME
 70
     0
  9
$SPLINETYPE
 70
     6
  9
$SPLINESEGS
 70
     8
  9
$ATTDIA
 70
     1
  9
$ATTREQ
 70
     1
  9
$HANDLING
 70
     1
  9
$HANDSEED
  5
1EB8
  9
$SURFTAB1
 70
     6
  9
$SURFTAB2
 70
     6
  9
$SURFTYPE
 70
     6
  9
$SURFU
 70
     6
  9
$SURFV
 70
     6
  9
$UCSNAME
  2

  9
$UCSORG
 10
0.0
 20
0.0
 30
0.0
  9
$UCSXDIR
 10
1.0
 20
0.0
 30
0.0
  9
$UCSYDIR
 10
0.0
 20
1.0
 30
0.0
  9
$PUCSNAME
  2

  9
$PUCSORG
 10
0.0
 20
0.0
 30
0.0
  9
$PUCSXDIR
 10
1.0
 20
0.0
 30
0.0
  9
$PUCSYDIR
 10
0.0
 20
1.0
 30
0.0
  9
$USERI1
 70
     0
  9
$USERI2
 70
     0
  9
$USERI3
 70
     0
  9
$USERI4
 70
     0
  9
$USERI5
 70
     0
  9
$USERR1
 40
0.0
  9
$USERR2
 40
0.0
  9
$USERR3
 40
0.0
  9
$USERR4
 40
0.0
  9
$USERR5
 40
0.0
  9
$WORLDVIEW
 70
     1
  9
$SHADEDGE
 70
     3
  9
$SHADEDIF
 70
    70
  9
$TILEMODE
 70
     1
  9
$MAXACTVP
 70
    16
  9
$PLIMCHECK
 70
     0
  9
$PEXTMIN
 10
1.0000000000000000E+20
 20
1.0000000000000000E+20
 30
1.0000000000000000E+20
  9
$PEXTMAX
 10
-1.0000000000000000E+20
 20
-1.0000000000000000E+20
 30
-1.0000000000000000E+20
  9
$PLIMMIN
 10
-0.0674642631973264
 20
-0.0511601294987543
  9
$PLIMMAX
 10
209.9325357368026914
 20
296.9488398705012742
  9
$UNITMODE
 70
     0
  9
$VISRETAIN
 70
     0
  9
$PLINEGEN
 70
     0
  9
$PSLTSCALE
 70
     0
  0
ENDSEC
  0
SECTION
  2
TABLES
  0
TABLE
  2
VPORT
 70
     1
  0
VPORT
  2
*ACTIVE
 70
     0
 10
0.0
 20
0.0
 11
1.0
 21
1.0
 12
0.2154220043185262
 22
-119.9049565280547966
 13
0.0
 23
0.0
 14
1.0
 24
1.0
 15
10.0
 25
10.0
 16
-0.0000000000001705
 26
0.0
 36
833.0557181280520354
 17
260.7419246447798855
 27
2.7076741388088399
 37
-13.9746995722421801
 40
344.5363816722905881
 41
1.785202863961814
 42
50.0
 43
0.0
 44
0.0
 50
0.0
 51
0.0
 71
     0
 72
  1500
 73
     1
 74
     0
 75
     0
 76
     0
 77
     0
 78
     0
  0
ENDTAB
  0
TABLE
  2
LTYPE
 70
     6
  0
LTYPE
  2
CONTINUOUS
 70
     0
  3
Solid line
 72
    65
 73
     0
 40
0.0
  0
LTYPE
  2
PHANTOM2
 70
     0
  3
Phantom (.5x) ___ _ _ ___ _ _ ___ _ _ ___ _ _
 72
    65
 73
     6
 40
1.25
 49
0.625
 49
-0.125
 49
0.125
 49
-0.125
 49
0.125
 49
-0.125
  0
LTYPE
  2
VERDECKT
 70
     0
  3
Verdeckt __ __ __ __ __ __ __ __ __ __ __ __ __
 72
    65
 73
     2
 40
0.375
 49
0.25
 49
-0.125
  0
ENDTAB
  0
TABLE
  2
LAYER
 70
    15
  0
LAYER
  2
0
 70
     0
 62
     7
  6
CONTINUOUS
  0
LAYER
  2
VOLL
 70
     0
 62
     1
  6
CONTINUOUS
  0
LAYER
  2
STEMPEL
 70
     0
 62
     3
  6
CONTINUOUS
  0
LAYER
  2
DEFPOINTS
 70
     0
 62
     7
  6
CONTINUOUS
  0
LAYER
  2
ADSK_ASSOC_ENTITY_BACKUPS
 70
     1
 62
    -7
  6
CONTINUOUS
  0
ENDTAB
  0
TABLE
  2
STYLE
 70
     4
  0
STYLE
  2
STANDARD
 70
     0
 40
0.0
 41
0.8
 50
0.0
 71
     0
 42
3.5
  3
simplex.shx
  4

  0
STYLE
  2
GREEKS
 70
     0
 40
0.0
 41
0.8
 50
0.0
 71
     0
 42
2.5
  3
SIMPLEX.shx
  4

  0
ENDTAB
  0
TABLE
  2
VIEW
 70
     1
  0
ENDTAB
  0
TABLE
  2
UCS
 70
     0
  0
ENDTAB
  0
TABLE
  2
APPID
 70
    24
  0
APPID
  2
ACAD
 70
     0
  0
APPID
  2
ACAD_NAV_VCDISPLAY
 70
     0
  0
APPID
  2
ACAD_MLEADERVER
 70
     0
  0
APPID
  2
ACAD_EXEMPT_FROM_CAD_STANDARDS
 70
     0
  0
APPID
  2
ACAD_PSEXT
 70
     0
  0
APPID
  2
ACAECLAYERSTANDARD
 70
     0
  0
APPID
  2
ACAUTHENVIRON
 70
     0
  0
APPID
  2
ACCMTRANSPARENCY
 70
     0
  0
APPID
  2
ACAD_STEPID
 70
     0
  0
APPID
  2
ACSYNERGY
 70
     0
  0
APPID
  2
SYNERGY_BODY_TBR_ID
 70
     0
  0
APPID
  2
ACAD_VIEW_EDGE_ID
 70
     0
  0
APPID
  2
ACSYNERGYSKETCH
 70
     0
  0
APPID
  2
ACAD_MODELDOC_XFORM
 70
     0
  0
APPID
  2
ACAD_DSTYLE_DIMJAG
 70
     0
  0
APPID
  2
ACAD_DSTYLE_DIMTALN
 70
     0
  0
APPID
  2
ACADANNOMONITORALERTICONDI
 70
     0
  0
APPID
  2
ACAD_DIMASSOC_CALC_DIMLFAC
 70
     0
  0
APPID
  2
ACAD_DIMASSOC_DIMLFAC
 70
     0
  0
APPID
  2
ACAD_DIMASSOC_OVERRIDDEN_D
 70
     0
  0
APPID
  2
ACAD_DSTYLE_DIMRADIAL_EXTENSION
 70
     0
  0
APPID
  2
GRADIENTCOLOR1ACI
 70
     0
  0
APPID
  2
GRADIENTCOLOR2ACI
 70
     0
  0
APPID
  2
AcDbAttr
 70
     0
  0
ENDTAB
  0
TABLE
  2
DIMSTYLE
 70
     2
  0
DIMSTYLE
  2
STANDARD
 70
     0
  3

  4

  5

  6

  7

 40
1.0
 41
0.18
 42
0.0625
 43
0.38
 44
0.18
 45
0.0
 46
0.0
 47
0.0
 48
0.0
140
0.18
141
0.09
142
0.0
143
25.3999999999999986
144
1.0
145
0.0
146
1.0
147
0.09
 71
     0
 72
     0
 73
     1
 74
     1
 75
     0
 76
     0
 77
     0
 78
     0
170
     0
171
     2
172
     0
173
     0
174
     0
175
     0
176
     0
177
     0
178
     0
  0
ENDTAB
  0
ENDSEC
  0
SECTION
  2
BLOCKS
  0
BLOCK
  8
0
  2
$MODEL_SPACE
 70
     0
 10
0.0
 20
0.0
 30
0.0
  3
$MODEL_SPACE
  1

  0
ENDBLK
  5
36
  8
0
  0
BLOCK
 67
     1
  8
0
  2
$PAPER_SPACE
 70
     0
 10
0.0
 20
0.0
 30
0.0
  3
$PAPER_SPACE
  1

  0
ENDBLK
  5
34
 67
     1
  8
0
  0
BLOCK
  8
0
  2
*S2
 70
     1
 10
0.0
 20
0.0
 30
0.0
  3
*S2
  1

  0
ENDBLK
  5
B3A
  8
0
  0
BLOCK
  8
0
  2
A$C976E7C0D
 70
     0
 10
0.0
 20
0.0
 30
0.0
  3
A$C976E7C0D
  1

  0
CIRCLE
  5
1E1F
  8
0
 10
129.7973054191286906
 20
97.1939330370280459
 30
0.0000000000000284
 40
51.0
  0
CIRCLE
  5
1E20
  8
0
 10
129.7973054191288043
 20
97.1939330370280459
 30
0.0000000000000284
 40
45.762615579272051
  0
CIRCLE
  5
1E21
  8
0
 10
129.7973054191288043
 20
97.1939330370280459
 30
0.0000000000000284
 40
42.0
  0
CIRCLE
  5
1E22
  8
0
 10
129.7973054191288043
 20
97.1939330370280459
 30
0.0000000000000284
 40
35.0
  0
CIRCLE
  5
1E23
  8
0
 10
129.7973054191288043
 20
97.1939330370280459
 30
0.0000000000000284
 40
38.0
  0
CIRCLE
  5
1E24
  8
0
 10
129.7973054191288043
 20
97.1939330370280459
 30
0.0000000000000284
 40
39.6550490145463073
  0
CIRCLE
  5
1E25
  8
0
  6
VERDECKT
 62
     1
 10
129.7973054191286906
 20
97.1939330370280459
 30
0.0000000000000284
 40
44.5
  0
CIRCLE
  5
1E26
  8
0
  6
VERDECKT
 62
     1
 10
129.7973054191288043
 20
97.1939330370280459
 30
0.0000000000000284
 40
44.5
  0
CIRCLE
  5
1E27
  8
0
  6
VERDECKT
 62
     1
 10
129.7973054191288043
 20
97.1939330370280459
 30
0.0000000000000284
 40
39.5000000000001208
  0
CIRCLE
  5
1E28
  8
0
  6
VERDECKT
 62
     1
 10
129.7973054191288043
 20
97.1939330370280459
 30
0.0000000000000284
 40
36.5
  0
CIRCLE
  5
1E29
  8
0
  6
VERDECKT
 62
     1
 10
129.7973054191288043
 20
97.1939330370280459
 30
0.0000000000000284
 40
40.4999999999999929
  0
ENDBLK
  5
1E2B
  8
0
  0
BLOCK
  8
0
  2
A$C3FA6F481
 70
     0
 10
0.0
 20
0.0
 30
0.0
  3
A$C3FA6F481
  1

  0
LINE
  5
1E2F
  8
0
 10
78.7973054191287332
 20
-160.0390355942440976
 30
0.0000000000000355
 11
180.7973054191286906
 21
-160.0390355942440976
 31
0.0000000000000355
210
0.0
220
1.0
230
-0.0000000000000002
  0
LINE
  5
1E30
  8
0
 10
78.7973054191287332
 20
-260.0390355942442966
 30
0.0000000000000577
 11
180.7973054191286906
 21
-260.0390355942442966
 31
0.0000000000000577
210
0.0
220
1.0
230
-0.0000000000000002
  0
LINE
  5
1E31
  8
0
 10
180.7973054191286906
 20
-160.0390355942440976
 30
0.0000000000000355
 11
180.7973054191286906
 21
-260.0390355942442966
 31
0.0000000000000577
210
0.0
220
1.0
230
-0.0000000000000002
  0
LINE
  5
1E32
  8
0
 10
78.7973054191287332
 20
-160.0390355942440976
 30
0.0000000000000355
 11
78.7973054191287332
 21
-260.0390355942442966
 31
0.0000000000000577
210
0.0
220
1.0
230
-0.0000000000000002
  0
LINE
  5
1E33
  8
0
 10
84.0346898398567959
 20
-159.2292196281262022
 30
0.0000000000000354
 11
175.5599209984009121
 21
-159.2292196281262022
 31
0.0000000000000354
210
0.0
220
1.0
230
-0.0000000000000002
  0
LINE
  5
1E34
  8
0
 10
90.1422564045825538
 20
-50.0350682550879995
 30
0.0000000000000111
 11
169.4523544336751115
 21
-50.0350682550879995
 31
0.0000000000000111
210
0.0
220
1.0
230
-0.0000000000000002
  0
ARC
  5
1E35
  8
0
 10
-85.2973054191284064
 20
-142.4424450153848909
 30
0.0
 40
8.0000000000004547
210
0.0
220
-0.0000000000000002
230
-1.0
 50
179.9999999999996021
 51
212.675287248304187
  0
ARC
  5
1E36
  8
0
 10
-174.2973054191292874
 20
-142.4424450153848909
 30
0.0
 40
8.0000000000004565
210
0.0
220
-0.0000000000000002
230
-1.0
 50
327.3247127516956994
 51
0.0000000000003931
  0
LINE
  5
1E37
  8
0
 10
167.5633556630110945
 20
-146.7614635013468956
 30
0.0000000000000326
 11
175.5599209984009121
 21
-159.2292196281262022
 31
0.0000000000000354
210
0.0
220
1.0
230
-0.0000000000000002
  0
LINE
  5
1E38
  8
0
 10
92.0312551752466135
 20
-146.7614635013468956
 30
0.0000000000000326
 11
84.0346898398567674
 21
-159.2292196281262022
 31
0.0000000000000354
210
0.0
220
1.0
230
-0.0000000000000002
  0
LINE
  5
1E39
  8
0
 10
85.2973054191288611
 20
-160.0390355942440976
 30
0.0000000000000355
 11
84.0346898398567959
 21
-159.2292196281262022
 31
0.0000000000000354
210
0.0
220
1.0
230
-0.0000000000000002
  0
LINE
  5
1E3A
  8
0
 10
174.2973054191288043
 20
-160.0390355942440976
 30
0.0000000000000355
 11
175.5599209984009121
 21
-159.2292196281262022
 31
0.0000000000000354
210
0.0
220
1.0
230
-0.0000000000000002
  0
LINE
  5
1E3B
  8
0
 10
171.7973054191288043
 20
-60.5839906622067232
 30
0.0000000000000135
 11
171.7973054191288043
 21
-65.4011272210086787
 31
0.0000000000000145
210
0.0
220
1.0
230
-0.0000000000000002
  0
LINE
  5
1E3C
  8
0
 10
87.7973054191288611
 20
-60.5839906622067232
 30
0.0000000000000135
 11
87.7973054191288611
 21
-65.4011272210086787
 31
0.0000000000000145
210
0.0
220
1.0
230
-0.0000000000000002
  0
ARC
  5
1E3D
  8
0
 10
-112.6972267955167979
 20
-65.3350987245836592
 30
0.0
 40
24.9000089219390297
210
0.0
220
-0.0000000000000002
230
-1.0
 50
338.8168456069602144
 51
359.8480659738586951
  0
ARC
  5
1E3E
  8
0
 10
-146.8973840427408959
 20
-65.3350987245836592
 30
0.0
 40
24.900008921939019
210
0.0
220
-0.0000000000000002
230
-1.0
 50
180.1519340261411912
 51
201.1831543930397004
  0
ARC
  5
1E3F
  8
0
 10
-78.1973054191304016
 20
-78.7050682550877099
 30
0.0
 40
12.09999999999844
210
0.0
220
-0.0000000000000002
230
-1.0
 50
158.816845606959788
 51
180.0000000000013927
  0
ARC
  5
1E40
  8
0
 10
-181.3973054191276901
 20
-78.7050682550878236
 30
0.0
 40
12.0999999999988592
210
0.0
220
-0.0000000000000002
230
-1.0
 50
359.9999999999989768
 51
21.1831543930399206
  0
LINE
  5
1E41
  8
0
 10
169.2973054191288895
 20
-78.7050682550880225
 30
0.0000000000000175
 11
169.2973054191288895
 21
-99.6545478341621731
 31
0.0000000000000221
210
0.0
220
1.0
230
-0.0000000000000002
  0
LINE
  5
1E42
  8
0
 10
90.2973054191287332
 20
-78.7050682550880225
 30
0.0000000000000175
 11
90.2973054191287332
 21
-99.6545478341621731
 31
0.0000000000000221
210
0.0
220
1.0
230
-0.0000000000000002
  0
ARC
  5
1E43
  8
0
 10
-102.1973054191259962
 20
-99.6545478341627273
 30
0.0
 40
11.8999999999972896
210
0.0
220
-0.0000000000000002
230
-1.0
 50
328.1297797402249898
 51
0.0000000000026717
  0
ARC
  5
1E44
  8
0
 10
-157.3973054191318113
 20
-99.6545478341627984
 30
0.0
 40
11.8999999999970996
210
0.0
220
-0.0000000000000002
230
-1.0
 50
179.9999999999969873
 51
211.8702202597750954
  0
ARC
  5
1E45
  8
0
 10
-85.2973054191275537
 20
-110.1616882634134953
 30
0.0
 40
8.0000000000013038
210
0.0
220
-0.0000000000000002
230
-1.0
 50
148.1297797402291962
 51
179.9999999999980105
  0
ARC
  5
1E46
  8
0
 10
-174.2973054191301969
 20
-110.1616882634134953
 30
0.0
 40
8.0000000000013074
210
0.0
220
-0.0000000000000002
230
-1.0
 50
0.0000000000020356
 51
31.8702202597707895
  0
LINE
  5
1E47
  8
0
 10
166.2973054191288043
 20
-110.1616882634131969
 30
0.0000000000000245
 11
166.2973054191288043
 21
-142.4424450153848056
 31
0.0000000000000316
210
0.0
220
1.0
230
-0.0000000000000002
  0
LINE
  5
1E48
  8
0
 10
93.2973054191288469
 20
-110.1616882634131969
 30
0.0000000000000245
 11
93.2973054191288469
 21
-142.4424450153848056
 31
0.0000000000000316
210
0.0
220
1.0
230
-0.0000000000000002
  0
ARC
  5
1E49
  8
0
 10
-112.6973054191299042
 20
-60.5839906622071211
 30
0.0
 40
24.9000000000011283
210
0.0
220
-0.0000000000000002
230
-1.0
 50
0.0
 51
25.0653377151845689
  0
ARC
  5
1E4A
  8
0
 10
-146.897305419127008
 20
-60.5839906622073201
 30
0.0
 40
24.9000000000019099
210
0.0
220
-0.0000000000000002
230
-1.0
 50
154.9346622848148058
 51
179.9999999999986073
  0
LINE
  5
1E4B
  8
0
  6
VERDECKT
 62
     1
 10
174.2973054191286906
 20
-160.0390355942440976
 30
0.0000000000000355
 11
174.2973054191286906
 21
-260.0390355942442966
 31
0.0000000000000577
210
0.0
220
1.0
230
-0.0000000000000002
  0
LINE
  5
1E4C
  8
0
  6
VERDECKT
 62
     1
 10
85.2973054191287332
 20
-160.0390355942440976
 30
0.0000000000000355
 11
85.2973054191287332
 21
-260.0390355942442966
 31
0.0000000000000577
210
0.0
220
1.0
230
-0.0000000000000002
  0
LINE
  5
1E4D
  8
0
  6
VERDECKT
 62
     1
 10
166.3007400837391003
 20
-147.571279467464791
 30
0.0000000000000328
 11
174.2973054191288043
 21
-160.0390355942440976
 31
0.0000000000000355
210
0.0
220
1.0
230
-0.0000000000000002
  0
LINE
  5
1E4E
  8
0
  6
VERDECKT
 62
     1
 10
93.2938707545185792
 20
-147.571279467464791
 30
0.0000000000000328
 11
85.2973054191288469
 21
-160.0390355942440976
 31
0.0000000000000355
210
0.0
220
1.0
230
-0.0000000000000002
  0
ARC
  5
1E4F
  8
0
  6
VERDECKT
 62
     1
 10
-85.2973054191277669
 20
-142.4424450153844077
 30
0.0
 40
9.5000000000010942
210
0.0
220
-0.0000000000000002
230
-1.0
 50
180.0000000000025011
 51
212.6752872483048975
  0
ARC
  5
1E50
  8
0
  6
VERDECKT
 62
     1
 10
-174.2973054191299127
 20
-142.4424450153844077
 30
0.0
 40
9.5000000000011102
210
0.0
220
-0.0000000000000002
230
-1.0
 50
327.3247127516950172
 51
359.9999999999973852
  0
LINE
  5
1E51
  8
0
  6
VERDECKT
 62
     1
 10
164.7973054191288043
 20
-110.1616882634131969
 30
0.0000000000000245
 11
164.7973054191288043
 21
-142.4424450153848056
 31
0.0000000000000316
210
0.0
220
1.0
230
-0.0000000000000002
  0
LINE
  5
1E52
  8
0
  6
VERDECKT
 62
     1
 10
94.7973054191288611
 20
-110.1616882634131969
 30
0.0000000000000245
 11
94.7973054191288611
 21
-142.4424450153848056
 31
0.0000000000000316
210
0.0
220
1.0
230
-0.0000000000000002
  0
ARC
  5
1E53
  8
0
  6
VERDECKT
 62
     1
 10
-85.2973054191283779
 20
-110.1616882634132963
 30
0.0
 40
9.5000000000004832
210
0.0
220
-0.0000000000000002
230
-1.0
 50
148.1297797402305889
 51
179.9999999999992042
  0
ARC
  5
1E54
  8
0
  6
VERDECKT
 62
     1
 10
-174.2973054191292874
 20
-110.1616882634132963
 30
0.0
 40
9.5000000000004832
210
0.0
220
-0.0000000000000002
230
-1.0
 50
0.0000000000007761
 51
31.87022025976934
  0
ARC
  5
1E55
  8
0
  6
VERDECKT
 62
     1
 10
-102.1973054191310979
 20
-99.6545478341615905
 30
0.0
 40
10.4000000000022705
210
0.0
220
-0.0000000000000002
230
-1.0
 50
328.1297797402310152
 51
359.999999999997101
  0
ARC
  5
1E56
  8
0
  6
VERDECKT
 62
     1
 10
-157.3973054191262122
 20
-99.654547834161491
 30
0.0
 40
10.4000000000026205
210
0.0
220
-0.0000000000000002
230
-1.0
 50
180.0000000000034106
 51
211.8702202597685016
  0
LINE
  5
1E57
  8
0
  6
VERDECKT
 62
     1
 10
167.7973054191288043
 20
-78.7050682550880225
 30
0.0000000000000175
 11
167.7973054191288043
 21
-99.6545478341621305
 31
0.0000000000000221
210
0.0
220
1.0
230
-0.0000000000000002
  0
LINE
  5
1E58
  8
0
  6
VERDECKT
 62
     1
 10
91.7973054191288753
 20
-78.7050682550880225
 30
0.0000000000000175
 11
91.7973054191288753
 21
-99.6545478341621305
 31
0.0000000000000221
210
0.0
220
1.0
230
-0.0000000000000002
  0
ARC
  5
1E59
  8
0
  6
VERDECKT
 62
     1
 10
-78.1973054191287389
 20
-78.705068255088193
 30
0.0
 40
13.6000000000001204
210
0.0
220
-0.0000000000000002
230
-1.0
 50
158.8168456069653871
 51
179.9999999999992042
  0
ARC
  5
1E5A
  8
0
  6
VERDECKT
 62
     1
 10
-181.3973054191293954
 20
-78.7050682550882215
 30
0.0
 40
13.6000000000005308
210
0.0
220
-0.0000000000000002
230
-1.0
 50
0.0000000000008397
 51
21.1831543930339912
  0
ARC
  5
1E5B
  8
0
  6
VERDECKT
 62
     1
 10
-112.6973054191322063
 20
-65.335068255087549
 30
0.0
 40
23.4000932431291204
210
0.0
220
-0.0000000000000002
230
-1.0
 50
338.8168456069653871
 51
359.8382525687297857
  0
ARC
  5
1E5C
  8
0
  6
VERDECKT
 62
     1
 10
-146.897305419125388
 20
-65.3350682550875348
 30
0.0
 40
23.4000932431291204
210
0.0
220
-0.0000000000000002
230
-1.0
 50
180.1617474312701006
 51
201.1831543930344992
  0
LINE
  5
1E5D
  8
0
  6
VERDECKT
 62
     1
 10
170.2973054191288043
 20
-60.5839906622067232
 30
0.0000000000000135
 11
170.2973054191288043
 21
-65.4011272210086787
 31
0.0000000000000145
210
0.0
220
1.0
230
-0.0000000000000002
  0
LINE
  5
1E5E
  8
0
  6
VERDECKT
 62
     1
 10
89.2973054191288753
 20
-60.5839906622067232
 30
0.0000000000000135
 11
89.2973054191288753
 21
-65.4011272210086787
 31
0.0000000000000145
210
0.0
220
1.0
230
-0.0000000000000002
  0
ARC
  5
1E5F
  8
0
  6
VERDECKT
 62
     1
 10
-112.6973054191285968
 20
-60.5839906622065385
 30
0.0
 40
23.3999999999997783
210
0.0
220
-0.0000000000000002
230
-1.0
 50
359.9999999999996021
 51
24.9999999999999396
  0
ARC
  5
1E60
  8
0
  6
VERDECKT
 62
     1
 10
-146.8973054191289975
 20
-60.5839906622065527
 30
0.0
 40
23.39999999999986
210
0.0
220
-0.0000000000000002
230
-1.0
 50
155.0000000000001137
 51
180.0000000000003979
  0
LINE
  5
1E61
  8
0
  6
VERDECKT
 62
     1
 10
167.7973054191288043
 20
-50.0350682550879
 30
0.0000000000000111
 11
168.1049076357865033
 21
-50.6947233374742865
 31
0.0000000000000113
210
0.0
220
1.0
230
-0.0000000000000002
  0
LINE
  5
1E62
  8
0
  6
VERDECKT
 62
     1
 10
91.7973054191288753
 20
-50.0350682550879
 30
0.0000000000000111
 11
91.4897032024712047
 21
-50.6947233374742865
 31
0.0000000000000113
210
0.0
220
1.0
230
-0.0000000000000002
  0
ENDBLK
  5
1E64
  8
0
  0
ENDSEC
  0
SECTION
  2
ENTITIES
  0
TEXT
  5
8F
  8
VOLL
 10
78.076754716981128
 20
31.025947764705851
 30
0.0
 40
1.8
  1

  7
GREEKS
  0
INSERT
  5
B3C
  8
ADSK_ASSOC_ENTITY_BACKUPS
  2
*S2
 10
0.0
 20
0.0
 30
0.0
  0
INSERT
  5
1E2C
  8
STEMPEL
  2
A$C976E7C0D
 10
131.1600412299696075
 20
-334.4362001736420211
 30
-27.9493991444843815
  0
INSERT
  5
1E65
  8
STEMPEL
  2
A$C3FA6F481
 10
131.1600412299696075
 20
103.8827706132098001
 30
-27.9493991444843992
  0
VIEWPORT
  5
928
 67
     1
  8
0
 10
104.9325357368027056
 20
148.4488398705011889
 30
0.0
 40
533.9969448798291296
 41
299.1239570917758783
 68
     1
 69
     1
1001
ACAD
1000
MVIEW
1002
{
1070
    16
1010
0.0
1020
0.0
1030
0.0
1010
0.0
1020
0.0
1030
1.0
1040
0.0
1040
299.1239570917758783
1040
104.9325357368027056
1040
148.4488398705011889
1040
50.0
1040
0.0
1040
0.0
1070
     0
1070
  1500
1070
     1
1070
     1
1070
     0
1070
     0
1070
     0
1070
     0
1040
0.0
1040
0.0
1040
0.0
1040
10.0
1040
10.0
1040
10.0
1040
10.0
1070
     0
1002
{
1002
}
1002
}
  0
ENDSEC
  0
EOF
