  0
SECTION
  2
HEADER
  9
$ACADVER
  1
AC1009
  9
$INSBASE
 10
0.0
 20
0.0
 30
0.0
  9
$EXTMIN
 10
178.7973966474839926
 20
-264.1489087556124105
 30
-28.6139663005998699
  9
$EXTMAX
 10
254.8973966474841859
 20
52.7241248292774216
 30
-28.6139663005998308
  9
$LIMMIN
 10
0.0
 20
0.0
  9
$LIMMAX
 10
210.0
 20
297.0
  9
$ORTHOMODE
 70
     1
  9
$REGENMODE
 70
     1
  9
$FILLMODE
 70
     1
  9
$QTEXTMODE
 70
     0
  9
$MIRRTEXT
 70
     1
  9
$DRAGMODE
 70
     2
  9
$LTSCALE
 40
10.0
  9
$OSMODE
 70
  2495
  9
$ATTMODE
 70
     1
  9
$TEXTSIZE
 40
3.5
  9
$TRACEWID
 40
0.5
  9
$TEXTSTYLE
  7
STANDARD
  9
$CLAYER
  8
STEMPEL
  9
$CELTYPE
  6
BYLAYER
  9
$CECOLOR
 62
   256
  9
$DIMSCALE
 40
1.0
  9
$DIMASZ
 40
3.5
  9
$DIMEXO
 40
1.0
  9
$DIMDLI
 40
7.0
  9
$DIMRND
 40
0.0
  9
$DIMDLE
 40
0.0
  9
$DIMEXE
 40
1.0
  9
$DIMTP
 40
0.0
  9
$DIMTM
 40
0.0
  9
$DIMTXT
 40
3.5
  9
$DIMCEN
 40
1.5
  9
$DIMTSZ
 40
0.0
  9
$DIMTOL
 70
     0
  9
$DIMLIM
 70
     0
  9
$DIMTIH
 70
     0
  9
$DIMTOH
 70
     0
  9
$DIMSE1
 70
     0
  9
$DIMSE2
 70
     0
  9
$DIMTAD
 70
     1
  9
$DIMZIN
 70
     8
  9
$DIMBLK
  1

  9
$DIMASO
 70
     1
  9
$DIMSHO
 70
     0
  9
$DIMPOST
  1

  9
$DIMAPOST
  1

  9
$DIMALT
 70
     0
  9
$DIMALTD
 70
     2
  9
$DIMALTF
 40
25.3999999999999986
  9
$DIMLFAC
 40
2.0
  9
$DIMTOFL
 70
     1
  9
$DIMTVP
 40
0.0
  9
$DIMTIX
 70
     0
  9
$DIMSOXD
 70
     0
  9
$DIMSAH
 70
     0
  9
$DIMBLK1
  1

  9
$DIMBLK2
  1

  9
$DIMSTYLE
  2
STANDARD
  9
$DIMCLRD
 70
     0
  9
$DIMCLRE
 70
     0
  9
$DIMCLRT
 70
     1
  9
$DIMTFAC
 40
0.5
  9
$DIMGAP
 40
1.5
  9
$LUNITS
 70
     2
  9
$LUPREC
 70
     2
  9
$SKETCHINC
 40
1.0
  9
$FILLETRAD
 40
15.0
  9
$AUNITS
 70
     0
  9
$AUPREC
 70
     0
  9
$MENU
  1
ACAD
  9
$ELEVATION
 40
0.0
  9
$PELEVATION
 40
0.0
  9
$THICKNESS
 40
0.0
  9
$LIMCHECK
 70
     0
  9
$BLIPMODE
 70
     0
  9
$CHAMFERA
 40
2.0
  9
$CHAMFERB
 40
2.0
  9
$SKPOLY
 70
     0
  9
$TDCREATE
 40
2455397.8646990740671754
  9
$TDUPDATE
 40
2459627.327442130073905
  9
$TDINDWG
 40
0.1719369444
  9
$TDUSRTIMER
 40
0.1719369444
  9
$USRTIMER
 70
     1
  9
$ANGBASE
 50
0.0
  9
$ANGDIR
 70
     0
  9
$PDMODE
 70
     0
  9
$PDSIZE
 40
0.0
  9
$PLINEWID
 40
0.0
  9
$COORDS
 70
     1
  9
$SPLFRAME
 70
     0
  9
$SPLINETYPE
 70
     6
  9
$SPLINESEGS
 70
     8
  9
$ATTDIA
 70
     1
  9
$ATTREQ
 70
     1
  9
$HANDLING
 70
     1
  9
$HANDSEED
  5
1C32
  9
$SURFTAB1
 70
     6
  9
$SURFTAB2
 70
     6
  9
$SURFTYPE
 70
     6
  9
$SURFU
 70
     6
  9
$SURFV
 70
     6
  9
$UCSNAME
  2

  9
$UCSORG
 10
0.0
 20
0.0
 30
0.0
  9
$UCSXDIR
 10
1.0
 20
0.0
 30
0.0
  9
$UCSYDIR
 10
0.0
 20
1.0
 30
0.0
  9
$PUCSNAME
  2

  9
$PUCSORG
 10
0.0
 20
0.0
 30
0.0
  9
$PUCSXDIR
 10
1.0
 20
0.0
 30
0.0
  9
$PUCSYDIR
 10
0.0
 20
1.0
 30
0.0
  9
$USERI1
 70
     0
  9
$USERI2
 70
     0
  9
$USERI3
 70
     0
  9
$USERI4
 70
     0
  9
$USERI5
 70
     0
  9
$USERR1
 40
0.0
  9
$USERR2
 40
0.0
  9
$USERR3
 40
0.0
  9
$USERR4
 40
0.0
  9
$USERR5
 40
0.0
  9
$WORLDVIEW
 70
     1
  9
$SHADEDGE
 70
     3
  9
$SHADEDIF
 70
    70
  9
$TILEMODE
 70
     1
  9
$MAXACTVP
 70
    16
  9
$PLIMCHECK
 70
     0
  9
$PEXTMIN
 10
1.0000000000000000E+20
 20
1.0000000000000000E+20
 30
1.0000000000000000E+20
  9
$PEXTMAX
 10
-1.0000000000000000E+20
 20
-1.0000000000000000E+20
 30
-1.0000000000000000E+20
  9
$PLIMMIN
 10
-0.0674642631973264
 20
-0.0511601294987543
  9
$PLIMMAX
 10
209.9325357368026914
 20
296.9488398705012742
  9
$UNITMODE
 70
     0
  9
$VISRETAIN
 70
     0
  9
$PLINEGEN
 70
     0
  9
$PSLTSCALE
 70
     0
  0
ENDSEC
  0
SECTION
  2
TABLES
  0
TABLE
  2
VPORT
 70
     1
  0
VPORT
  2
*ACTIVE
 70
     0
 10
0.0
 20
0.0
 11
1.0
 21
1.0
 12
-0.6906734116255393
 22
-100.2616830698182042
 13
0.0
 23
0.0
 14
1.0
 24
1.0
 15
10.0
 25
10.0
 16
-0.0000000000001705
 26
0.0
 36
782.5363621043971989
 17
217.5380700591097138
 27
-5.4507088933492858
 37
-14.3069831502999207
 40
319.1391101063550764
 41
1.785202863961814
 42
50.0
 43
0.0
 44
0.0
 50
0.0
 51
0.0
 71
     0
 72
  1500
 73
     1
 74
     0
 75
     0
 76
     0
 77
     0
 78
     0
  0
ENDTAB
  0
TABLE
  2
LTYPE
 70
     6
  0
LTYPE
  2
CONTINUOUS
 70
     0
  3
Solid line
 72
    65
 73
     0
 40
0.0
  0
LTYPE
  2
PHANTOM2
 70
     0
  3
Phantom (.5x) ___ _ _ ___ _ _ ___ _ _ ___ _ _
 72
    65
 73
     6
 40
1.25
 49
0.625
 49
-0.125
 49
0.125
 49
-0.125
 49
0.125
 49
-0.125
  0
LTYPE
  2
VERDECKT
 70
     0
  3
Verdeckt __ __ __ __ __ __ __ __ __ __ __ __ __
 72
    65
 73
     2
 40
0.375
 49
0.25
 49
-0.125
  0
ENDTAB
  0
TABLE
  2
LAYER
 70
    16
  0
LAYER
  2
0
 70
     0
 62
     7
  6
CONTINUOUS
  0
LAYER
  2
VOLL
 70
     0
 62
     1
  6
CONTINUOUS
  0
LAYER
  2
DEFPOINTS
 70
     0
 62
     7
  6
CONTINUOUS
  0
LAYER
  2
ADSK_ASSOC_ENTITY_BACKUPS
 70
     1
 62
    -7
  6
CONTINUOUS
  0
LAYER
  2
STEMPEL
 70
     0
 62
     3
  6
CONTINUOUS
  0
ENDTAB
  0
TABLE
  2
STYLE
 70
     4
  0
STYLE
  2
STANDARD
 70
     0
 40
0.0
 41
0.8
 50
0.0
 71
     0
 42
3.5
  3
simplex.shx
  4

  0
STYLE
  2
GREEKS
 70
     0
 40
0.0
 41
0.8
 50
0.0
 71
     0
 42
2.5
  3
SIMPLEX.shx
  4

  0
ENDTAB
  0
TABLE
  2
VIEW
 70
     1
  0
ENDTAB
  0
TABLE
  2
UCS
 70
     0
  0
ENDTAB
  0
TABLE
  2
APPID
 70
    22
  0
APPID
  2
ACAD
 70
     0
  0
APPID
  2
ACAD_NAV_VCDISPLAY
 70
     0
  0
APPID
  2
ACAD_MLEADERVER
 70
     0
  0
APPID
  2
ACAD_EXEMPT_FROM_CAD_STANDARDS
 70
     0
  0
APPID
  2
ACAD_PSEXT
 70
     0
  0
APPID
  2
ACAECLAYERSTANDARD
 70
     0
  0
APPID
  2
ACAUTHENVIRON
 70
     0
  0
APPID
  2
ACCMTRANSPARENCY
 70
     0
  0
APPID
  2
ACAD_STEPID
 70
     0
  0
APPID
  2
ACSYNERGY
 70
     0
  0
APPID
  2
SYNERGY_BODY_TBR_ID
 70
     0
  0
APPID
  2
ACAD_VIEW_EDGE_ID
 70
     0
  0
APPID
  2
ACSYNERGYSKETCH
 70
     0
  0
APPID
  2
ACAD_MODELDOC_XFORM
 70
     0
  0
APPID
  2
ACAD_DSTYLE_DIMJAG
 70
     0
  0
APPID
  2
ACAD_DSTYLE_DIMTALN
 70
     0
  0
APPID
  2
ACADANNOMONITORALERTICONDI
 70
     0
  0
APPID
  2
ACAD_DIMASSOC_CALC_DIMLFAC
 70
     0
  0
APPID
  2
ACAD_DIMASSOC_DIMLFAC
 70
     0
  0
APPID
  2
ACAD_DIMASSOC_OVERRIDDEN_D
 70
     0
  0
APPID
  2
ACAD_DSTYLE_DIMRADIAL_EXTENSION
 70
     0
  0
APPID
  2
AcDbAttr
 70
     0
  0
ENDTAB
  0
TABLE
  2
DIMSTYLE
 70
     2
  0
DIMSTYLE
  2
STANDARD
 70
     0
  3

  4

  5

  6

  7

 40
1.0
 41
0.18
 42
0.0625
 43
0.38
 44
0.18
 45
0.0
 46
0.0
 47
0.0
 48
0.0
140
0.18
141
0.09
142
0.0
143
25.3999999999999986
144
1.0
145
0.0
146
1.0
147
0.09
 71
     0
 72
     0
 73
     1
 74
     1
 75
     0
 76
     0
 77
     0
 78
     0
170
     0
171
     2
172
     0
173
     0
174
     0
175
     0
176
     0
177
     0
178
     0
  0
ENDTAB
  0
ENDSEC
  0
SECTION
  2
BLOCKS
  0
BLOCK
  8
0
  2
$MODEL_SPACE
 70
     0
 10
0.0
 20
0.0
 30
0.0
  3
$MODEL_SPACE
  1

  0
ENDBLK
  5
36
  8
0
  0
BLOCK
 67
     1
  8
0
  2
$PAPER_SPACE
 70
     0
 10
0.0
 20
0.0
 30
0.0
  3
$PAPER_SPACE
  1

  0
ENDBLK
  5
34
 67
     1
  8
0
  0
BLOCK
  8
0
  2
*S2
 70
     1
 10
0.0
 20
0.0
 30
0.0
  3
*S2
  1

  0
ENDBLK
  5
B3A
  8
0
  0
BLOCK
  8
0
  2
A$CCAE905A1
 70
     0
 10
0.0
 20
0.0
 30
0.0
  3
A$CCAE905A1
  1

  0
CIRCLE
  5
1B8E
  8
0
 10
129.7973054191286906
 20
97.1939330370280032
 30
0.0000000000000284
 40
38.0500000000000185
  0
CIRCLE
  5
1B8F
  8
0
 10
129.7973054191288043
 20
97.1939330370280032
 30
0.0000000000000284
 40
25.0
  0
CIRCLE
  5
1B90
  8
0
 10
129.7973054191288043
 20
97.1939330370280032
 30
0.0000000000000284
 40
27.75197797074782
  0
CIRCLE
  5
1B91
  8
0
 10
129.7973054191288043
 20
97.1939330370280032
 30
0.0000000000000284
 40
29.4070448491913794
  0
CIRCLE
  5
1B92
  8
0
 10
129.7973054191288043
 20
97.1939330370280032
 30
0.0000000000000284
 40
31.3000000000001783
  0
CIRCLE
  5
1B93
  8
0
  6
VERDECKT
 62
     1
 10
129.7973054191286906
 20
97.1939330370280032
 30
0.0000000000000284
 40
29.2099999999999902
  0
CIRCLE
  5
1B94
  8
0
  6
VERDECKT
 62
     1
 10
129.7973054191288043
 20
97.1939330370280032
 30
0.0000000000000284
 40
29.8000000000001783
  0
CIRCLE
  5
1B95
  8
0
  6
VERDECKT
 62
     1
 10
129.7973054191288043
 20
97.1939330370280032
 30
0.0000000000000284
 40
27.7999999999999616
  0
CIRCLE
  5
1B96
  8
0
  6
VERDECKT
 62
     1
 10
129.7973054191288043
 20
97.1939330370280032
 30
0.0000000000000284
 40
29.2999999999999616
  0
CIRCLE
  5
1B97
  8
0
  6
VERDECKT
 62
     1
 10
129.7973054191288043
 20
97.1939330370280032
 30
0.0000000000000284
 40
26.5
  0
CIRCLE
  5
1B98
  8
0
  6
VERDECKT
 62
     1
 10
129.7973054191288043
 20
97.1939330370280032
 30
0.0000000000000284
 40
30.5374133245803883
  0
CIRCLE
  5
1B99
  8
0
  6
VERDECKT
 62
     1
 10
129.7973054191288043
 20
97.1939330370280032
 30
0.0000000000000284
 40
29.2099999999999405
  0
CIRCLE
  5
1B9A
  8
0
  6
VERDECKT
 62
     1
 10
129.7973054191288043
 20
97.1939330370280032
 30
0.0000000000000284
 40
27.7999844621173082
  0
ENDBLK
  5
1B9C
  8
0
  0
BLOCK
  8
0
  2
A$CBB4D4BDE
 70
     0
 10
0.0
 20
0.0
 30
0.0
  3
A$CBB4D4BDE
  1

  0
LINE
  5
1BA0
  8
0
 10
91.7473054191286792
 20
-160.0350682550881913
 30
0.0000000000000355
 11
167.8473054191287872
 21
-160.0350682550881913
 31
0.0000000000000355
210
0.0
220
1.0
230
-0.0000000000000002
  0
LINE
  5
1BA1
  8
0
 10
91.7473054191286792
 20
-260.0350682550881061
 30
0.0000000000000577
 11
167.8473054191287872
 21
-260.0350682550881061
 31
0.0000000000000577
210
0.0
220
1.0
230
-0.0000000000000002
  0
LINE
  5
1BA2
  8
0
 10
167.8473054191287872
 20
-160.0350682550881913
 30
0.0000000000000355
 11
167.8473054191287872
 21
-260.0350682550881061
 31
0.0000000000000577
210
0.0
220
1.0
230
-0.0000000000000002
  0
LINE
  5
1BA3
  8
0
 10
91.7473054191286934
 20
-160.0350682550881913
 30
0.0000000000000355
 11
91.7473054191286508
 21
-260.0350682550881061
 31
0.0000000000000577
210
0.0
220
1.0
230
-0.0000000000000002
  0
LINE
  5
1BA4
  8
0
 10
100.3902605699373964
 20
-50.0350682550880634
 30
0.0000000000000111
 11
159.2043502683202121
 21
-50.0350682550880634
 31
0.0000000000000111
210
0.0
220
1.0
230
-0.0000000000000002
  0
LINE
  5
1BA5
  8
0
 10
99.2598920945484906
 20
-159.3365169930276011
 30
0.0000000000000354
 11
160.3347187437092032
 21
-159.3365169930276011
 31
0.0000000000000354
210
0.0
220
1.0
230
-0.0000000000000002
  0
LINE
  5
1BA6
  8
0
 10
159.2043502683202121
 20
-50.0350682550880492
 30
0.0000000000000111
 11
159.2703072663437069
 21
-50.1765134938052668
 31
0.0000000000000111
210
0.0
220
1.0
230
-0.0000000000000002
  0
LINE
  5
1BA7
  8
0
 10
100.3902605699373964
 20
-50.0350682550880492
 30
0.0000000000000111
 11
100.3243035719140011
 21
-50.1765134938052668
 31
0.0000000000000111
210
0.0
220
1.0
230
-0.0000000000000002
  0
ARC
  5
1BA8
  8
0
 10
-117.9973054191349036
 20
-58.4175695977502514
 30
0.0
 40
19.5000000000062208
210
0.0
220
-0.0000000000000002
230
-1.0
 50
359.9999999999997158
 51
24.9999999999958398
  0
ARC
  5
1BA9
  8
0
 10
-141.5973054191223071
 20
-58.4175695977503722
 30
0.0
 40
19.5000000000067608
210
0.0
220
-0.0000000000000002
230
-1.0
 50
155.0000000000044906
 51
179.9999999999998863
  0
LINE
  5
1BAA
  8
0
 10
161.0973054191289862
 20
-58.417569597750358
 30
0.000000000000013
 11
161.0973054191289862
 21
-62.9131039571506179
 31
0.000000000000014
210
0.0
220
1.0
230
-0.0000000000000002
  0
LINE
  5
1BAB
  8
0
 10
98.4973054191286934
 20
-58.417569597750358
 30
0.000000000000013
 11
98.4973054191286934
 21
-62.9131039571506179
 31
0.000000000000014
210
0.0
220
1.0
230
-0.0000000000000002
  0
ARC
  5
1BAC
  8
0
 10
-123.4973054191348041
 20
-62.8730682550860607
 30
0.0
 40
25.0000320571343586
210
0.0
220
-0.0000000000000002
230
-1.0
 50
340.5369005553113766
 51
359.9082450081116917
  0
ARC
  5
1BAD
  8
0
 10
-136.0973054191213123
 20
-62.8730682550858333
 30
0.0
 40
25.0000320571359183
210
0.0
220
-0.0000000000000002
230
-1.0
 50
180.0917549918887062
 51
199.4630994446877992
  0
ARC
  5
1BAE
  8
0
 10
-90.4973054191328714
 20
-74.5350682550873103
 30
0.0
 40
9.9999999999960387
210
0.0
220
-0.0000000000000002
230
-1.0
 50
160.5369005553073123
 51
180.0000000000042064
  0
ARC
  5
1BAF
  8
0
 10
-169.0973054191248082
 20
-74.5350682550873103
 30
0.0
 40
9.9999999999960192
210
0.0
220
-0.0000000000000002
230
-1.0
 50
359.9999999999956799
 51
19.4630994446927303
  0
LINE
  5
1BB0
  8
0
 10
159.0973054191289009
 20
-74.5350682550880634
 30
0.0000000000000166
 11
159.0973054191289009
 21
-82.6267413418921848
 31
0.0000000000000183
210
0.0
220
1.0
230
-0.0000000000000002
  0
LINE
  5
1BB1
  8
0
 10
100.4973054191288071
 20
-74.5350682550880634
 30
0.0000000000000166
 11
100.4973054191288071
 21
-82.6267413418921848
 31
0.0000000000000183
210
0.0
220
1.0
230
-0.0000000000000002
  0
ARC
  5
1BB2
  8
0
 10
-112.4973054191230943
 20
-82.6267413418935064
 30
0.0
 40
11.9999999999945004
210
0.0
220
-0.0000000000000002
230
-1.0
 50
329.3165828910169921
 51
0.0000000000063866
  0
ARC
  5
1BB3
  8
0
 10
-147.0973054191343863
 20
-82.6267413418934922
 30
0.0
 40
11.9999999999946496
210
0.0
220
-0.0000000000000002
230
-1.0
 50
179.9999999999936904
 51
210.68341710898261
  0
ARC
  5
1BB4
  8
0
 10
-95.2973054191298843
 20
-92.8326219996305468
 30
0.0
 40
7.9999999999989662
210
0.0
220
-0.0000000000000002
230
-1.0
 50
149.3165828910190953
 51
179.9999999999978968
  0
ARC
  5
1BB5
  8
0
 10
-164.2973054191276105
 20
-92.8326219996305184
 30
0.0
 40
7.999999999998777
210
0.0
220
-0.0000000000000002
230
-1.0
 50
0.000000000001832
 51
30.6834171089815086
  0
LINE
  5
1BB6
  8
0
 10
156.2973054191290032
 20
-92.8326219996302626
 30
0.0000000000000206
 11
156.2973054191290032
 21
-149.6879628878322137
 31
0.0000000000000332
210
0.0
220
1.0
230
-0.0000000000000002
  0
LINE
  5
1BB7
  8
0
 10
103.2973054191287048
 20
-92.8326219996302626
 30
0.0000000000000206
 11
103.2973054191287048
 21
-149.6879628878322137
 31
0.0000000000000332
210
0.0
220
1.0
230
-0.0000000000000002
  0
ARC
  5
1BB8
  8
0
 10
-95.2973054191278237
 20
-149.6879628878319863
 30
0.0
 40
8.0000000000009095
210
0.0
220
-0.0000000000000002
230
-1.0
 50
180.0000000000009095
 51
207.7555887319439023
  0
ARC
  5
1BB9
  8
0
 10
-164.2973054191297138
 20
-149.6879628878322137
 30
0.0
 40
8.0000000000007265
210
0.0
220
-0.0000000000000002
230
-1.0
 50
332.2444112680562966
 51
0.0
  0
LINE
  5
1BBA
  8
0
 10
157.2177676880330068
 20
-153.4135696188211
 30
0.0000000000000341
 11
160.3347187437090895
 21
-159.3365169930276011
 31
0.0000000000000354
210
0.0
220
1.0
230
-0.0000000000000002
  0
LINE
  5
1BBB
  8
0
 10
102.3768431502247012
 20
-153.4135696188211
 30
0.0000000000000341
 11
99.259892094548519
 21
-159.3365169930276011
 31
0.0000000000000354
210
0.0
220
1.0
230
-0.0000000000000002
  0
LINE
  5
1BBC
  8
0
 10
100.5873054191288958
 20
-160.0350682550881061
 30
0.0000000000000355
 11
99.2598920945484764
 21
-159.3365169930276011
 31
0.0000000000000354
210
0.0
220
1.0
230
-0.0000000000000002
  0
LINE
  5
1BBD
  8
0
 10
159.0073054191288122
 20
-160.0350682550881913
 30
0.0000000000000355
 11
160.3347187437092032
 21
-159.3365169930276011
 31
0.0000000000000354
210
0.0
220
1.0
230
-0.0000000000000002
  0
LINE
  5
1BBE
  8
0
  6
VERDECKT
 62
     1
 10
159.0073054191288122
 20
-160.0350682550881061
 30
0.0000000000000355
 11
159.0073054191286985
 21
-260.0350682550881061
 31
0.0000000000000577
210
0.0
220
1.0
230
-0.0000000000000002
  0
LINE
  5
1BBF
  8
0
  6
VERDECKT
 62
     1
 10
100.5873054191286968
 20
-160.0350682550881061
 30
0.0000000000000355
 11
100.5873054191286968
 21
-260.0350682550881061
 31
0.0000000000000577
210
0.0
220
1.0
230
-0.0000000000000002
  0
ARC
  5
1BC0
  8
0
  6
VERDECKT
 62
     1
 10
-100.9973054191191011
 20
-58.4289922273218991
 30
0.0
 40
0.9999999999904787
210
0.0
220
-0.0000000000000002
230
-1.0
 50
359.9999999999906208
 51
1.325896369570797
  0
ARC
  5
1BC1
  8
0
  6
VERDECKT
 62
     1
 10
-158.5973054189263109
 20
-58.4289922273243718
 30
0.0
 40
1.00000000020276
210
0.0
220
-0.0000000000000002
230
-1.0
 50
178.6741036305697889
 51
179.9999999998684075
  0
LINE
  5
1BC2
  8
0
  6
VERDECKT
 62
     1
 10
159.5973054191289862
 20
-58.4289922273220625
 30
0.000000000000013
 11
159.5973054191289862
 21
-62.9118843091633906
 31
0.000000000000014
210
0.0
220
1.0
230
-0.0000000000000002
  0
LINE
  5
1BC3
  8
0
  6
VERDECKT
 62
     1
 10
99.997305419128665
 20
-58.4289922273220625
 30
0.000000000000013
 11
99.997305419128665
 21
-62.9118843091633906
 31
0.000000000000014
210
0.0
220
1.0
230
-0.0000000000000002
  0
ARC
  5
1BC4
  8
0
  6
VERDECKT
 62
     1
 10
-119.9759941033860997
 20
-58.8682613582220071
 30
0.0
 40
19.9837715310557691
210
0.0
220
-0.0000000000000002
230
-1.0
 50
1.325896369568889
 51
24.9999999999738485
  0
ARC
  5
1BC5
  8
0
  6
VERDECKT
 62
     1
 10
-139.6186167348714946
 20
-58.8682613582220213
 30
0.0
 40
19.9837715310558117
210
0.0
220
-0.0000000000000002
230
-1.0
 50
155.0000000000262048
 51
178.674103630431091
  0
ARC
  5
1BC6
  8
0
  6
VERDECKT
 62
     1
 10
-95.2973054191266158
 20
-92.832621999631499
 30
0.0
 40
9.5000000000022577
210
0.0
220
-0.0000000000000002
230
-1.0
 50
149.3165828910246091
 51
179.9999999999924967
  0
ARC
  5
1BC7
  8
0
  6
VERDECKT
 62
     1
 10
-164.2973054191307938
 20
-92.8326219996314279
 30
0.0
 40
9.5000000000020162
210
0.0
220
-0.0000000000000002
230
-1.0
 50
0.0000000000070354
 51
30.6834171089756715
  0
ARC
  5
1BC8
  8
0
  6
VERDECKT
 62
     1
 10
-112.4973054191259934
 20
-82.6267413418928953
 30
0.0
 40
10.4999999999973799
210
0.0
220
-0.0000000000000002
230
-1.0
 50
329.3165828910214827
 51
0.0000000000038803
  0
ARC
  5
1BC9
  8
0
  6
VERDECKT
 62
     1
 10
-147.0973054191312031
 20
-82.6267413418927816
 30
0.0
 40
10.4999999999977796
210
0.0
220
-0.0000000000000002
230
-1.0
 50
179.9999999999967031
 51
210.683417108977892
  0
LINE
  5
1BCA
  8
0
  6
VERDECKT
 62
     1
 10
157.5973054191289009
 20
-74.5350682550880634
 30
0.0000000000000166
 11
157.5973054191289009
 21
-82.6267413418921848
 31
0.0000000000000183
210
0.0
220
1.0
230
-0.0000000000000002
  0
LINE
  5
1BCB
  8
0
  6
VERDECKT
 62
     1
 10
101.9973054191288071
 20
-74.5350682550880634
 30
0.0000000000000166
 11
101.9973054191288071
 21
-82.6267413418921848
 31
0.0000000000000183
210
0.0
220
1.0
230
-0.0000000000000002
  0
ARC
  5
1BCC
  8
0
  6
VERDECKT
 62
     1
 10
-90.6070074550205362
 20
-74.516254364802009
 30
0.0
 40
11.3903135019910202
210
0.0
220
-0.0000000000000002
230
-1.0
 50
160.4422625104866995
 51
180.0946380448247908
  0
ARC
  5
1BCD
  8
0
  6
VERDECKT
 62
     1
 10
-168.9876033832362054
 20
-74.5162543648018385
 30
0.0
 40
11.3903135019900699
210
0.0
220
-0.0000000000000002
230
-1.0
 50
359.9053619551742145
 51
19.5577374895140608
  0
ARC
  5
1BCE
  8
0
  6
VERDECKT
 62
     1
 10
-123.2720892410201969
 20
-62.9118843091633693
 30
0.0
 40
23.2747838218915284
210
0.0
220
-0.0000000000000002
230
-1.0
 50
340.4422625104847953
 51
360.0
  0
ARC
  5
1BCF
  8
0
  6
VERDECKT
 62
     1
 10
-136.3225215972381932
 20
-62.9118843091635114
 30
0.0
 40
23.2747838218908214
210
0.0
220
-0.0000000000000002
230
-1.0
 50
179.9999999999996874
 51
199.55773748951529
  0
LINE
  5
1BD0
  8
0
  6
VERDECKT
 62
     1
 10
157.549283389876706
 20
-50.0350682550880279
 30
0.0000000000000111
 11
157.7300644878326068
 21
-50.4227545707521898
 31
0.0000000000000112
210
0.0
220
1.0
230
-0.0000000000000002
  0
LINE
  5
1BD1
  8
0
  6
VERDECKT
 62
     1
 10
102.0453274483809025
 20
-50.0350682550880279
 30
0.0000000000000111
 11
101.8645463504251012
 21
-50.4227545707521898
 31
0.0000000000000112
210
0.0
220
1.0
230
-0.0000000000000002
  0
LINE
  5
1BD2
  8
0
  6
VERDECKT
 62
     1
 10
155.8903543634525022
 20
-154.112120880881605
 30
0.0000000000000342
 11
159.0073054191286985
 21
-160.0350682550881913
 31
0.0000000000000355
210
0.0
220
1.0
230
-0.0000000000000002
  0
LINE
  5
1BD3
  8
0
  6
VERDECKT
 62
     1
 10
103.7042564748051063
 20
-154.112120880881605
 30
0.0000000000000342
 11
100.5873054191289953
 21
-160.0350682550881061
 31
0.0000000000000355
210
0.0
220
1.0
230
-0.0000000000000002
  0
ARC
  5
1BD4
  8
0
  6
VERDECKT
 62
     1
 10
-95.2973054191266158
 20
-149.6879628878317021
 30
0.0
 40
9.5000000000021174
210
0.0
220
-0.0000000000000002
230
-1.0
 50
180.0000000000028137
 51
207.7555887319431065
  0
ARC
  5
1BD5
  8
0
  6
VERDECKT
 62
     1
 10
-164.2973054191309927
 20
-149.6879628878317021
 30
0.0
 40
9.5000000000020446
210
0.0
220
-0.0000000000000002
230
-1.0
 50
332.2444112680569219
 51
359.9999999999973852
  0
LINE
  5
1BD6
  8
0
  6
VERDECKT
 62
     1
 10
154.7973054191290032
 20
-92.8326219996302626
 30
0.0000000000000206
 11
154.7973054191288895
 21
-149.6879628878322137
 31
0.0000000000000332
210
0.0
220
1.0
230
-0.0000000000000002
  0
LINE
  5
1BD7
  8
0
  6
VERDECKT
 62
     1
 10
104.7973054191287048
 20
-92.8326219996302626
 30
0.0000000000000206
 11
104.7973054191287048
 21
-149.6879628878322137
 31
0.0000000000000332
210
0.0
220
1.0
230
-0.0000000000000002
  0
ENDBLK
  5
1BD9
  8
0
  0
ENDSEC
  0
SECTION
  2
ENTITIES
  0
TEXT
  5
8F
  8
VOLL
 10
78.076754716981128
 20
31.025947764705851
 30
0.0
 40
1.8
  1

  7
GREEKS
  0
INSERT
  5
B3C
  8
ADSK_ASSOC_ENTITY_BACKUPS
  2
*S2
 10
0.0
 20
0.0
 30
0.0
  0
INSERT
  5
1B9D
  8
STEMPEL
  2
A$CCAE905A1
 10
87.0500912283553845
 20
-323.2928417926403881
 30
-28.6139663005998486
  0
INSERT
  5
1BDA
  8
STEMPEL
  2
A$CBB4D4BDE
 10
87.0500912283553703
 20
102.7591930843654069
 30
-28.6139663005998912
  0
VIEWPORT
  5
928
 67
     1
  8
0
 10
104.9325357368027056
 20
148.4488398705011889
 30
0.0
 40
533.9969448798291296
 41
299.1239570917758783
 68
     1
 69
     1
1001
ACAD
1000
MVIEW
1002
{
1070
    16
1010
0.0
1020
0.0
1030
0.0
1010
0.0
1020
0.0
1030
1.0
1040
0.0
1040
299.1239570917758783
1040
104.9325357368027056
1040
148.4488398705011889
1040
50.0
1040
0.0
1040
0.0
1070
     0
1070
  1500
1070
     1
1070
     1
1070
     0
1070
     0
1070
     0
1070
     0
1040
0.0
1040
0.0
1040
0.0
1040
10.0
1040
10.0
1040
10.0
1040
10.0
1070
     0
1002
{
1002
}
1002
}
  0
ENDSEC
  0
EOF
