  0
SECTION
  2
HEADER
  9
$ACADVER
  1
AC1009
  9
$INSBASE
 10
0.0
 20
0.0
 30
0.0
  9
$EXTMIN
 10
174.2466569724587089
 20
-247.5133849869918947
 30
-17.2510486233991216
  9
$EXTMAX
 10
237.7466569724587089
 20
49.0672434589935023
 30
-17.2510486233990683
  9
$LIMMIN
 10
0.0
 20
0.0
  9
$LIMMAX
 10
210.0
 20
297.0
  9
$ORTHOMODE
 70
     1
  9
$REGENMODE
 70
     1
  9
$FILLMODE
 70
     1
  9
$QTEXTMODE
 70
     0
  9
$MIRRTEXT
 70
     1
  9
$DRAGMODE
 70
     2
  9
$LTSCALE
 40
10.0
  9
$OSMODE
 70
  2495
  9
$ATTMODE
 70
     1
  9
$TEXTSIZE
 40
3.5
  9
$TRACEWID
 40
0.5
  9
$TEXTSTYLE
  7
STANDARD
  9
$CLAYER
  8
STEMPEL
  9
$CELTYPE
  6
BYLAYER
  9
$CECOLOR
 62
   256
  9
$DIMSCALE
 40
1.0
  9
$DIMASZ
 40
3.5
  9
$DIMEXO
 40
1.0
  9
$DIMDLI
 40
7.0
  9
$DIMRND
 40
0.0
  9
$DIMDLE
 40
0.0
  9
$DIMEXE
 40
1.0
  9
$DIMTP
 40
0.0
  9
$DIMTM
 40
0.0
  9
$DIMTXT
 40
3.5
  9
$DIMCEN
 40
1.5
  9
$DIMTSZ
 40
0.0
  9
$DIMTOL
 70
     0
  9
$DIMLIM
 70
     0
  9
$DIMTIH
 70
     0
  9
$DIMTOH
 70
     0
  9
$DIMSE1
 70
     0
  9
$DIMSE2
 70
     0
  9
$DIMTAD
 70
     1
  9
$DIMZIN
 70
     8
  9
$DIMBLK
  1

  9
$DIMASO
 70
     1
  9
$DIMSHO
 70
     0
  9
$DIMPOST
  1

  9
$DIMAPOST
  1

  9
$DIMALT
 70
     0
  9
$DIMALTD
 70
     2
  9
$DIMALTF
 40
25.3999999999999986
  9
$DIMLFAC
 40
2.0
  9
$DIMTOFL
 70
     1
  9
$DIMTVP
 40
0.0
  9
$DIMTIX
 70
     0
  9
$DIMSOXD
 70
     0
  9
$DIMSAH
 70
     0
  9
$DIMBLK1
  1

  9
$DIMBLK2
  1

  9
$DIMSTYLE
  2
STANDARD
  9
$DIMCLRD
 70
     0
  9
$DIMCLRE
 70
     0
  9
$DIMCLRT
 70
     1
  9
$DIMTFAC
 40
0.5
  9
$DIMGAP
 40
1.5
  9
$LUNITS
 70
     2
  9
$LUPREC
 70
     2
  9
$SKETCHINC
 40
1.0
  9
$FILLETRAD
 40
15.0
  9
$AUNITS
 70
     0
  9
$AUPREC
 70
     0
  9
$MENU
  1
ACAD
  9
$ELEVATION
 40
0.0
  9
$PELEVATION
 40
0.0
  9
$THICKNESS
 40
0.0
  9
$LIMCHECK
 70
     0
  9
$BLIPMODE
 70
     0
  9
$CHAMFERA
 40
2.0
  9
$CHAMFERB
 40
2.0
  9
$SKPOLY
 70
     0
  9
$TDCREATE
 40
2455397.8646990740671754
  9
$TDUPDATE
 40
2459627.3171296301297843
  9
$TDINDWG
 40
0.1560110185
  9
$TDUSRTIMER
 40
0.1560110185
  9
$USRTIMER
 70
     1
  9
$ANGBASE
 50
0.0
  9
$ANGDIR
 70
     0
  9
$PDMODE
 70
     0
  9
$PDSIZE
 40
0.0
  9
$PLINEWID
 40
0.0
  9
$COORDS
 70
     1
  9
$SPLFRAME
 70
     0
  9
$SPLINETYPE
 70
     6
  9
$SPLINESEGS
 70
     8
  9
$ATTDIA
 70
     1
  9
$ATTREQ
 70
     1
  9
$HANDLING
 70
     1
  9
$HANDSEED
  5
1A7F
  9
$SURFTAB1
 70
     6
  9
$SURFTAB2
 70
     6
  9
$SURFTYPE
 70
     6
  9
$SURFU
 70
     6
  9
$SURFV
 70
     6
  9
$UCSNAME
  2

  9
$UCSORG
 10
0.0
 20
0.0
 30
0.0
  9
$UCSXDIR
 10
1.0
 20
0.0
 30
0.0
  9
$UCSYDIR
 10
0.0
 20
1.0
 30
0.0
  9
$PUCSNAME
  2

  9
$PUCSORG
 10
0.0
 20
0.0
 30
0.0
  9
$PUCSXDIR
 10
1.0
 20
0.0
 30
0.0
  9
$PUCSYDIR
 10
0.0
 20
1.0
 30
0.0
  9
$USERI1
 70
     0
  9
$USERI2
 70
     0
  9
$USERI3
 70
     0
  9
$USERI4
 70
     0
  9
$USERI5
 70
     0
  9
$USERR1
 40
0.0
  9
$USERR2
 40
0.0
  9
$USERR3
 40
0.0
  9
$USERR4
 40
0.0
  9
$USERR5
 40
0.0
  9
$WORLDVIEW
 70
     1
  9
$SHADEDGE
 70
     3
  9
$SHADEDIF
 70
    70
  9
$TILEMODE
 70
     1
  9
$MAXACTVP
 70
    16
  9
$PLIMCHECK
 70
     0
  9
$PEXTMIN
 10
1.0000000000000000E+20
 20
1.0000000000000000E+20
 30
1.0000000000000000E+20
  9
$PEXTMAX
 10
-1.0000000000000000E+20
 20
-1.0000000000000000E+20
 30
-1.0000000000000000E+20
  9
$PLIMMIN
 10
-0.0674642631973264
 20
-0.0511601294987543
  9
$PLIMMAX
 10
209.9325357368026914
 20
296.9488398705012742
  9
$UNITMODE
 70
     0
  9
$VISRETAIN
 70
     0
  9
$PLINEGEN
 70
     0
  9
$PSLTSCALE
 70
     0
  0
ENDSEC
  0
SECTION
  2
TABLES
  0
TABLE
  2
VPORT
 70
     1
  0
VPORT
  2
*ACTIVE
 70
     0
 10
0.0
 20
0.0
 11
1.0
 21
1.0
 12
-0.5156284859478717
 22
-85.1370401966937607
 13
0.0
 23
0.0
 14
1.0
 24
1.0
 15
10.0
 25
10.0
 16
-0.0000000000001705
 26
0.0
 36
748.9912966968717001
 17
206.5122854584064953
 27
-14.0860305673054302
 37
-8.6255243116995448
 40
298.7015864563261971
 41
1.7852028639618129
 42
50.0
 43
0.0
 44
0.0
 50
0.0
 51
0.0
 71
     0
 72
  1500
 73
     1
 74
     0
 75
     0
 76
     0
 77
     0
 78
     0
  0
ENDTAB
  0
TABLE
  2
LTYPE
 70
     6
  0
LTYPE
  2
CONTINUOUS
 70
     0
  3
Solid line
 72
    65
 73
     0
 40
0.0
  0
LTYPE
  2
PHANTOM2
 70
     0
  3
Phantom (.5x) ___ _ _ ___ _ _ ___ _ _ ___ _ _
 72
    65
 73
     6
 40
1.25
 49
0.625
 49
-0.125
 49
0.125
 49
-0.125
 49
0.125
 49
-0.125
  0
LTYPE
  2
VERDECKT
 70
     0
  3
Verdeckt __ __ __ __ __ __ __ __ __ __ __ __ __
 72
    65
 73
     2
 40
0.375
 49
0.25
 49
-0.125
  0
ENDTAB
  0
TABLE
  2
LAYER
 70
    15
  0
LAYER
  2
0
 70
     0
 62
     7
  6
CONTINUOUS
  0
LAYER
  2
VOLL
 70
     0
 62
     1
  6
CONTINUOUS
  0
LAYER
  2
STEMPEL
 70
     0
 62
     3
  6
CONTINUOUS
  0
LAYER
  2
DEFPOINTS
 70
     0
 62
     7
  6
CONTINUOUS
  0
LAYER
  2
ADSK_ASSOC_ENTITY_BACKUPS
 70
     1
 62
    -7
  6
CONTINUOUS
  0
ENDTAB
  0
TABLE
  2
STYLE
 70
     4
  0
STYLE
  2
STANDARD
 70
     0
 40
0.0
 41
0.8
 50
0.0
 71
     0
 42
3.5
  3
simplex.shx
  4

  0
STYLE
  2
GREEKS
 70
     0
 40
0.0
 41
0.8
 50
0.0
 71
     0
 42
2.5
  3
SIMPLEX.shx
  4

  0
ENDTAB
  0
TABLE
  2
VIEW
 70
     1
  0
ENDTAB
  0
TABLE
  2
UCS
 70
     0
  0
ENDTAB
  0
TABLE
  2
APPID
 70
    22
  0
APPID
  2
ACAD
 70
     0
  0
APPID
  2
ACAD_NAV_VCDISPLAY
 70
     0
  0
APPID
  2
ACAD_MLEADERVER
 70
     0
  0
APPID
  2
ACAD_EXEMPT_FROM_CAD_STANDARDS
 70
     0
  0
APPID
  2
ACAD_PSEXT
 70
     0
  0
APPID
  2
ACAECLAYERSTANDARD
 70
     0
  0
APPID
  2
ACAUTHENVIRON
 70
     0
  0
APPID
  2
ACCMTRANSPARENCY
 70
     0
  0
APPID
  2
ACAD_STEPID
 70
     0
  0
APPID
  2
ACSYNERGY
 70
     0
  0
APPID
  2
SYNERGY_BODY_TBR_ID
 70
     0
  0
APPID
  2
ACAD_VIEW_EDGE_ID
 70
     0
  0
APPID
  2
ACSYNERGYSKETCH
 70
     0
  0
APPID
  2
ACAD_MODELDOC_XFORM
 70
     0
  0
APPID
  2
ACAD_DSTYLE_DIMJAG
 70
     0
  0
APPID
  2
ACAD_DSTYLE_DIMTALN
 70
     0
  0
APPID
  2
ACADANNOMONITORALERTICONDI
 70
     0
  0
APPID
  2
ACAD_DIMASSOC_CALC_DIMLFAC
 70
     0
  0
APPID
  2
ACAD_DIMASSOC_DIMLFAC
 70
     0
  0
APPID
  2
ACAD_DIMASSOC_OVERRIDDEN_D
 70
     0
  0
APPID
  2
ACAD_DSTYLE_DIMRADIAL_EXTENSION
 70
     0
  0
APPID
  2
AcDbAttr
 70
     0
  0
ENDTAB
  0
TABLE
  2
DIMSTYLE
 70
     2
  0
DIMSTYLE
  2
STANDARD
 70
     0
  3

  4

  5

  6

  7

 40
1.0
 41
0.18
 42
0.0625
 43
0.38
 44
0.18
 45
0.0
 46
0.0
 47
0.0
 48
0.0
140
0.18
141
0.09
142
0.0
143
25.3999999999999986
144
1.0
145
0.0
146
1.0
147
0.09
 71
     0
 72
     0
 73
     1
 74
     1
 75
     0
 76
     0
 77
     0
 78
     0
170
     0
171
     2
172
     0
173
     0
174
     0
175
     0
176
     0
177
     0
178
     0
  0
ENDTAB
  0
ENDSEC
  0
SECTION
  2
BLOCKS
  0
BLOCK
  8
0
  2
$MODEL_SPACE
 70
     0
 10
0.0
 20
0.0
 30
0.0
  3
$MODEL_SPACE
  1

  0
ENDBLK
  5
36
  8
0
  0
BLOCK
 67
     1
  8
0
  2
$PAPER_SPACE
 70
     0
 10
0.0
 20
0.0
 30
0.0
  3
$PAPER_SPACE
  1

  0
ENDBLK
  5
34
 67
     1
  8
0
  0
BLOCK
  8
0
  2
*S2
 70
     1
 10
0.0
 20
0.0
 30
0.0
  3
*S2
  1

  0
ENDBLK
  5
B3A
  8
0
  0
BLOCK
  8
0
  2
A$CEAF72182
 70
     0
 10
0.0
 20
0.0
 30
0.0
  3
A$CEAF72182
  1

  0
CIRCLE
  5
19E6
  8
0
 10
129.7973054191288043
 20
97.1939330370280743
 30
0.0000000000000284
 40
19.4999999999998792
  0
CIRCLE
  5
19E7
  8
0
 10
129.7973054191288043
 20
97.1939330370280743
 30
0.0000000000000284
 40
25.4998448162654086
  0
CIRCLE
  5
19E8
  8
0
 10
129.7973054191288043
 20
97.1939330370280743
 30
0.0000000000000284
 40
22.4981434521662287
  0
CIRCLE
  5
19E9
  8
0
 10
129.7973054191288043
 20
97.1939330370280743
 30
0.0000000000000284
 40
24.1476030003185613
  0
CIRCLE
  5
19EA
  8
0
 10
129.7973054191288043
 20
97.1939330370280743
 30
0.0000000000000284
 40
31.75
  0
CIRCLE
  5
19EB
  8
0
  6
VERDECKT
 62
     1
 10
129.7973054191288043
 20
97.1939330370280743
 30
0.0000000000000284
 40
24.5902314428424198
  0
CIRCLE
  5
19EC
  8
0
  6
VERDECKT
 62
     1
 10
129.7973054191288043
 20
97.1939330370280743
 30
0.0000000000000284
 40
21.0
  0
CIRCLE
  5
19ED
  8
0
  6
VERDECKT
 62
     1
 10
129.7973054191288043
 20
97.1939330370280743
 30
0.0000000000000284
 40
22.950000000000049
  0
CIRCLE
  5
19EE
  8
0
  6
VERDECKT
 62
     1
 10
129.7973054191288043
 20
97.1939330370280743
 30
0.0000000000000284
 40
22.4999999999997691
  0
CIRCLE
  5
19EF
  8
0
  6
VERDECKT
 62
     1
 10
129.7973054191288043
 20
97.1939330370280743
 30
0.0000000000000284
 40
23.9999999790935803
  0
CIRCLE
  5
19F0
  8
0
  6
VERDECKT
 62
     1
 10
129.7973054191288043
 20
97.1939330370280743
 30
0.0000000000000284
 40
22.950000000000049
  0
ENDBLK
  5
19F2
  8
0
  0
BLOCK
  8
0
  2
A$C6E44F304
 70
     0
 10
0.0
 20
0.0
 30
0.0
  3
A$C6E44F304
  1

  0
LINE
  5
19F6
  8
0
 10
105.6497024188103069
 20
-50.0350682550880634
 30
0.0000000000000111
 11
153.9449084194473869
 21
-50.0350682550880634
 31
0.0000000000000111
210
0.0
220
1.0
230
-0.0000000000000002
  0
ARC
  5
19F7
  8
0
 10
-91.2973054191290885
 20
-148.2215528719856081
 30
0.0
 40
17.4999999999997691
210
0.0
220
-0.0000000000000002
230
-1.0
 50
179.999999999999801
 51
203.8644595187082871
  0
ARC
  5
19F8
  8
0
 10
-168.2973054191292022
 20
-148.2215528719854944
 30
0.0
 40
17.5000000000004015
210
0.0
220
-0.0000000000000002
230
-1.0
 50
336.1355404812920256
 51
359.9999999999997158
  0
LINE
  5
19F9
  8
0
 10
152.2934663788838066
 20
-155.3016048473548096
 30
0.0000000000000345
 11
154.3875368619713129
 21
-160.0350682550881061
 31
0.0000000000000355
210
0.0
220
1.0
230
-0.0000000000000002
  0
LINE
  5
19FA
  8
0
 10
107.301144459373802
 20
-155.3016048473548096
 30
0.0000000000000345
 11
105.2070739762863951
 21
-160.0350682550881061
 31
0.0000000000000355
210
0.0
220
1.0
230
-0.0000000000000002
  0
LINE
  5
19FB
  8
0
 10
150.7973054191288043
 20
-84.5406219276804052
 30
0.0000000000000188
 11
150.7973054191288043
 21
-148.2215528719856081
 31
0.0000000000000329
210
0.0
220
1.0
230
-0.0000000000000002
  0
LINE
  5
19FC
  8
0
 10
108.7973054191288043
 20
-84.5406219276804052
 30
0.0000000000000188
 11
108.7973054191288043
 21
-148.2215528719856081
 31
0.0000000000000329
210
0.0
220
1.0
230
-0.0000000000000002
  0
LINE
  5
19FD
  8
0
 10
155.2971502353940991
 20
-56.5056871392349223
 30
0.0000000000000125
 11
155.2971502353940991
 21
-61.6680682550882722
 31
0.0000000000000137
210
0.0
220
1.0
230
-0.0000000000000002
  0
LINE
  5
19FE
  8
0
 10
104.2974606028635947
 20
-56.5056871392349223
 30
0.0000000000000125
 11
104.2974606028635947
 21
-61.6680682550882722
 31
0.0000000000000137
210
0.0
220
1.0
230
-0.0000000000000002
  0
ARC
  5
19FF
  8
0
 10
-124.2973054191313054
 20
-61.6680682550876966
 30
0.0
 40
19.9998448162677107
210
0.0
220
-0.0000000000000002
230
-1.0
 50
341.806029401616513
 51
359.9999999999984084
  0
ARC
  5
1A00
  8
0
 10
-135.2973054191263031
 20
-61.6680682550876824
 30
0.0
 40
19.9998448162678493
210
0.0
220
-0.0000000000000002
230
-1.0
 50
180.0000000000015916
 51
198.193970598383288
  0
ARC
  5
1A01
  8
0
 10
-95.7973054191285343
 20
-71.0350682550881203
 30
0.0
 40
10.0000000000003197
210
0.0
220
-0.0000000000000002
230
-1.0
 50
161.8060294016160867
 51
179.9999999999996021
  0
ARC
  5
1A02
  8
0
 10
-163.7973054191292022
 20
-71.0350682550881203
 30
0.0
 40
10.0000000000003109
210
0.0
220
-0.0000000000000002
230
-1.0
 50
0.0000000000003308
 51
18.1939705983838991
  0
LINE
  5
1A03
  8
0
 10
153.7973054191288043
 20
-71.0350682550880634
 30
0.0000000000000158
 11
153.7973054191288043
 21
-75.2132428745916428
 31
0.0000000000000167
210
0.0
220
1.0
230
-0.0000000000000002
  0
LINE
  5
1A04
  8
0
 10
105.7973054191288043
 20
-71.0350682550880634
 30
0.0000000000000158
 11
105.7973054191288043
 21
-75.2132428745916428
 31
0.0000000000000167
210
0.0
220
1.0
230
-0.0000000000000002
  0
ARC
  5
1A05
  8
0
 10
-115.7973054191288043
 20
-75.213242874591657
 30
0.0
 40
10.0
210
0.0
220
-0.0000000000000002
230
-1.0
 50
324.3409123038615007
 51
0.0000000000000891
  0
ARC
  5
1A06
  8
0
 10
-143.7973054191286906
 20
-75.213242874591586
 30
0.0
 40
10.0000000000001705
210
0.0
220
-0.0000000000000002
230
-1.0
 50
180.000000000000199
 51
215.6590876961383003
  0
ARC
  5
1A07
  8
0
 10
-102.7973054191295006
 20
-84.5406219276802346
 30
0.0
 40
5.9999999999993783
210
0.0
220
-0.0000000000000002
230
-1.0
 50
144.3409123038593123
 51
180.0000000000013927
  0
ARC
  5
1A08
  8
0
 10
-156.7973054191280085
 20
-84.5406219276801494
 30
0.0
 40
5.999999999999118
210
0.0
220
-0.0000000000000002
230
-1.0
 50
359.9999999999977263
 51
35.6590876961414978
  0
ARC
  5
1A09
  8
0
 10
-120.4548764427453023
 20
-56.5056871392339986
 30
0.0
 40
16.1574158398818888
210
0.0
220
-0.0000000000000002
230
-1.0
 50
359.9999999999968168
 51
23.6077903705769785
  0
ARC
  5
1A0A
  8
0
 10
-139.1397343955121073
 20
-56.5056871392340128
 30
0.0
 40
16.1574158398821588
210
0.0
220
-0.0000000000000002
230
-1.0
 50
156.3922096294232915
 51
180.000000000003098
  0
LINE
  5
1A0B
  8
0
 10
98.0473054191288753
 20
-160.0350682550881913
 30
0.0000000000000355
 11
161.5473054191288043
 21
-160.0350682550881913
 31
0.0000000000000355
210
0.0
220
1.0
230
-0.0000000000000002
  0
LINE
  5
1A0C
  8
0
 10
98.0473054191288753
 20
-260.0350682550882198
 30
0.0000000000000577
 11
161.5473054191288043
 21
-260.0350682550882198
 31
0.0000000000000577
210
0.0
220
1.0
230
-0.0000000000000002
  0
LINE
  5
1A0D
  8
0
 10
161.5473054191288043
 20
-160.0350682550881913
 30
0.0000000000000355
 11
161.5473054191288043
 21
-260.0350682550882198
 31
0.0000000000000577
210
0.0
220
1.0
230
-0.0000000000000002
  0
LINE
  5
1A0E
  8
0
 10
98.0473054191288753
 20
-160.0350682550881913
 30
0.0000000000000355
 11
98.0473054191288753
 21
-260.0350682550882198
 31
0.0000000000000577
210
0.0
220
1.0
230
-0.0000000000000002
  0
ARC
  5
1A0F
  8
0
  6
VERDECKT
 62
     1
 10
-165.2973054191290032
 20
-148.855514726344893
 30
0.0
 40
16.0000000000001883
210
0.0
220
-0.0000000000000002
230
-1.0
 50
336.1355404812911729
 51
0.0
  0
ARC
  5
1A10
  8
0
  6
VERDECKT
 62
     1
 10
-94.2973054191289748
 20
-148.855514726344893
 30
0.0
 40
15.9999999999998792
210
0.0
220
-0.0000000000000002
230
-1.0
 50
179.9999999999998863
 51
203.8644595187091113
  0
LINE
  5
1A11
  8
0
  6
VERDECKT
 62
     1
 10
150.6652240109050069
 20
-155.3287051038255981
 30
0.0000000000000345
 11
152.7473054191289066
 21
-160.0350682550881061
 31
0.0000000000000355
210
0.0
220
1.0
230
-0.0000000000000002
  0
LINE
  5
1A12
  8
0
  6
VERDECKT
 62
     1
 10
108.9293868273527011
 20
-155.3287051038255981
 30
0.0000000000000345
 11
106.8473054191288014
 21
-160.0350682550881061
 31
0.0000000000000355
210
0.0
220
1.0
230
-0.0000000000000002
  0
LINE
  5
1A13
  8
0
  6
VERDECKT
 62
     1
 10
149.2973054191288043
 20
-84.5406219276804478
 30
0.0000000000000188
 11
149.2973054191288043
 21
-148.855514726344893
 31
0.0000000000000331
210
0.0
220
1.0
230
-0.0000000000000002
  0
LINE
  5
1A14
  8
0
  6
VERDECKT
 62
     1
 10
110.2973054191288043
 20
-84.5406219276804478
 30
0.0000000000000188
 11
110.2973054191288043
 21
-148.855514726344893
 31
0.0000000000000331
210
0.0
220
1.0
230
-0.0000000000000002
  0
ARC
  5
1A15
  8
0
  6
VERDECKT
 62
     1
 10
-102.7973054191293016
 20
-84.5406219276804904
 30
0.0
 40
7.4999999999996714
210
0.0
220
-0.0000000000000002
230
-1.0
 50
144.3409123038588859
 51
179.9999999999996874
  0
ARC
  5
1A16
  8
0
  6
VERDECKT
 62
     1
 10
-156.7973054191284064
 20
-84.5406219276804904
 30
0.0
 40
7.4999999999996581
210
0.0
220
-0.0000000000000002
230
-1.0
 50
0.0000000000003308
 51
35.659087696141107
  0
ARC
  5
1A17
  8
0
  6
VERDECKT
 62
     1
 10
-115.7973054191273974
 20
-75.2132428745920834
 30
0.0
 40
8.4999999999985771
210
0.0
220
-0.0000000000000002
230
-1.0
 50
324.3409123038582038
 51
0.0000000000029706
  0
ARC
  5
1A18
  8
0
  6
VERDECKT
 62
     1
 10
-143.7973054191303106
 20
-75.2132428745920834
 30
0.0
 40
8.4999999999985771
210
0.0
220
-0.0000000000000002
230
-1.0
 50
179.9999999999969873
 51
215.6590876961417962
  0
LINE
  5
1A19
  8
0
  6
VERDECKT
 62
     1
 10
152.2973054191286906
 20
-71.0350682550890298
 30
0.0000000000000158
 11
152.2973054191286906
 21
-75.2132428745916428
 31
0.0000000000000167
210
0.0
220
1.0
230
-0.0000000000000002
  0
LINE
  5
1A1A
  8
0
  6
VERDECKT
 62
     1
 10
107.2973054191290032
 20
-71.0350682550890298
 30
0.0000000000000158
 11
107.2973054191290032
 21
-75.2132428745916428
 31
0.0000000000000167
210
0.0
220
1.0
230
-0.0000000000000002
  0
ARC
  5
1A1B
  8
0
  6
VERDECKT
 62
     1
 10
-95.797305419130609
 20
-71.0350682550885608
 30
0.0
 40
11.4999999999984794
210
0.0
220
-0.0000000000000002
230
-1.0
 50
161.8060294016096918
 51
180.0000000000023022
  0
ARC
  5
1A1C
  8
0
  6
VERDECKT
 62
     1
 10
-163.797305419127099
 20
-71.0350682550885608
 30
0.0
 40
11.4999999999984901
210
0.0
220
-0.0000000000000002
230
-1.0
 50
359.9999999999976126
 51
18.1939705983902904
  0
ARC
  5
1A1D
  8
0
  6
VERDECKT
 62
     1
 10
-124.2973054191127034
 20
-61.6680682550907093
 30
0.0
 40
18.4998448162491691
210
0.0
220
-0.0000000000000002
230
-1.0
 50
341.8060294016082139
 51
0.0000000000077351
  0
ARC
  5
1A1E
  8
0
  6
VERDECKT
 62
     1
 10
-135.2973054191448909
 20
-61.6680682550907093
 30
0.0
 40
18.4998448162492117
210
0.0
220
-0.0000000000000002
230
-1.0
 50
179.9999999999922125
 51
198.1939705983917861
  0
LINE
  5
1A1F
  8
0
  6
VERDECKT
 62
     1
 10
105.7974606028634952
 20
-61.6680682550882082
 30
0.0000000000000137
 11
105.7973054470053
 21
-56.5781630670742999
 31
0.0000000000000126
210
0.0
220
1.0
230
-0.0000000000000002
  0
LINE
  5
1A20
  8
0
  6
VERDECKT
 62
     1
 10
153.7971502353940991
 20
-61.6680682550882082
 30
0.0000000000000137
 11
153.7973053912523937
 21
-56.5781630670742999
 31
0.0000000000000126
210
0.0
220
1.0
230
-0.0000000000000002
  0
ARC
  5
1A21
  8
0
  6
VERDECKT
 62
     1
 10
-120.799297223959897
 20
-56.577705760538052
 30
0.0
 40
15.0019917839246908
210
0.0
220
-0.0000000000000002
230
-1.0
 50
359.998253449618403
 51
25.8564504416026786
  0
ARC
  5
1A22
  8
0
  6
VERDECKT
 62
     1
 10
-138.7953136142978963
 20
-56.5777057605380307
 30
0.0
 40
15.0019917839244901
210
0.0
220
-0.0000000000000002
230
-1.0
 50
154.1435495583968986
 51
180.0017465503815117
  0
LINE
  5
1A23
  8
0
  6
VERDECKT
 62
     1
 10
152.7473054191289066
 20
-160.0350682550881913
 30
0.0000000000000355
 11
152.7473054191289066
 21
-260.0350682550882198
 31
0.0000000000000577
210
0.0
220
1.0
230
-0.0000000000000002
  0
LINE
  5
1A24
  8
0
  6
VERDECKT
 62
     1
 10
106.8473054191288014
 20
-160.0350682550881913
 30
0.0000000000000355
 11
106.8473054191288014
 21
-260.0350682550882198
 31
0.0000000000000577
210
0.0
220
1.0
230
-0.0000000000000002
  0
ENDBLK
  5
1A26
  8
0
  0
ENDSEC
  0
SECTION
  2
ENTITIES
  0
TEXT
  5
8F
  8
VOLL
 10
78.076754716981128
 20
31.025947764705851
 30
0.0
 40
1.8
  1

  7
GREEKS
  0
INSERT
  5
B3C
  8
ADSK_ASSOC_ENTITY_BACKUPS
  2
*S2
 10
0.0
 20
0.0
 30
0.0
  0
INSERT
  5
19F3
  8
STEMPEL
  2
A$CEAF72182
 10
76.1993515533298762
 20
-312.9573180240200259
 30
-17.2510486233991003
  0
INSERT
  5
1A27
  8
STEMPEL
  2
A$C6E44F304
 10
76.1993515533298478
 20
99.1023117140815373
 30
-17.2510486233991287
  0
VIEWPORT
  5
928
 67
     1
  8
0
 10
104.9325357368027056
 20
148.4488398705011889
 30
0.0
 40
533.9969448798291296
 41
299.1239570917758783
 68
     1
 69
     1
1001
ACAD
1000
MVIEW
1002
{
1070
    16
1010
0.0
1020
0.0
1030
0.0
1010
0.0
1020
0.0
1030
1.0
1040
0.0
1040
299.1239570917758783
1040
104.9325357368027056
1040
148.4488398705011889
1040
50.0
1040
0.0
1040
0.0
1070
     0
1070
  1500
1070
     1
1070
     1
1070
     0
1070
     0
1070
     0
1070
     0
1040
0.0
1040
0.0
1040
0.0
1040
10.0
1040
10.0
1040
10.0
1040
10.0
1070
     0
1002
{
1002
}
1002
}
  0
ENDSEC
  0
EOF
