  0
SECTION
  2
HEADER
  9
$ACADVER
  1
AC1009
  9
$INSBASE
 10
0.0
 20
0.0
 30
0.0
  9
$EXTMIN
 10
179.8737472243475111
 20
-256.591293180480875
 30
-35.7497648983207199
  9
$EXTMAX
 10
255.9737472243496086
 20
49.067836583412749
 30
-35.7497648983206773
  9
$LIMMIN
 10
0.0
 20
0.0
  9
$LIMMAX
 10
210.0
 20
297.0
  9
$ORTHOMODE
 70
     1
  9
$REGENMODE
 70
     1
  9
$FILLMODE
 70
     1
  9
$QTEXTMODE
 70
     0
  9
$MIRRTEXT
 70
     1
  9
$DRAGMODE
 70
     2
  9
$LTSCALE
 40
10.0
  9
$OSMODE
 70
  2495
  9
$ATTMODE
 70
     1
  9
$TEXTSIZE
 40
3.5
  9
$TRACEWID
 40
0.5
  9
$TEXTSTYLE
  7
STANDARD
  9
$CLAYER
  8
STEMPEL
  9
$CELTYPE
  6
BYLAYER
  9
$CECOLOR
 62
   256
  9
$DIMSCALE
 40
1.0
  9
$DIMASZ
 40
3.5
  9
$DIMEXO
 40
1.0
  9
$DIMDLI
 40
7.0
  9
$DIMRND
 40
0.0
  9
$DIMDLE
 40
0.0
  9
$DIMEXE
 40
1.0
  9
$DIMTP
 40
0.0
  9
$DIMTM
 40
0.0
  9
$DIMTXT
 40
3.5
  9
$DIMCEN
 40
1.5
  9
$DIMTSZ
 40
0.0
  9
$DIMTOL
 70
     0
  9
$DIMLIM
 70
     0
  9
$DIMTIH
 70
     0
  9
$DIMTOH
 70
     0
  9
$DIMSE1
 70
     0
  9
$DIMSE2
 70
     0
  9
$DIMTAD
 70
     1
  9
$DIMZIN
 70
     8
  9
$DIMBLK
  1

  9
$DIMASO
 70
     1
  9
$DIMSHO
 70
     0
  9
$DIMPOST
  1

  9
$DIMAPOST
  1

  9
$DIMALT
 70
     0
  9
$DIMALTD
 70
     2
  9
$DIMALTF
 40
25.3999999999999986
  9
$DIMLFAC
 40
2.0
  9
$DIMTOFL
 70
     1
  9
$DIMTVP
 40
0.0
  9
$DIMTIX
 70
     0
  9
$DIMSOXD
 70
     0
  9
$DIMSAH
 70
     0
  9
$DIMBLK1
  1

  9
$DIMBLK2
  1

  9
$DIMSTYLE
  2
STANDARD
  9
$DIMCLRD
 70
     0
  9
$DIMCLRE
 70
     0
  9
$DIMCLRT
 70
     1
  9
$DIMTFAC
 40
0.5
  9
$DIMGAP
 40
1.5
  9
$LUNITS
 70
     2
  9
$LUPREC
 70
     2
  9
$SKETCHINC
 40
1.0
  9
$FILLETRAD
 40
15.0
  9
$AUNITS
 70
     0
  9
$AUPREC
 70
     0
  9
$MENU
  1
ACAD
  9
$ELEVATION
 40
0.0
  9
$PELEVATION
 40
0.0
  9
$THICKNESS
 40
0.0
  9
$LIMCHECK
 70
     0
  9
$BLIPMODE
 70
     0
  9
$CHAMFERA
 40
2.0
  9
$CHAMFERB
 40
2.0
  9
$SKPOLY
 70
     0
  9
$TDCREATE
 40
2455397.8646990740671754
  9
$TDUPDATE
 40
2459627.3143287040293217
  9
$TDINDWG
 40
0.1681406481
  9
$TDUSRTIMER
 40
0.1681406481
  9
$USRTIMER
 70
     1
  9
$ANGBASE
 50
0.0
  9
$ANGDIR
 70
     0
  9
$PDMODE
 70
     0
  9
$PDSIZE
 40
0.0
  9
$PLINEWID
 40
0.0
  9
$COORDS
 70
     1
  9
$SPLFRAME
 70
     0
  9
$SPLINETYPE
 70
     6
  9
$SPLINESEGS
 70
     8
  9
$ATTDIA
 70
     1
  9
$ATTREQ
 70
     1
  9
$HANDLING
 70
     1
  9
$HANDSEED
  5
1C06
  9
$SURFTAB1
 70
     6
  9
$SURFTAB2
 70
     6
  9
$SURFTYPE
 70
     6
  9
$SURFU
 70
     6
  9
$SURFV
 70
     6
  9
$UCSNAME
  2

  9
$UCSORG
 10
0.0
 20
0.0
 30
0.0
  9
$UCSXDIR
 10
1.0
 20
0.0
 30
0.0
  9
$UCSYDIR
 10
0.0
 20
1.0
 30
0.0
  9
$PUCSNAME
  2

  9
$PUCSORG
 10
0.0
 20
0.0
 30
0.0
  9
$PUCSXDIR
 10
1.0
 20
0.0
 30
0.0
  9
$PUCSYDIR
 10
0.0
 20
1.0
 30
0.0
  9
$USERI1
 70
     0
  9
$USERI2
 70
     0
  9
$USERI3
 70
     0
  9
$USERI4
 70
     0
  9
$USERI5
 70
     0
  9
$USERR1
 40
0.0
  9
$USERR2
 40
0.0
  9
$USERR3
 40
0.0
  9
$USERR4
 40
0.0
  9
$USERR5
 40
0.0
  9
$WORLDVIEW
 70
     1
  9
$SHADEDGE
 70
     3
  9
$SHADEDIF
 70
    70
  9
$TILEMODE
 70
     1
  9
$MAXACTVP
 70
    16
  9
$PLIMCHECK
 70
     0
  9
$PEXTMIN
 10
1.0000000000000000E+20
 20
1.0000000000000000E+20
 30
1.0000000000000000E+20
  9
$PEXTMAX
 10
-1.0000000000000000E+20
 20
-1.0000000000000000E+20
 30
-1.0000000000000000E+20
  9
$PLIMMIN
 10
-0.0674642631973264
 20
-0.0511601294987543
  9
$PLIMMAX
 10
209.9325357368026914
 20
296.9488398705012742
  9
$UNITMODE
 70
     0
  9
$VISRETAIN
 70
     0
  9
$PLINEGEN
 70
     0
  9
$PSLTSCALE
 70
     0
  0
ENDSEC
  0
SECTION
  2
TABLES
  0
TABLE
  2
VPORT
 70
     1
  0
VPORT
  2
*ACTIVE
 70
     0
 10
0.0
 20
0.0
 11
1.0
 21
1.0
 12
0.128902385293685
 22
-92.8265870363853765
 13
0.0
 23
0.0
 14
1.0
 24
1.0
 15
10.0
 25
10.0
 16
-0.0000000000001705
 26
0.0
 36
774.9103464994974502
 17
217.7948448390548037
 27
-10.9351412621487007
 37
-17.8748824491603386
 40
307.8450115023720741
 41
1.7852028639618129
 42
50.0
 43
0.0
 44
0.0
 50
0.0
 51
0.0
 71
     0
 72
  1500
 73
     1
 74
     0
 75
     0
 76
     0
 77
     0
 78
     0
  0
ENDTAB
  0
TABLE
  2
LTYPE
 70
     6
  0
LTYPE
  2
CONTINUOUS
 70
     0
  3
Solid line
 72
    65
 73
     0
 40
0.0
  0
LTYPE
  2
PHANTOM2
 70
     0
  3
Phantom (.5x) ___ _ _ ___ _ _ ___ _ _ ___ _ _
 72
    65
 73
     6
 40
1.25
 49
0.625
 49
-0.125
 49
0.125
 49
-0.125
 49
0.125
 49
-0.125
  0
LTYPE
  2
VERDECKT
 70
     0
  3
Verdeckt __ __ __ __ __ __ __ __ __ __ __ __ __
 72
    65
 73
     2
 40
0.375
 49
0.25
 49
-0.125
  0
ENDTAB
  0
TABLE
  2
LAYER
 70
    15
  0
LAYER
  2
0
 70
     0
 62
     7
  6
CONTINUOUS
  0
LAYER
  2
VOLL
 70
     0
 62
     1
  6
CONTINUOUS
  0
LAYER
  2
STEMPEL
 70
     0
 62
     3
  6
CONTINUOUS
  0
LAYER
  2
DEFPOINTS
 70
     0
 62
     7
  6
CONTINUOUS
  0
LAYER
  2
ADSK_ASSOC_ENTITY_BACKUPS
 70
     1
 62
    -7
  6
CONTINUOUS
  0
ENDTAB
  0
TABLE
  2
STYLE
 70
     4
  0
STYLE
  2
STANDARD
 70
     0
 40
0.0
 41
0.8
 50
0.0
 71
     0
 42
3.5
  3
simplex.shx
  4

  0
STYLE
  2
GREEKS
 70
     0
 40
0.0
 41
0.8
 50
0.0
 71
     0
 42
2.5
  3
SIMPLEX.shx
  4

  0
ENDTAB
  0
TABLE
  2
VIEW
 70
     1
  0
ENDTAB
  0
TABLE
  2
UCS
 70
     0
  0
ENDTAB
  0
TABLE
  2
APPID
 70
    24
  0
APPID
  2
ACAD
 70
     0
  0
APPID
  2
ACAD_NAV_VCDISPLAY
 70
     0
  0
APPID
  2
ACAD_MLEADERVER
 70
     0
  0
APPID
  2
ACAD_EXEMPT_FROM_CAD_STANDARDS
 70
     0
  0
APPID
  2
ACAD_PSEXT
 70
     0
  0
APPID
  2
ACAECLAYERSTANDARD
 70
     0
  0
APPID
  2
ACAUTHENVIRON
 70
     0
  0
APPID
  2
ACCMTRANSPARENCY
 70
     0
  0
APPID
  2
ACAD_STEPID
 70
     0
  0
APPID
  2
ACSYNERGY
 70
     0
  0
APPID
  2
SYNERGY_BODY_TBR_ID
 70
     0
  0
APPID
  2
ACAD_VIEW_EDGE_ID
 70
     0
  0
APPID
  2
ACSYNERGYSKETCH
 70
     0
  0
APPID
  2
ACAD_MODELDOC_XFORM
 70
     0
  0
APPID
  2
ACAD_DSTYLE_DIMJAG
 70
     0
  0
APPID
  2
ACAD_DSTYLE_DIMTALN
 70
     0
  0
APPID
  2
ACADANNOMONITORALERTICONDI
 70
     0
  0
APPID
  2
ACAD_DIMASSOC_CALC_DIMLFAC
 70
     0
  0
APPID
  2
ACAD_DIMASSOC_DIMLFAC
 70
     0
  0
APPID
  2
ACAD_DIMASSOC_OVERRIDDEN_D
 70
     0
  0
APPID
  2
ACAD_DSTYLE_DIMRADIAL_EXTENSION
 70
     0
  0
APPID
  2
GRADIENTCOLOR1ACI
 70
     0
  0
APPID
  2
GRADIENTCOLOR2ACI
 70
     0
  0
APPID
  2
AcDbAttr
 70
     0
  0
ENDTAB
  0
TABLE
  2
DIMSTYLE
 70
     2
  0
DIMSTYLE
  2
STANDARD
 70
     0
  3

  4

  5

  6

  7

 40
1.0
 41
0.18
 42
0.0625
 43
0.38
 44
0.18
 45
0.0
 46
0.0
 47
0.0
 48
0.0
140
0.18
141
0.09
142
0.0
143
25.3999999999999986
144
1.0
145
0.0
146
1.0
147
0.09
 71
     0
 72
     0
 73
     1
 74
     1
 75
     0
 76
     0
 77
     0
 78
     0
170
     0
171
     2
172
     0
173
     0
174
     0
175
     0
176
     0
177
     0
178
     0
  0
ENDTAB
  0
ENDSEC
  0
SECTION
  2
BLOCKS
  0
BLOCK
  8
0
  2
$MODEL_SPACE
 70
     0
 10
0.0
 20
0.0
 30
0.0
  3
$MODEL_SPACE
  1

  0
ENDBLK
  5
36
  8
0
  0
BLOCK
 67
     1
  8
0
  2
$PAPER_SPACE
 70
     0
 10
0.0
 20
0.0
 30
0.0
  3
$PAPER_SPACE
  1

  0
ENDBLK
  5
34
 67
     1
  8
0
  0
BLOCK
  8
0
  2
*S2
 70
     1
 10
0.0
 20
0.0
 30
0.0
  3
*S2
  1

  0
ENDBLK
  5
B3A
  8
0
  0
BLOCK
  8
0
  2
A$CBA073B09
 70
     0
 10
0.0
 20
0.0
 30
0.0
  3
A$CBA073B09
  1

  0
CIRCLE
  5
1B6A
  8
0
 10
129.7973054191290032
 20
97.1939330370280317
 30
0.0000000000000284
 40
38.0499999999999901
  0
CIRCLE
  5
1B6B
  8
0
 10
129.7973054191288043
 20
97.1939330370280459
 30
0.0000000000000284
 40
22.6981434521665797
  0
CIRCLE
  5
1B6C
  8
0
 10
129.7973054191288043
 20
97.1939330370280459
 30
0.0000000000000284
 40
24.3476030003183297
  0
CIRCLE
  5
1B6D
  8
0
 10
129.7973054191311917
 20
97.1939330370280459
 30
0.0000000000000284
 40
19.5999999999968217
  0
CIRCLE
  5
1B6E
  8
0
 10
129.7973054191288895
 20
97.1939330370280317
 30
0.0000000000000284
 40
32.9193993402709424
  0
CIRCLE
  5
1B6F
  8
0
 10
129.7973054191292874
 20
97.1939330370280459
 30
0.0000000000000284
 40
25.700000007663899
  0
CIRCLE
  5
1B70
  8
0
  6
VERDECKT
 62
     1
 10
129.7973054191290032
 20
97.1939330370280317
 30
0.0000000000000284
 40
31.7500000000000284
  0
CIRCLE
  5
1B71
  8
0
  6
VERDECKT
 62
     1
 10
129.7973054191311917
 20
97.1939330370280459
 30
0.0000000000000284
 40
21.1999999999968587
  0
CIRCLE
  5
1B72
  8
0
  6
VERDECKT
 62
     1
 10
129.7973054191303106
 20
97.1939330370280459
 30
0.0000000000000284
 40
22.6999999999980098
  0
CIRCLE
  5
1B73
  8
0
  6
VERDECKT
 62
     1
 10
129.7973054191288895
 20
97.1939330370280317
 30
0.0000000000000284
 40
31.7500000000000888
  0
CIRCLE
  5
1B74
  8
0
  6
VERDECKT
 62
     1
 10
129.7973054191292874
 20
97.1939330370280459
 30
0.0000000000000284
 40
24.2000000069671906
  0
ENDBLK
  5
1B76
  8
0
  0
BLOCK
  8
0
  2
A$C829CA5BB
 70
     0
 10
0.0
 20
0.0
 30
0.0
  3
A$C829CA5BB
  1

  0
LINE
  5
1B7A
  8
0
 10
167.8473054191290998
 20
-260.0350682550881061
 30
0.0000000000000577
 11
91.7473054191292476
 21
-260.0350682550882198
 31
0.0000000000000577
210
0.0
220
1.0
230
-0.0000000000000002
  0
LINE
  5
1B7B
  8
0
 10
167.8473054191289862
 20
-160.0350682550881061
 30
0.0000000000000355
 11
91.747305419129134
 21
-160.0350682550881061
 31
0.0000000000000355
210
0.0
220
1.0
230
-0.0000000000000002
  0
LINE
  5
1B7C
  8
0
 10
91.747305419129205
 20
-260.0350682550882198
 30
0.0000000000000577
 11
91.7473054191290487
 21
-160.0350682550881061
 31
0.0000000000000355
210
0.0
220
1.0
230
-0.0000000000000002
  0
LINE
  5
1B7D
  8
0
 10
167.8473054191290998
 20
-260.0350682550881061
 30
0.0000000000000577
 11
167.8473054191289009
 21
-160.0350682550879924
 31
0.0000000000000355
210
0.0
220
1.0
230
-0.0000000000000002
  0
LINE
  5
1B7E
  8
0
 10
105.449702418810503
 20
-50.0350682550895982
 30
0.0000000000000111
 11
154.144908419447205
 21
-50.0350682550864079
 31
0.0000000000000111
210
0.0
220
1.0
230
-0.0000000000000002
  0
LINE
  5
1B7F
  8
0
 10
162.716704759399903
 20
-159.0956507850702906
 30
0.0000000000000353
 11
96.877906078858004
 21
-159.0956507850706032
 31
0.0000000000000353
210
0.0
220
1.0
230
-0.0000000000000002
  0
ARC
  5
1B80
  8
0
 10
-120.5948726734840051
 20
-56.5767456792510188
 30
0.0
 40
16.4975672620186309
210
0.0
220
-0.0000000000000002
230
-1.0
 50
359.9982534496123776
 51
23.361041095009309
  0
ARC
  5
1B81
  8
0
 10
-138.9997381647752945
 20
-56.5767456792496333
 30
0.0
 40
16.4975672620179203
210
0.0
220
-0.0000000000000002
230
-1.0
 50
156.6389589049825872
 51
180.0017465503800054
  0
LINE
  5
1B82
  8
0
 10
104.0974606028657945
 20
-61.6680682550896293
 30
0.0000000000000137
 11
104.097305419130393
 21
-56.5772485754981176
 31
0.0000000000000126
210
0.0
220
1.0
230
-0.0000000000000002
  0
LINE
  5
1B83
  8
0
 10
155.4971502353936046
 20
-61.6680682550860482
 30
0.0000000000000137
 11
155.4973054191283097
 21
-56.5772485754945507
 31
0.0000000000000126
210
0.0
220
1.0
230
-0.0000000000000002
  0
ARC
  5
1B84
  8
0
 10
-124.097305419134301
 20
-61.6680682550863679
 30
0.0
 40
19.9998448162685811
210
0.0
220
-0.0000000000000002
230
-1.0
 50
341.8060294016091234
 51
359.9999999999906777
  0
ARC
  5
1B85
  8
0
 10
-135.4973054191245012
 20
-61.6680682550854726
 30
0.0
 40
19.9998448162691282
210
0.0
220
-0.0000000000000002
230
-1.0
 50
180.0000000000015916
 51
198.1939705983828048
  0
ARC
  5
1B86
  8
0
 10
-95.5973054191324252
 20
-71.0350682550907919
 30
0.0
 40
9.9999999999999147
210
0.0
220
-0.0000000000000002
230
-1.0
 50
161.8060294016075886
 51
179.9999999999911893
  0
ARC
  5
1B87
  8
0
 10
-163.9973054191283097
 20
-71.0350682550861023
 30
0.0
 40
10.0000000000000302
210
0.0
220
-0.0000000000000002
230
-1.0
 50
0.0000000000004962
 51
18.1939705983841904
  0
LINE
  5
1B88
  8
0
 10
153.997305419128196
 20
-71.0350682550860171
 30
0.0000000000000158
 11
153.9973054191285087
 21
-75.2132428745895965
 31
0.0000000000000167
210
0.0
220
1.0
230
-0.0000000000000002
  0
LINE
  5
1B89
  8
0
 10
105.5973054191323968
 20
-71.0350682550892571
 30
0.0000000000000158
 11
105.5973054191326952
 21
-75.2132428745928365
 31
0.0000000000000167
210
0.0
220
1.0
230
-0.0000000000000002
  0
ARC
  5
1B8A
  8
0
 10
-115.5973054191281051
 20
-75.2132428745928365
 30
0.0
 40
9.9999999999952962
210
0.0
220
-0.0000000000000002
230
-1.0
 50
324.3409123038438793
 51
0.0000000000000127
  0
ARC
  5
1B8B
  8
0
 10
-143.9973054191328004
 20
-75.2132428745908612
 30
0.0
 40
9.9999999999954792
210
0.0
220
-0.0000000000000002
230
-1.0
 50
179.9999999999928093
 51
215.659087696147111
  0
ARC
  5
1B8C
  8
0
 10
-102.5973054191351963
 20
-84.5406219276820252
 30
0.0
 40
5.9999999999991118
210
0.0
220
-0.0000000000000002
230
-1.0
 50
144.3409123038474036
 51
179.9999999999915019
  0
ARC
  5
1B8D
  8
0
 10
-156.9973054191274002
 20
-84.5406219276784157
 30
0.0
 40
5.9999999999993463
210
0.0
220
-0.0000000000000002
230
-1.0
 50
0.0000000000010941
 51
35.6590876961445886
  0
LINE
  5
1B8E
  8
0
 10
98.0473054191288469
 20
-160.0350682550881913
 30
0.0000000000000355
 11
96.877906078858004
 21
-159.0956507850706032
 31
0.0000000000000353
210
0.0
220
1.0
230
-0.0000000000000002
  0
LINE
  5
1B8F
  8
0
 10
161.5473054191290885
 20
-160.0350682550881061
 30
0.0000000000000355
 11
162.716704759399903
 21
-159.0956507850704895
 31
0.0000000000000353
210
0.0
220
1.0
230
-0.0000000000000002
  0
LINE
  5
1B90
  8
0
 10
153.6421106969625896
 20
-147.7994756036131889
 30
0.0000000000000328
 11
162.716704759399903
 21
-159.0956507850704043
 31
0.0000000000000353
210
0.0
220
1.0
230
-0.0000000000000002
  0
LINE
  5
1B91
  8
0
 10
105.9525001412953031
 20
-147.7994756036133026
 30
0.0000000000000328
 11
96.877906078858004
 21
-159.0956507850704895
 31
0.0000000000000353
210
0.0
220
1.0
230
-0.0000000000000002
  0
ARC
  5
1B92
  8
0
 10
-162.9973054191287929
 20
-140.2841358434729102
 30
0.0
 40
11.9999999999997105
210
0.0
220
-0.0000000000000002
230
-1.0
 50
321.2239261191434139
 51
0.0000000000004071
  0
ARC
  5
1B93
  8
0
 10
-96.5973054191290004
 20
-140.2841358434729955
 30
0.0
 40
11.9999999999998295
210
0.0
220
-0.0000000000000002
230
-1.0
 50
179.9999999999996874
 51
218.7760738808563019
  0
LINE
  5
1B94
  8
0
 10
108.5973054191288014
 20
-140.2841358434729102
 30
0.0000000000000311
 11
108.5973054191287019
 21
-84.5406219276811584
 31
0.0000000000000188
210
0.0
220
1.0
230
-0.0000000000000002
  0
LINE
  5
1B95
  8
0
 10
150.9973054191291055
 20
-140.2841358434727965
 30
0.0000000000000311
 11
150.9973054191289918
 21
-84.5406219276782736
 31
0.0000000000000188
210
0.0
220
1.0
230
-0.0000000000000002
  0
LINE
  5
1B96
  8
0
  6
VERDECKT
 62
     1
 10
98.0473054191291737
 20
-260.0350682550882198
 30
0.0000000000000577
 11
98.0473054191290316
 21
-160.0350682550881061
 31
0.0000000000000355
210
0.0
220
1.0
230
-0.0000000000000002
  0
LINE
  5
1B97
  8
0
  6
VERDECKT
 62
     1
 10
161.5473054191292022
 20
-260.0350682550879924
 30
0.0000000000000577
 11
161.5473054191290032
 21
-160.0350682550879924
 31
0.0000000000000355
210
0.0
220
1.0
230
-0.0000000000000002
  0
ARC
  5
1B98
  8
0
  6
VERDECKT
 62
     1
 10
-102.6973054191317942
 20
-84.6784422914052612
 30
0.0
 40
7.5000000000025073
210
0.0
220
-0.0000000000000002
230
-1.0
 50
143.7311477755486067
 51
179.9999999999915019
  0
ARC
  5
1B99
  8
0
  6
VERDECKT
 62
     1
 10
-156.8973054191307028
 20
-84.6784422914015238
 30
0.0
 40
7.5000000000025011
210
0.0
220
-0.0000000000000002
230
-1.0
 50
0.0000000000006488
 51
36.2688522244427105
  0
ARC
  5
1B9A
  8
0
  6
VERDECKT
 62
     1
 10
-115.5973054191379958
 20
-75.2132428745896533
 30
0.0
 40
8.5000000000051443
210
0.0
220
-0.0000000000000002
230
-1.0
 50
323.731147775550312
 51
359.9999999999801048
  0
ARC
  5
1B9B
  8
0
  6
VERDECKT
 62
     1
 10
-143.9973054191231085
 20
-75.2132428745877348
 30
0.0
 40
8.5000000000051728
210
0.0
220
-0.0000000000000002
230
-1.0
 50
180.0000000000123919
 51
216.2688522244419005
  0
LINE
  5
1B9C
  8
0
  6
VERDECKT
 62
     1
 10
152.497305419128196
 20
-71.0350682550860171
 30
0.0000000000000158
 11
152.4973054191285087
 21
-75.2132428745895965
 31
0.0000000000000167
210
0.0
220
1.0
230
-0.0000000000000002
  0
LINE
  5
1B9D
  8
0
  6
VERDECKT
 62
     1
 10
107.0973054191323968
 20
-71.0350682550891435
 30
0.0000000000000158
 11
107.0973054191326952
 21
-75.2132428745926234
 31
0.0000000000000167
210
0.0
220
1.0
230
-0.0000000000000002
  0
ARC
  5
1B9E
  8
0
  6
VERDECKT
 62
     1
 10
-95.5973054191283751
 20
-71.0350682550912751
 30
0.0
 40
11.5000000000039595
210
0.0
220
-0.0000000000000002
230
-1.0
 50
161.806029401611795
 51
179.9999999999893134
  0
ARC
  5
1B9F
  8
0
  6
VERDECKT
 62
     1
 10
-163.9973054191322888
 20
-71.0350682550866424
 30
0.0
 40
11.5000000000039506
210
0.0
220
-0.0000000000000002
230
-1.0
 50
0.0000000000031169
 51
18.1939705983805311
  0
ARC
  5
1BA0
  8
0
  6
VERDECKT
 62
     1
 10
-124.0973054191305067
 20
-61.6680682550868227
 30
0.0
 40
18.4998448162648188
210
0.0
220
-0.0000000000000002
230
-1.0
 50
341.8060294016067928
 51
359.999999999992383
  0
ARC
  5
1BA1
  8
0
  6
VERDECKT
 62
     1
 10
-135.497305419128395
 20
-61.6680682550860269
 30
0.0
 40
18.4998448162651208
210
0.0
220
-0.0000000000000002
230
-1.0
 50
180.0
 51
198.1939705983849933
  0
LINE
  5
1BA2
  8
0
  6
VERDECKT
 62
     1
 10
105.5974606028657945
 20
-61.6680682550892882
 30
0.0000000000000137
 11
105.597305419130393
 21
-56.5772485754977907
 31
0.0000000000000126
210
0.0
220
1.0
230
-0.0000000000000002
  0
LINE
  5
1BA3
  8
0
  6
VERDECKT
 62
     1
 10
153.9971502353936046
 20
-61.6680682550860482
 30
0.0000000000000137
 11
153.9973054191283097
 21
-56.5772485754945507
 31
0.0000000000000126
210
0.0
220
1.0
230
-0.0000000000000002
  0
ARC
  5
1BA4
  8
0
  6
VERDECKT
 62
     1
 10
-120.5953138924104024
 20
-56.5767913903833133
 30
0.0
 40
14.9980084802482807
210
0.0
220
-0.0000000000000002
230
-1.0
 50
359.9982534496127187
 51
25.8599435421059205
  0
ARC
  5
1BA5
  8
0
  6
VERDECKT
 62
     1
 10
-138.9992969458481866
 20
-56.5767913903820698
 30
0.0
 40
14.9980084802482896
210
0.0
220
-0.0000000000000002
230
-1.0
 50
154.1400564578860894
 51
180.0017465503796075
  0
LINE
  5
1BA6
  8
0
  6
VERDECKT
 62
     1
 10
152.3947514006736981
 20
-148.8015209049652867
 30
0.000000000000033
 11
161.5473054191290885
 21
-160.0350682550879924
 31
0.0000000000000355
210
0.0
220
1.0
230
-0.0000000000000002
  0
LINE
  5
1BA7
  8
0
  6
VERDECKT
 62
     1
 10
107.1998594375841947
 20
-148.8015209049652867
 30
0.000000000000033
 11
98.0473054191288753
 21
-160.0350682550881061
 31
0.0000000000000355
210
0.0
220
1.0
230
-0.0000000000000002
  0
LINE
  5
1BA8
  8
0
  6
VERDECKT
 62
     1
 10
110.1973054191287957
 20
-140.2841358434729102
 30
0.0000000000000311
 11
110.1973054191286963
 21
-84.678442291404167
 31
0.0000000000000188
210
0.0
220
1.0
230
-0.0000000000000002
  0
LINE
  5
1BA9
  8
0
  6
VERDECKT
 62
     1
 10
149.3973054191291112
 20
-140.2841358434727965
 30
0.0000000000000311
 11
149.3973054191289975
 21
-84.6784422914014669
 31
0.0000000000000188
210
0.0
220
1.0
230
-0.0000000000000002
  0
ARC
  5
1BAA
  8
0
  6
VERDECKT
 62
     1
 10
-162.9973054191289066
 20
-140.2841358434727965
 30
0.0
 40
13.5999999999998593
210
0.0
220
-0.0000000000000002
230
-1.0
 50
321.2239261191435844
 51
0.0000000000000064
  0
ARC
  5
1BAB
  8
0
  6
VERDECKT
 62
     1
 10
-96.5973054191290146
 20
-140.2841358434729955
 30
0.0
 40
13.5999999999998202
210
0.0
220
-0.0000000000000002
230
-1.0
 50
179.9999999999996874
 51
218.7760738808561882
  0
ENDBLK
  5
1BAD
  8
0
  0
ENDSEC
  0
SECTION
  2
ENTITIES
  0
TEXT
  5
8F
  8
VOLL
 10
78.076754716981128
 20
31.025947764705851
 30
0.0
 40
1.8
  1

  7
GREEKS
  0
INSERT
  5
B3C
  8
ADSK_ASSOC_ENTITY_BACKUPS
  2
*S2
 10
0.0
 20
0.0
 30
0.0
  0
INSERT
  5
1B77
  8
STEMPEL
  2
A$CBA073B09
 10
88.126441805218434
 20
-315.7352262175090232
 30
-35.7497648983207128
  0
INSERT
  5
1BAE
  8
STEMPEL
  2
A$C829CA5BB
 10
88.1264418052204519
 20
99.1029048384991853
 30
-35.749764898320727
  0
VIEWPORT
  5
928
 67
     1
  8
0
 10
104.9325357368027056
 20
148.4488398705011889
 30
0.0
 40
533.9969448798291296
 41
299.1239570917758783
 68
     1
 69
     1
1001
ACAD
1000
MVIEW
1002
{
1070
    16
1010
0.0
1020
0.0
1030
0.0
1010
0.0
1020
0.0
1030
1.0
1040
0.0
1040
299.1239570917758783
1040
104.9325357368027056
1040
148.4488398705011889
1040
50.0
1040
0.0
1040
0.0
1070
     0
1070
  1500
1070
     1
1070
     1
1070
     0
1070
     0
1070
     0
1070
     0
1040
0.0
1040
0.0
1040
0.0
1040
10.0
1040
10.0
1040
10.0
1040
10.0
1070
     0
1002
{
1002
}
1002
}
  0
ENDSEC
  0
EOF
