  0
SECTION
  2
HEADER
  9
$ACADVER
  1
AC1009
  9
$INSBASE
 10
0.0
 20
0.0
 30
0.0
  9
$EXTMIN
 10
-69.8500000000001791
 20
-239.6999999999999034
 30
-0.0000000000000572
  9
$EXTMAX
 10
69.8499999999999943
 20
249.0000000000001137
 30
0.0
  9
$LIMMIN
 10
0.0
 20
0.0
  9
$LIMMAX
 10
419.9999999999998863
 20
594.0
  9
$ORTHOMODE
 70
     1
  9
$REGENMODE
 70
     1
  9
$FILLMODE
 70
     1
  9
$QTEXTMODE
 70
     0
  9
$MIRRTEXT
 70
     1
  9
$DRAGMODE
 70
     2
  9
$LTSCALE
 40
20.0
  9
$OSMODE
 70
  2559
  9
$ATTMODE
 70
     1
  9
$TEXTSIZE
 40
3.5
  9
$TRACEWID
 40
0.5
  9
$TEXTSTYLE
  7
STANDARD
  9
$CLAYER
  8
STEMPEL
  9
$CELTYPE
  6
BYLAYER
  9
$CECOLOR
 62
   256
  9
$DIMSCALE
 40
1.0
  9
$DIMASZ
 40
3.5
  9
$DIMEXO
 40
1.0
  9
$DIMDLI
 40
7.0
  9
$DIMRND
 40
0.0
  9
$DIMDLE
 40
0.0
  9
$DIMEXE
 40
1.0
  9
$DIMTP
 40
0.0
  9
$DIMTM
 40
0.0
  9
$DIMTXT
 40
3.5
  9
$DIMCEN
 40
1.5
  9
$DIMTSZ
 40
0.0
  9
$DIMTOL
 70
     0
  9
$DIMLIM
 70
     0
  9
$DIMTIH
 70
     0
  9
$DIMTOH
 70
     0
  9
$DIMSE1
 70
     0
  9
$DIMSE2
 70
     0
  9
$DIMTAD
 70
     1
  9
$DIMZIN
 70
     8
  9
$DIMBLK
  1

  9
$DIMASO
 70
     1
  9
$DIMSHO
 70
     0
  9
$DIMPOST
  1

  9
$DIMAPOST
  1

  9
$DIMALT
 70
     0
  9
$DIMALTD
 70
     2
  9
$DIMALTF
 40
25.3999999999999986
  9
$DIMLFAC
 40
1.0
  9
$DIMTOFL
 70
     1
  9
$DIMTVP
 40
0.0
  9
$DIMTIX
 70
     0
  9
$DIMSOXD
 70
     0
  9
$DIMSAH
 70
     0
  9
$DIMBLK1
  1

  9
$DIMBLK2
  1

  9
$DIMSTYLE
  2
STANDARD
  9
$DIMCLRD
 70
     0
  9
$DIMCLRE
 70
     0
  9
$DIMCLRT
 70
     1
  9
$DIMTFAC
 40
0.5142857142857143
  9
$DIMGAP
 40
1.5
  9
$LUNITS
 70
     2
  9
$LUPREC
 70
     2
  9
$SKETCHINC
 40
1.0
  9
$FILLETRAD
 40
10.0
  9
$AUNITS
 70
     0
  9
$AUPREC
 70
     0
  9
$MENU
  1
ACAD
  9
$ELEVATION
 40
0.0
  9
$PELEVATION
 40
0.0
  9
$THICKNESS
 40
0.0
  9
$LIMCHECK
 70
     0
  9
$BLIPMODE
 70
     0
  9
$CHAMFERA
 40
0.0
  9
$CHAMFERB
 40
0.0
  9
$SKPOLY
 70
     0
  9
$TDCREATE
 40
2455397.8646990740671754
  9
$TDUPDATE
 40
2458382.5858796290121973
  9
$TDINDWG
 40
0.5402587037
  9
$TDUSRTIMER
 40
0.5402587037
  9
$USRTIMER
 70
     1
  9
$ANGBASE
 50
0.0
  9
$ANGDIR
 70
     0
  9
$PDMODE
 70
     0
  9
$PDSIZE
 40
0.0
  9
$PLINEWID
 40
0.0
  9
$COORDS
 70
     1
  9
$SPLFRAME
 70
     0
  9
$SPLINETYPE
 70
     6
  9
$SPLINESEGS
 70
     8
  9
$ATTDIA
 70
     1
  9
$ATTREQ
 70
     1
  9
$HANDLING
 70
     1
  9
$HANDSEED
  5
3837
  9
$SURFTAB1
 70
     6
  9
$SURFTAB2
 70
     6
  9
$SURFTYPE
 70
     6
  9
$SURFU
 70
     6
  9
$SURFV
 70
     6
  9
$UCSNAME
  2

  9
$UCSORG
 10
0.0
 20
0.0
 30
0.0
  9
$UCSXDIR
 10
1.0
 20
0.0
 30
0.0
  9
$UCSYDIR
 10
0.0
 20
1.0
 30
0.0
  9
$PUCSNAME
  2

  9
$PUCSORG
 10
0.0
 20
0.0
 30
0.0
  9
$PUCSXDIR
 10
1.0
 20
0.0
 30
0.0
  9
$PUCSYDIR
 10
0.0
 20
1.0
 30
0.0
  9
$USERI1
 70
     0
  9
$USERI2
 70
     0
  9
$USERI3
 70
     0
  9
$USERI4
 70
     0
  9
$USERI5
 70
     0
  9
$USERR1
 40
0.0
  9
$USERR2
 40
0.0
  9
$USERR3
 40
0.0
  9
$USERR4
 40
0.0
  9
$USERR5
 40
0.0
  9
$WORLDVIEW
 70
     1
  9
$SHADEDGE
 70
     3
  9
$SHADEDIF
 70
    70
  9
$TILEMODE
 70
     1
  9
$MAXACTVP
 70
    16
  9
$PLIMCHECK
 70
     0
  9
$PEXTMIN
 10
1.0000000000000000E+20
 20
1.0000000000000000E+20
 30
1.0000000000000000E+20
  9
$PEXTMAX
 10
-1.0000000000000000E+20
 20
-1.0000000000000000E+20
 30
-1.0000000000000000E+20
  9
$PLIMMIN
 10
-5.027082920074462
 20
-6.4382776093749987
  9
$PLIMMAX
 10
204.9462447166442871
 20
290.4877172636719251
  9
$UNITMODE
 70
     0
  9
$VISRETAIN
 70
     0
  9
$PLINEGEN
 70
     0
  9
$PSLTSCALE
 70
     0
  0
ENDSEC
  0
SECTION
  2
TABLES
  0
TABLE
  2
VPORT
 70
     1
  0
VPORT
  2
*ACTIVE
 70
     0
 10
0.0
 20
0.0
 11
1.0
 21
1.0
 12
-0.0000000000001137
 22
-84.9274345397948451
 13
0.0
 23
0.0
 14
1.0
 24
1.0
 15
10.0
 25
10.0
 16
-0.0000000000002062
 26
0.0
 36
928.4475461685708524
 17
0.0
 27
89.5774345397949219
 37
-0.0000000000000276
 40
491.191248937977889
 41
1.868197278911564
 42
50.0
 43
0.0
 44
0.0
 50
0.0
 51
0.0
 71
     0
 72
  1500
 73
     1
 74
     0
 75
     0
 76
     0
 77
     0
 78
     0
  0
ENDTAB
  0
TABLE
  2
LTYPE
 70
     7
  0
LTYPE
  2
CONTINUOUS
 70
     0
  3
Solid line
 72
    65
 73
     0
 40
0.0
  0
LTYPE
  2
PHANTOM2
 70
     0
  3
Phantom (.5x) ___ _ _ ___ _ _ ___ _ _ ___ _ _
 72
    65
 73
     6
 40
1.25
 49
0.625
 49
-0.125
 49
0.125
 49
-0.125
 49
0.125
 49
-0.125
  0
LTYPE
  2
AUSGEZOGEN
 70
     0
  3
Ausgezogene Linie
 72
    65
 73
     0
 40
0.0
  0
LTYPE
  2
VERDECKT
 70
     0
  3
_ _ _ _ _ _ _ _ _ _ _ _ _ _ _ _ _ _ _ _ _ _ _
 72
    65
 73
     2
 40
0.375
 49
0.25
 49
-0.125
  0
ENDTAB
  0
TABLE
  2
LAYER
 70
    17
  0
LAYER
  2
0
 70
     0
 62
     7
  6
CONTINUOUS
  0
LAYER
  2
VOLL
 70
     0
 62
     1
  6
CONTINUOUS
  0
LAYER
  2
STEMPEL
 70
     0
 62
     3
  6
CONTINUOUS
  0
LAYER
  2
DEFPOINTS
 70
     0
 62
     7
  6
CONTINUOUS
  0
LAYER
  2
ADSK_ASSOC_ENTITY_BACKUPS
 70
     1
 62
    -7
  6
CONTINUOUS
  0
ENDTAB
  0
TABLE
  2
STYLE
 70
     2
  0
STYLE
  2
STANDARD
 70
     0
 40
0.0
 41
0.8
 50
0.0
 71
     0
 42
3.5
  3
simplex.shx
  4

  0
STYLE
  2
GREEKS
 70
     0
 40
0.0
 41
0.8
 50
0.0
 71
     0
 42
2.5
  3
SIMPLEX.shx
  4

  0
ENDTAB
  0
TABLE
  2
VIEW
 70
     2
  0
ENDTAB
  0
TABLE
  2
UCS
 70
     0
  0
ENDTAB
  0
TABLE
  2
APPID
 70
    34
  0
APPID
  2
ACAD
 70
     0
  0
APPID
  2
ACAD_EXEMPT_FROM_CAD_STANDARDS
 70
     0
  0
APPID
  2
ACAD_NAV_VCDISPLAY
 70
     0
  0
APPID
  2
ACAECLAYERSTANDARD
 70
     0
  0
APPID
  2
ACCMTRANSPARENCY
 70
     0
  0
APPID
  2
ACAD_PSEXT
 70
     0
  0
APPID
  2
GRADIENTCOLOR1ACI
 70
     0
  0
APPID
  2
GRADIENTCOLOR2ACI
 70
     0
  0
APPID
  2
ACAD_MLEADERVER
 70
     0
  0
APPID
  2
ACAD_OBJECT_CHANGE_GUID
 70
     0
  0
APPID
  2
MCAD_NO_VIS
 70
     0
  0
APPID
  2
ACAD_TEMP_GRAPHIC
 70
     0
  0
APPID
  2
ACATTRIBSERVICES
 70
     0
  0
APPID
  2
DESIGNERASSEMBLIES
 70
     0
  0
APPID
  2
ACAD_DSTYLE_DIMJAG
 70
     0
  0
APPID
  2
ACAD_DSTYLE_DIMBREAK
 70
     0
  0
APPID
  2
GENIUS_GENSCREG_15
 70
     0
  0
APPID
  2
GENIUS_GENOBJ-N-SDF_13
 70
     0
  0
APPID
  2
GENIUS_GENODEF_13
 70
     0
  0
APPID
  2
RAK
 70
     0
  0
APPID
  2
ACAUTHENVIRON
 70
     0
  0
APPID
  2
ACDBDYNAMICBLOCKTRUENAME
 70
     0
  0
APPID
  2
ACDBDYNAMICBLOCKGUID
 70
     0
  0
APPID
  2
ACSYNERGY
 70
     0
  0
APPID
  2
SYNERGY_BODY_TBR_ID
 70
     0
  0
APPID
  2
ACAD_VIEW_EDGE_ID
 70
     0
  0
APPID
  2
ACSYNERGYSKETCH
 70
     0
  0
APPID
  2
ACAD_STEPID
 70
     0
  0
APPID
  2
ACAD_MODELDOC_XFORM
 70
     0
  0
APPID
  2
GENIUS_GENDTOL_13
 70
     0
  0
APPID
  2
ACAD_DSTYLE_DIMINSPECT
 70
     0
  0
APPID
  2
ACADANNOMONITORALERTICONDI
 70
     0
  0
APPID
  2
GENIUS_GENDIMSH_14
 70
     0
  0
APPID
  2
ACDBATTR
 70
     0
  0
ENDTAB
  0
TABLE
  2
DIMSTYLE
 70
     2
  0
DIMSTYLE
  2
STANDARD
 70
     0
  3

  4

  5

  6

  7

 40
1.0
 41
0.18
 42
0.0625
 43
0.38
 44
0.18
 45
0.0
 46
0.0
 47
0.0
 48
0.0
140
0.18
141
0.09
142
0.0
143
25.3999999999999986
144
1.0
145
0.0
146
1.0
147
0.09
 71
     0
 72
     0
 73
     1
 74
     1
 75
     0
 76
     0
 77
     0
 78
     0
170
     0
171
     2
172
     0
173
     0
174
     0
175
     0
176
     0
177
     0
178
     0
  0
ENDTAB
  0
ENDSEC
  0
SECTION
  2
BLOCKS
  0
BLOCK
  8
0
  2
$MODEL_SPACE
 70
     0
 10
0.0
 20
0.0
 30
0.0
  3
$MODEL_SPACE
  1

  0
ENDBLK
  5
36
  8
0
  0
BLOCK
 67
     1
  8
0
  2
$PAPER_SPACE
 70
     0
 10
0.0
 20
0.0
 30
0.0
  3
$PAPER_SPACE
  1

  0
ENDBLK
  5
34
 67
     1
  8
0
  0
BLOCK
  8
0
  2
*S0
 70
     1
 10
0.0
 20
0.0
 30
0.0
  3
*S0
  1

  0
ENDBLK
  5
FA2
  8
0
  0
BLOCK
  8
0
  2
A$C32B21DB9
 70
     0
 10
0.0
 20
0.0
 30
0.0
  3
A$C32B21DB9
  1

  0
CIRCLE
  5
379A
  8
0
  6
CONTINUOUS
 62
     3
 10
0.0000000000000511
 20
0.0
 30
0.0
 40
59.8499999999999375
  0
CIRCLE
  5
379B
  8
0
  6
CONTINUOUS
 62
     3
 10
0.0000000000000511
 20
0.0
 30
0.0
 40
69.8499999999999375
  0
CIRCLE
  5
379C
  8
0
  6
CONTINUOUS
 62
     3
 10
0.0
 20
0.0
 30
0.0
 40
47.9501360376889281
  0
CIRCLE
  5
379D
  8
0
  6
CONTINUOUS
 62
     3
 10
0.0000000000000525
 20
0.0
 30
0.0
 40
59.0
  0
CIRCLE
  5
379E
  8
0
  6
CONTINUOUS
 62
     3
 10
0.0000000000000384
 20
0.0
 30
0.0
 40
49.0
  0
CIRCLE
  5
379F
  8
0
  6
CONTINUOUS
 62
     3
 10
0.0000000000000454
 20
0.0
 30
0.0
 40
53.0
  0
CIRCLE
  5
37A0
  8
0
  6
CONTINUOUS
 62
     3
 10
0.0000000000000553
 20
0.0
 30
0.0
 40
53.5
  0
CIRCLE
  5
37A1
  8
0
  6
CONTINUOUS
 62
     3
 10
0.0000000000000553
 20
0.0
 30
0.0
 40
55.7067558379250087
  0
CIRCLE
  5
37A2
  8
0
  6
VERDECKT
 62
     1
 10
0.0
 20
0.0
 30
0.0
 40
49.9577757127756286
  0
CIRCLE
  5
37A3
  8
0
  6
VERDECKT
 62
     1
 10
0.0000000000000454
 20
0.0
 30
0.0
 40
55.0
  0
CIRCLE
  5
37A4
  8
0
  6
VERDECKT
 62
     1
 10
0.0000000000000384
 20
0.0
 30
0.0
 40
51.0
  0
CIRCLE
  5
37A5
  8
0
  6
VERDECKT
 62
     1
 10
0.0000000000000525
 20
0.0
 30
0.0
 40
57.0
  0
ENDBLK
  5
37A7
  8
0
  0
BLOCK
  8
0
  2
A$C76AB50DC
 70
     0
 10
0.0
 20
0.0
 30
0.0
  3
A$C76AB50DC
  1

  0
LINE
  5
37AB
  8
0
  6
CONTINUOUS
 62
     3
 10
-69.8499999999999091
 20
230.0000000000001137
 30
-0.0000000000000511
 11
69.8499999999999091
 21
230.0
 31
-0.0000000000000511
210
0.0
220
1.0
230
-0.0000000000000002
  0
LINE
  5
37AC
  8
0
  6
CONTINUOUS
 62
     3
 10
-69.8500000000000227
 20
130.0000000000001137
 30
-0.0000000000000289
 11
69.8499999999997954
 21
130.0
 31
-0.0000000000000289
210
0.0
220
1.0
230
-0.0000000000000002
  0
LINE
  5
37AD
  8
0
  6
CONTINUOUS
 62
     3
 10
69.8499999999999517
 20
230.0
 30
-0.0000000000000511
 11
69.8499999999998664
 21
130.0
 31
-0.0000000000000289
210
0.0
220
1.0
230
-0.0000000000000002
  0
LINE
  5
37AE
  8
0
  6
CONTINUOUS
 62
     3
 10
-69.8500000000000938
 20
230.0000000000001137
 30
-0.0000000000000511
 11
-69.8500000000001791
 21
130.0000000000001137
 31
-0.0000000000000289
210
0.0
220
1.0
230
-0.0000000000000002
  0
LINE
  5
37AF
  8
0
  6
CONTINUOUS
 62
     3
 10
-49.9577757127756286
 20
0.0
 30
0.0
 11
49.9577757127756286
 21
0.0
 31
0.0
210
0.0
220
1.0
230
-0.0000000000000002
  0
LINE
  5
37B0
  8
0
  6
CONTINUOUS
 62
     3
 10
-55.7067558379250087
 20
249.0000000000001137
 30
-0.0000000000000553
 11
55.7067558379250087
 21
249.0000000000001137
 31
-0.0000000000000553
210
0.0
220
1.0
230
-0.0000000000000002
  0
LINE
  5
37B1
  8
0
  6
CONTINUOUS
 62
     3
 10
-49.9577757127756286
 20
-0.0000000000000009
 30
0.0
 11
-51.0
 21
11.9126781141827696
 31
-0.0000000000000026
210
0.0
220
1.0
230
-0.0000000000000002
  0
LINE
  5
37B2
  8
0
  6
CONTINUOUS
 62
     3
 10
49.9577757127756286
 20
-0.0000000000000009
 30
0.0
 11
51.0
 21
11.9126781141827696
 31
-0.0000000000000026
210
0.0
220
1.0
230
-0.0000000000000002
  0
ARC
  5
37B3
  8
0
  6
CONTINUOUS
 62
     3
 10
33.9999999999982307
 20
236.3952485374283867
 30
0.0
 40
25.0000000000017799
210
0.0
220
-0.0000000000000002
230
-1.0
 50
0.0000000000012468
 51
24.9999999999986215
  0
ARC
  5
37B4
  8
0
  6
CONTINUOUS
 62
     3
 10
-33.9999999999982307
 20
236.3952485374283867
 30
0.0
 40
25.0000000000017693
210
0.0
220
-0.0000000000000002
230
-1.0
 50
155.0000000000013074
 51
179.9999999999986926
  0
LINE
  5
37B5
  8
0
  6
CONTINUOUS
 62
     3
 10
59.0
 20
236.3952485374288983
 30
-0.0000000000000525
 11
59.0
 21
230.0
 31
-0.0000000000000511
210
0.0
220
1.0
230
-0.0000000000000002
  0
LINE
  5
37B6
  8
0
  6
CONTINUOUS
 62
     3
 10
-59.0
 20
236.3952485374288983
 30
-0.0000000000000525
 11
-59.0
 21
230.0000000000001137
 31
-0.0000000000000511
210
0.0
220
1.0
230
-0.0000000000000002
  0
LINE
  5
37B7
  8
0
  6
CONTINUOUS
 62
     3
 10
55.7067558379250087
 20
249.0000000000001137
 30
-0.0000000000000553
 11
56.657694675916332
 21
246.9607050809460986
 31
-0.0000000000000548
210
0.0
220
1.0
230
-0.0000000000000002
  0
LINE
  5
37B8
  8
0
  6
CONTINUOUS
 62
     3
 10
-55.7067558379250087
 20
249.0000000000001137
 30
-0.0000000000000553
 11
-56.657694675916332
 21
246.9607050809460986
 31
-0.0000000000000548
210
0.0
220
1.0
230
-0.0000000000000002
  0
LINE
  5
37B9
  8
0
  6
CONTINUOUS
 62
     3
 10
51.0
 20
130.0
 30
-0.0000000000000289
 11
51.0
 21
11.9126781141827696
 31
-0.0000000000000026
210
0.0
220
1.0
230
-0.0000000000000002
  0
LINE
  5
37BA
  8
0
  6
CONTINUOUS
 62
     3
 10
-51.0
 20
130.0000000000001137
 30
-0.0000000000000289
 11
-51.0
 21
11.9126781141827696
 31
-0.0000000000000026
210
0.0
220
1.0
230
-0.0000000000000002
  0
LINE
  5
37BB
  8
0
  6
VERDECKT
 62
     1
 10
59.8499999999999517
 20
230.0
 30
-0.0000000000000511
 11
59.8499999999998593
 21
130.0
 31
-0.0000000000000289
210
0.0
220
1.0
230
-0.0000000000000002
  0
LINE
  5
37BC
  8
0
  6
VERDECKT
 62
     1
 10
-59.8500000000001009
 20
230.0000000000001137
 30
-0.0000000000000511
 11
-59.8500000000001791
 21
130.0000000000001137
 31
-0.0000000000000289
210
0.0
220
1.0
230
-0.0000000000000002
  0
ARC
  5
37BD
  8
0
  6
VERDECKT
 62
     1
 10
38.9999999999966107
 20
12.4366094290852303
 30
0.0
 40
10.0000000000033893
210
0.0
220
-0.0000000000000002
230
-1.0
 50
355.0000000000006821
 51
359.9999999999992042
  0
ARC
  5
37BE
  8
0
  6
VERDECKT
 62
     1
 10
-38.9999999999966107
 20
12.4366094290852303
 30
0.0
 40
10.0000000000033893
210
0.0
220
-0.0000000000000002
230
-1.0
 50
180.0000000000007958
 51
184.9999999999992042
  0
LINE
  5
37BF
  8
0
  6
VERDECKT
 62
     1
 10
-47.9501360376889281
 20
-0.0000000000000009
 30
0.0
 11
-48.9619469809174532
 21
11.5650520016084801
 31
-0.0000000000000026
210
0.0
220
1.0
230
-0.0000000000000002
  0
LINE
  5
37C0
  8
0
  6
VERDECKT
 62
     1
 10
47.9501360376889281
 20
-0.0000000000000009
 30
0.0
 11
48.9619469809174532
 21
11.5650520016084801
 31
-0.0000000000000026
210
0.0
220
1.0
230
-0.0000000000000002
  0
LINE
  5
37C1
  8
0
  6
VERDECKT
 62
     1
 10
59.0
 20
230.0
 30
-0.0000000000000511
 11
59.0
 21
221.2332005306815859
 31
-0.0000000000000491
210
0.0
220
1.0
230
-0.0000000000000002
  0
LINE
  5
37C2
  8
0
  6
VERDECKT
 62
     1
 10
-59.0
 20
230.0000000000001137
 30
-0.0000000000000511
 11
-59.0
 21
221.2332005306815859
 31
-0.0000000000000491
210
0.0
220
1.0
230
-0.0000000000000002
  0
ARC
  5
37C3
  8
0
  6
VERDECKT
 62
     1
 10
33.9999999999989484
 20
221.2332005306818132
 30
0.0
 40
25.0000000000010516
210
0.0
220
-0.0000000000000002
230
-1.0
 50
333.1119523822753195
 51
359.9999999999994884
  0
ARC
  5
37C4
  8
0
  6
VERDECKT
 62
     1
 10
-33.9999999999989484
 20
221.2332005306818132
 30
0.0
 40
25.0000000000010516
210
0.0
220
-0.0000000000000002
230
-1.0
 50
180.0000000000003979
 51
206.888047617724709
  0
ARC
  5
37C5
  8
0
  6
VERDECKT
 62
     1
 10
66.9999999999980673
 20
204.5000000000005116
 30
0.0
 40
11.9999999999980709
210
0.0
220
-0.0000000000000002
230
-1.0
 50
153.1119523822760868
 51
180.0000000000019895
  0
ARC
  5
37C6
  8
0
  6
VERDECKT
 62
     1
 10
-66.9999999999981952
 20
204.5000000000003979
 30
0.0
 40
11.9999999999982006
210
0.0
220
-0.0000000000000002
230
-1.0
 50
359.9999999999981242
 51
26.8880476177236787
  0
LINE
  5
37C7
  8
0
  6
VERDECKT
 62
     1
 10
55.0
 20
204.5000000000001137
 30
-0.0000000000000454
 11
55.0
 21
185.9274888769477911
 31
-0.0000000000000413
210
0.0
220
1.0
230
-0.0000000000000002
  0
LINE
  5
37C8
  8
0
  6
VERDECKT
 62
     1
 10
-55.0
 20
204.5000000000001137
 30
-0.0000000000000454
 11
-55.0
 21
185.9274888769477911
 31
-0.0000000000000413
210
0.0
220
1.0
230
-0.0000000000000002
  0
ARC
  5
37C9
  8
0
  6
VERDECKT
 62
     1
 10
39.9999999999978968
 20
185.927488876948189
 30
0.0
 40
15.0000000000020908
210
0.0
220
-0.0000000000000002
230
-1.0
 50
325.6988472432101958
 51
359.9999999999988063
  0
ARC
  5
37CA
  8
0
  6
VERDECKT
 62
     1
 10
-39.9999999999978968
 20
185.927488876948189
 30
0.0
 40
15.0000000000020908
210
0.0
220
-0.0000000000000002
230
-1.0
 50
180.0000000000011084
 51
214.3011527567898042
  0
ARC
  5
37CB
  8
0
  6
VERDECKT
 62
     1
 10
58.9999999999997016
 20
172.9660074801317933
 30
0.0
 40
7.9999999999997211
210
0.0
220
-0.0000000000000002
230
-1.0
 50
145.6988472432084905
 51
180.0000000000001137
  0
ARC
  5
37CC
  8
0
  6
VERDECKT
 62
     1
 10
-58.9999999999997016
 20
172.9660074801317933
 30
0.0
 40
7.9999999999997149
210
0.0
220
-0.0000000000000002
230
-1.0
 50
359.9999999999997726
 51
34.3011527567914172
  0
ARC
  5
37CD
  8
0
  6
VERDECKT
 62
     1
 10
59.0000000000003908
 20
172.966007480131708
 30
0.0
 40
10.0000000000003908
210
0.0
220
-0.0000000000000002
230
-1.0
 50
145.6988472432078083
 51
179.9999999999992895
  0
ARC
  5
37CE
  8
0
  6
VERDECKT
 62
     1
 10
-59.0000000000003908
 20
172.966007480131708
 30
0.0
 40
10.0000000000003908
210
0.0
220
-0.0000000000000002
230
-1.0
 50
0.0000000000006488
 51
34.3011527567921419
  0
ARC
  5
37CF
  8
0
  6
VERDECKT
 62
     1
 10
39.9999999999981313
 20
185.9274888769481038
 30
0.0
 40
13.0000000000018705
210
0.0
220
-0.0000000000000002
230
-1.0
 50
325.6988472432120716
 51
359.9999999999988063
  0
ARC
  5
37D0
  8
0
  6
VERDECKT
 62
     1
 10
-39.9999999999982805
 20
185.9274888769479901
 30
0.0
 40
13.0000000000017106
210
0.0
220
-0.0000000000000002
230
-1.0
 50
180.0000000000009095
 51
214.3011527567880989
  0
LINE
  5
37D1
  8
0
  6
VERDECKT
 62
     1
 10
53.0
 20
204.4997994693185035
 30
-0.0000000000000454
 11
53.0
 21
185.9274888769477911
 31
-0.0000000000000413
210
0.0
220
1.0
230
-0.0000000000000002
  0
LINE
  5
37D2
  8
0
  6
VERDECKT
 62
     1
 10
-53.0
 20
204.4997994693185035
 30
-0.0000000000000454
 11
-53.0
 21
185.9274888769477911
 31
-0.0000000000000413
210
0.0
220
1.0
230
-0.0000000000000002
  0
ARC
  5
37D3
  8
0
  6
VERDECKT
 62
     1
 10
67.0000000000000853
 20
204.4997994693183045
 30
0.0
 40
14.0000000000000995
210
0.0
220
-0.0000000000000002
230
-1.0
 50
153.1119523822777921
 51
179.9999999999992042
  0
ARC
  5
37D4
  8
0
  6
VERDECKT
 62
     1
 10
-67.0000000000002274
 20
204.4997994693183045
 30
0.0
 40
14.0000000000002292
210
0.0
220
-0.0000000000000002
230
-1.0
 50
0.0000000000008142
 51
26.8880476177219911
  0
ARC
  5
37D5
  8
0
  6
VERDECKT
 62
     1
 10
34.0000000000010019
 20
221.2329999999996062
 30
0.0
 40
22.9999999999990017
210
0.0
220
-0.0000000000000002
230
-1.0
 50
333.1119523822742963
 51
0.0000000000007493
  0
ARC
  5
37D6
  8
0
  6
VERDECKT
 62
     1
 10
-34.0000000000008669
 20
221.2329999999996062
 30
0.0
 40
22.9999999999991296
210
0.0
220
-0.0000000000000002
230
-1.0
 50
179.9999999999992895
 51
206.8880476177255048
  0
LINE
  5
37D7
  8
0
  6
VERDECKT
 62
     1
 10
57.0
 20
236.3952485374288983
 30
-0.0000000000000525
 11
57.0
 21
221.2329999999998904
 31
-0.0000000000000491
210
0.0
220
1.0
230
-0.0000000000000002
  0
LINE
  5
37D8
  8
0
  6
VERDECKT
 62
     1
 10
-57.0
 20
236.3952485374288983
 30
-0.0000000000000525
 11
-57.0
 21
221.2329999999998904
 31
-0.0000000000000491
210
0.0
220
1.0
230
-0.0000000000000002
  0
ARC
  5
37D9
  8
0
  6
VERDECKT
 62
     1
 10
33.9999999999979821
 20
236.3952485374285004
 30
0.0
 40
23.0000000000020215
210
0.0
220
-0.0000000000000002
230
-1.0
 50
0.0000000000012086
 51
24.9999999999979003
  0
ARC
  5
37DA
  8
0
  6
VERDECKT
 62
     1
 10
-33.9999999999979821
 20
236.3952485374285004
 30
0.0
 40
23.0000000000020286
210
0.0
220
-0.0000000000000002
230
-1.0
 50
155.0000000000019895
 51
179.9999999999988063
  0
LINE
  5
37DB
  8
0
  6
VERDECKT
 62
     1
 10
53.4999999999999787
 20
249.0000000000001137
 30
-0.0000000000000553
 11
54.8450791018430905
 21
246.1154685574645953
 31
-0.0000000000000546
210
0.0
220
1.0
230
-0.0000000000000002
  0
LINE
  5
37DC
  8
0
  6
VERDECKT
 62
     1
 10
-53.4999999999999787
 20
249.0000000000001137
 30
-0.0000000000000553
 11
-54.8450791018430905
 21
246.1154685574645953
 31
-0.0000000000000546
210
0.0
220
1.0
230
-0.0000000000000002
  0
LINE
  5
37DD
  8
0
  6
VERDECKT
 62
     1
 10
49.0
 20
172.9660074801317933
 30
-0.0000000000000384
 11
49.0
 21
12.4366094290850793
 31
-0.0000000000000028
210
0.0
220
1.0
230
-0.0000000000000002
  0
LINE
  5
37DE
  8
0
  6
VERDECKT
 62
     1
 10
-49.0
 20
172.9660074801317933
 30
-0.0000000000000384
 11
-49.0
 21
12.4366094290850793
 31
-0.0000000000000028
210
0.0
220
1.0
230
-0.0000000000000002
  0
LINE
  5
37DF
  8
0
  6
VERDECKT
 62
     1
 10
51.0
 20
172.9660074801317933
 30
-0.0000000000000384
 11
51.0
 21
130.0
 31
-0.0000000000000289
210
0.0
220
1.0
230
-0.0000000000000002
  0
LINE
  5
37E0
  8
0
  6
VERDECKT
 62
     1
 10
-51.0
 20
172.9660074801317933
 30
-0.0000000000000384
 11
-51.0
 21
130.0000000000001137
 31
-0.0000000000000289
210
0.0
220
1.0
230
-0.0000000000000002
  0
ENDBLK
  5
37E2
  8
0
  0
ENDSEC
  0
SECTION
  2
ENTITIES
  0
TEXT
  5
8F
  8
VOLL
 10
78.076754716981128
 20
31.025947764705851
 30
0.0
 40
1.8
  1

  7
GREEKS
  0
INSERT
  5
FA4
  8
ADSK_ASSOC_ENTITY_BACKUPS
  2
*S0
 10
0.0
 20
0.0
 30
0.0
  0
INSERT
  5
37A8
  8
STEMPEL
  2
A$C32B21DB9
 10
0.0
 20
-169.8499999999999091
 30
0.0
  0
INSERT
  5
37E3
  8
STEMPEL
  2
A$C76AB50DC
 10
0.0
 20
0.0
 30
0.0
  0
VIEWPORT
  5
702
 67
     1
  8
0
 10
99.9595808982848837
 20
142.0247198271484024
 30
0.0
 40
557.5441164704363928
 41
298.4396363082536254
 68
     1
 69
     1
1001
ACAD
1000
MVIEW
1002
{
1070
    16
1010
0.0
1020
0.0
1030
0.0
1010
0.0
1020
0.0
1030
1.0
1040
0.0
1040
298.4396363082536254
1040
99.9595808982848837
1040
142.0247198271484024
1040
50.0
1040
0.0
1040
0.0
1070
     0
1070
  1500
1070
     1
1070
     1
1070
     0
1070
     0
1070
     0
1070
     0
1040
0.0
1040
0.0
1040
0.0
1040
10.0
1040
10.0
1040
10.0
1040
10.0
1070
     0
1002
{
1002
}
1002
}
1001
GENIUS_GENOBJ-N-SDF_13
1002
{
1000
OWNER
1000
GEN
1002
}
1001
GENIUS_GENODEF_13
1002
{
1000
HIER
1070
     0
1002
}
1002
{
1000
MANEDIT
1070
     0
1002
}
1002
{
1000
NOSEL
1070
     0
1002
}
1002
{
1000
BEHIND
1070
     0
1002
}
1002
{
1000
OTHER
1070
     0
1002
}
1002
{
1000
REACTOR
1002
}
1001
GENIUS_GENSCREG_15
1000
PF
1040
1.0
1000
DF
1040
1.0
1000
MIN
1011
-130.526669102047407
1021
0.0
1031
0.0
1021
8.9124057693342706
1031
0.0
1000
MAX
1011
492.6857968170406821
1021
0.0
1031
0.0
1021
283.1113636766255013
1031
0.0
1000
FLAGS
1070
     4
  0
ENDSEC
  0
EOF
