  0
SECTION
  2
HEADER
  9
$ACADVER
  1
AC1009
  9
$INSBASE
 10
0.0
 20
0.0
 30
0.0
  9
$EXTMIN
 10
-63.5000000000001208
 20
-227.0
 30
-0.0000000000000531
  9
$EXTMAX
 10
63.5
 20
231.0000000000001137
 30
0.0
  9
$LIMMIN
 10
0.0
 20
0.0
  9
$LIMMAX
 10
419.9999999999998863
 20
594.0
  9
$ORTHOMODE
 70
     1
  9
$REGENMODE
 70
     1
  9
$FILLMODE
 70
     1
  9
$QTEXTMODE
 70
     0
  9
$MIRRTEXT
 70
     1
  9
$DRAGMODE
 70
     2
  9
$LTSCALE
 40
20.0
  9
$OSMODE
 70
  2559
  9
$ATTMODE
 70
     1
  9
$TEXTSIZE
 40
3.5
  9
$TRACEWID
 40
0.5
  9
$TEXTSTYLE
  7
STANDARD
  9
$CLAYER
  8
STEMPEL
  9
$CELTYPE
  6
BYLAYER
  9
$CECOLOR
 62
   256
  9
$DIMSCALE
 40
1.0
  9
$DIMASZ
 40
3.5
  9
$DIMEXO
 40
1.0
  9
$DIMDLI
 40
7.0
  9
$DIMRND
 40
0.0
  9
$DIMDLE
 40
0.0
  9
$DIMEXE
 40
1.0
  9
$DIMTP
 40
0.0
  9
$DIMTM
 40
0.0
  9
$DIMTXT
 40
3.5
  9
$DIMCEN
 40
1.5
  9
$DIMTSZ
 40
0.0
  9
$DIMTOL
 70
     0
  9
$DIMLIM
 70
     0
  9
$DIMTIH
 70
     0
  9
$DIMTOH
 70
     0
  9
$DIMSE1
 70
     0
  9
$DIMSE2
 70
     0
  9
$DIMTAD
 70
     1
  9
$DIMZIN
 70
     8
  9
$DIMBLK
  1

  9
$DIMASO
 70
     1
  9
$DIMSHO
 70
     0
  9
$DIMPOST
  1

  9
$DIMAPOST
  1

  9
$DIMALT
 70
     0
  9
$DIMALTD
 70
     2
  9
$DIMALTF
 40
25.3999999999999986
  9
$DIMLFAC
 40
1.0
  9
$DIMTOFL
 70
     1
  9
$DIMTVP
 40
0.0
  9
$DIMTIX
 70
     0
  9
$DIMSOXD
 70
     0
  9
$DIMSAH
 70
     0
  9
$DIMBLK1
  1

  9
$DIMBLK2
  1

  9
$DIMSTYLE
  2
STANDARD
  9
$DIMCLRD
 70
     0
  9
$DIMCLRE
 70
     0
  9
$DIMCLRT
 70
     1
  9
$DIMTFAC
 40
0.5142857142857143
  9
$DIMGAP
 40
1.5
  9
$LUNITS
 70
     2
  9
$LUPREC
 70
     2
  9
$SKETCHINC
 40
1.0
  9
$FILLETRAD
 40
10.0
  9
$AUNITS
 70
     0
  9
$AUPREC
 70
     0
  9
$MENU
  1
ACAD
  9
$ELEVATION
 40
0.0
  9
$PELEVATION
 40
0.0
  9
$THICKNESS
 40
0.0
  9
$LIMCHECK
 70
     0
  9
$BLIPMODE
 70
     0
  9
$CHAMFERA
 40
0.0
  9
$CHAMFERB
 40
0.0
  9
$SKPOLY
 70
     0
  9
$TDCREATE
 40
2455397.8646990740671754
  9
$TDUPDATE
 40
2458382.5829629627987742
  9
$TDINDWG
 40
0.4243384375
  9
$TDUSRTIMER
 40
0.4243384375
  9
$USRTIMER
 70
     1
  9
$ANGBASE
 50
0.0
  9
$ANGDIR
 70
     0
  9
$PDMODE
 70
     0
  9
$PDSIZE
 40
0.0
  9
$PLINEWID
 40
0.0
  9
$COORDS
 70
     1
  9
$SPLFRAME
 70
     0
  9
$SPLINETYPE
 70
     6
  9
$SPLINESEGS
 70
     8
  9
$ATTDIA
 70
     1
  9
$ATTREQ
 70
     1
  9
$HANDLING
 70
     1
  9
$HANDSEED
  5
3548
  9
$SURFTAB1
 70
     6
  9
$SURFTAB2
 70
     6
  9
$SURFTYPE
 70
     6
  9
$SURFU
 70
     6
  9
$SURFV
 70
     6
  9
$UCSNAME
  2

  9
$UCSORG
 10
0.0
 20
0.0
 30
0.0
  9
$UCSXDIR
 10
1.0
 20
0.0
 30
0.0
  9
$UCSYDIR
 10
0.0
 20
1.0
 30
0.0
  9
$PUCSNAME
  2

  9
$PUCSORG
 10
0.0
 20
0.0
 30
0.0
  9
$PUCSXDIR
 10
1.0
 20
0.0
 30
0.0
  9
$PUCSYDIR
 10
0.0
 20
1.0
 30
0.0
  9
$USERI1
 70
     0
  9
$USERI2
 70
     0
  9
$USERI3
 70
     0
  9
$USERI4
 70
     0
  9
$USERI5
 70
     0
  9
$USERR1
 40
0.0
  9
$USERR2
 40
0.0
  9
$USERR3
 40
0.0
  9
$USERR4
 40
0.0
  9
$USERR5
 40
0.0
  9
$WORLDVIEW
 70
     1
  9
$SHADEDGE
 70
     3
  9
$SHADEDIF
 70
    70
  9
$TILEMODE
 70
     1
  9
$MAXACTVP
 70
    16
  9
$PLIMCHECK
 70
     0
  9
$PEXTMIN
 10
1.0000000000000000E+20
 20
1.0000000000000000E+20
 30
1.0000000000000000E+20
  9
$PEXTMAX
 10
-1.0000000000000000E+20
 20
-1.0000000000000000E+20
 30
-1.0000000000000000E+20
  9
$PLIMMIN
 10
-5.027082920074462
 20
-6.4382776093749987
  9
$PLIMMAX
 10
204.9462447166442871
 20
290.4877172636719251
  9
$UNITMODE
 70
     0
  9
$VISRETAIN
 70
     0
  9
$PLINEGEN
 70
     0
  9
$PSLTSCALE
 70
     0
  0
ENDSEC
  0
SECTION
  2
TABLES
  0
TABLE
  2
VPORT
 70
     1
  0
VPORT
  2
*ACTIVE
 70
     0
 10
0.0
 20
0.0
 11
1.0
 21
1.0
 12
-0.0000000000000568
 22
-81.7522144317626385
 13
0.0
 23
0.0
 14
1.0
 24
1.0
 15
10.0
 25
10.0
 16
-0.0000000000001899
 26
0.0
 36
855.3839609003806572
 17
0.0
 27
83.7522144317626953
 37
-0.0000000000000256
 40
460.3347493627867948
 41
1.868197278911564
 42
50.0
 43
0.0
 44
0.0
 50
0.0
 51
0.0
 71
     0
 72
  1500
 73
     1
 74
     0
 75
     0
 76
     0
 77
     0
 78
     0
  0
ENDTAB
  0
TABLE
  2
LTYPE
 70
     7
  0
LTYPE
  2
CONTINUOUS
 70
     0
  3
Solid line
 72
    65
 73
     0
 40
0.0
  0
LTYPE
  2
PHANTOM2
 70
     0
  3
Phantom (.5x) ___ _ _ ___ _ _ ___ _ _ ___ _ _
 72
    65
 73
     6
 40
1.25
 49
0.625
 49
-0.125
 49
0.125
 49
-0.125
 49
0.125
 49
-0.125
  0
LTYPE
  2
AUSGEZOGEN
 70
     0
  3
Ausgezogene Linie
 72
    65
 73
     0
 40
0.0
  0
LTYPE
  2
VERDECKT
 70
     0
  3
_ _ _ _ _ _ _ _ _ _ _ _ _ _ _ _ _ _ _ _ _ _ _
 72
    65
 73
     2
 40
0.375
 49
0.25
 49
-0.125
  0
ENDTAB
  0
TABLE
  2
LAYER
 70
    17
  0
LAYER
  2
0
 70
     0
 62
     7
  6
CONTINUOUS
  0
LAYER
  2
VOLL
 70
     0
 62
     1
  6
CONTINUOUS
  0
LAYER
  2
STEMPEL
 70
     0
 62
     3
  6
CONTINUOUS
  0
LAYER
  2
DEFPOINTS
 70
     0
 62
     7
  6
CONTINUOUS
  0
LAYER
  2
ADSK_ASSOC_ENTITY_BACKUPS
 70
     1
 62
    -7
  6
CONTINUOUS
  0
ENDTAB
  0
TABLE
  2
STYLE
 70
     2
  0
STYLE
  2
STANDARD
 70
     0
 40
0.0
 41
0.8
 50
0.0
 71
     0
 42
3.5
  3
simplex.shx
  4

  0
STYLE
  2
GREEKS
 70
     0
 40
0.0
 41
0.8
 50
0.0
 71
     0
 42
2.5
  3
SIMPLEX.shx
  4

  0
ENDTAB
  0
TABLE
  2
VIEW
 70
     2
  0
ENDTAB
  0
TABLE
  2
UCS
 70
     0
  0
ENDTAB
  0
TABLE
  2
APPID
 70
    34
  0
APPID
  2
ACAD
 70
     0
  0
APPID
  2
ACAD_EXEMPT_FROM_CAD_STANDARDS
 70
     0
  0
APPID
  2
ACAD_NAV_VCDISPLAY
 70
     0
  0
APPID
  2
ACAECLAYERSTANDARD
 70
     0
  0
APPID
  2
ACCMTRANSPARENCY
 70
     0
  0
APPID
  2
ACAD_PSEXT
 70
     0
  0
APPID
  2
GRADIENTCOLOR1ACI
 70
     0
  0
APPID
  2
GRADIENTCOLOR2ACI
 70
     0
  0
APPID
  2
ACAD_MLEADERVER
 70
     0
  0
APPID
  2
ACAD_OBJECT_CHANGE_GUID
 70
     0
  0
APPID
  2
MCAD_NO_VIS
 70
     0
  0
APPID
  2
ACAD_TEMP_GRAPHIC
 70
     0
  0
APPID
  2
ACATTRIBSERVICES
 70
     0
  0
APPID
  2
DESIGNERASSEMBLIES
 70
     0
  0
APPID
  2
ACAD_DSTYLE_DIMJAG
 70
     0
  0
APPID
  2
ACAD_DSTYLE_DIMBREAK
 70
     0
  0
APPID
  2
GENIUS_GENSCREG_15
 70
     0
  0
APPID
  2
GENIUS_GENOBJ-N-SDF_13
 70
     0
  0
APPID
  2
GENIUS_GENODEF_13
 70
     0
  0
APPID
  2
RAK
 70
     0
  0
APPID
  2
ACAUTHENVIRON
 70
     0
  0
APPID
  2
ACDBDYNAMICBLOCKTRUENAME
 70
     0
  0
APPID
  2
ACDBDYNAMICBLOCKGUID
 70
     0
  0
APPID
  2
ACSYNERGY
 70
     0
  0
APPID
  2
SYNERGY_BODY_TBR_ID
 70
     0
  0
APPID
  2
ACAD_VIEW_EDGE_ID
 70
     0
  0
APPID
  2
ACSYNERGYSKETCH
 70
     0
  0
APPID
  2
ACAD_STEPID
 70
     0
  0
APPID
  2
ACAD_MODELDOC_XFORM
 70
     0
  0
APPID
  2
GENIUS_GENDTOL_13
 70
     0
  0
APPID
  2
ACAD_DSTYLE_DIMINSPECT
 70
     0
  0
APPID
  2
ACADANNOMONITORALERTICONDI
 70
     0
  0
APPID
  2
GENIUS_GENDIMSH_14
 70
     0
  0
APPID
  2
ACDBATTR
 70
     0
  0
ENDTAB
  0
TABLE
  2
DIMSTYLE
 70
     2
  0
DIMSTYLE
  2
STANDARD
 70
     0
  3

  4

  5

  6

  7

 40
1.0
 41
0.18
 42
0.0625
 43
0.38
 44
0.18
 45
0.0
 46
0.0
 47
0.0
 48
0.0
140
0.18
141
0.09
142
0.0
143
25.3999999999999986
144
1.0
145
0.0
146
1.0
147
0.09
 71
     0
 72
     0
 73
     1
 74
     1
 75
     0
 76
     0
 77
     0
 78
     0
170
     0
171
     2
172
     0
173
     0
174
     0
175
     0
176
     0
177
     0
178
     0
  0
ENDTAB
  0
ENDSEC
  0
SECTION
  2
BLOCKS
  0
BLOCK
  8
0
  2
$MODEL_SPACE
 70
     0
 10
0.0
 20
0.0
 30
0.0
  3
$MODEL_SPACE
  1

  0
ENDBLK
  5
36
  8
0
  0
BLOCK
 67
     1
  8
0
  2
$PAPER_SPACE
 70
     0
 10
0.0
 20
0.0
 30
0.0
  3
$PAPER_SPACE
  1

  0
ENDBLK
  5
34
 67
     1
  8
0
  0
BLOCK
  8
0
  2
*S0
 70
     1
 10
0.0
 20
0.0
 30
0.0
  3
*S0
  1

  0
ENDBLK
  5
FA2
  8
0
  0
BLOCK
  8
0
  2
A$C484E509C
 70
     0
 10
0.0
 20
0.0
 30
0.0
  3
A$C484E509C
  1

  0
CIRCLE
  5
34A8
  8
0
  6
CONTINUOUS
 62
     3
 10
0.0
 20
0.0
 30
0.0
 40
42.0251133647404913
  0
CIRCLE
  5
34A9
  8
0
  6
CONTINUOUS
 62
     3
 10
-0.0000000000000624
 20
0.0
 30
0.0
 40
45.9999999999997797
  0
CIRCLE
  5
34AA
  8
0
  6
CONTINUOUS
 62
     3
 10
-0.0000000000000624
 20
0.0
 30
0.0
 40
47.7654046703397697
  0
CIRCLE
  5
34AB
  8
0
  6
CONTINUOUS
 62
     3
 10
-0.0000000000000652
 20
0.0
 30
0.0
 40
51.0999999999997883
  0
CIRCLE
  5
34AC
  8
0
  6
CONTINUOUS
 62
     3
 10
-0.0000000000000769
 20
0.0
 30
0.0
 40
42.8999999999997286
  0
CIRCLE
  5
34AD
  8
0
  6
CONTINUOUS
 62
     3
 10
-0.0000000000000659
 20
0.0
 30
0.0
 40
51.5
  0
CIRCLE
  5
34AE
  8
0
  6
CONTINUOUS
 62
     3
 10
-0.0000000000000659
 20
0.0
 30
0.0
 40
63.5
  0
CIRCLE
  5
34AF
  8
0
  6
VERDECKT
 62
     1
 10
0.0
 20
0.0
 30
0.0
 40
43.6312251048096869
  0
CIRCLE
  5
34B0
  8
0
  6
VERDECKT
 62
     1
 10
-0.0000000000000652
 20
0.0
 30
0.0
 40
49.4999999999997726
  0
CIRCLE
  5
34B1
  8
0
  6
VERDECKT
 62
     1
 10
-0.0000000000000702
 20
0.0
 30
0.0
 40
47.5999999999997883
  0
CIRCLE
  5
34B2
  8
0
  6
VERDECKT
 62
     1
 10
-0.0000000000000769
 20
0.0
 30
0.0
 40
44.4999999999997584
  0
CIRCLE
  5
34B3
  8
0
  6
VERDECKT
 62
     1
 10
-0.0000000000000704
 20
0.0
 30
0.0
 40
51.0
  0
ENDBLK
  5
34B5
  8
0
  0
BLOCK
  8
0
  2
A$C3C6F18BD
 70
     0
 10
0.0
 20
0.0
 30
0.0
  3
A$C3C6F18BD
  1

  0
LINE
  5
34B9
  8
0
  6
CONTINUOUS
 62
     3
 10
-43.6312251048096797
 20
-0.0000000000000284
 30
0.0
 11
43.6312251048096797
 21
0.0000000000000284
 31
0.0
210
0.0
220
1.0
230
-0.0000000000000002
  0
LINE
  5
34BA
  8
0
  6
CONTINUOUS
 62
     3
 10
-47.7654046703398691
 20
231.0
 30
-0.0000000000000513
 11
47.7654046703396418
 21
231.0
 31
-0.0000000000000513
210
0.0
220
1.0
230
-0.0000000000000002
  0
LINE
  5
34BB
  8
0
  6
CONTINUOUS
 62
     3
 10
-43.6312251048096869
 20
-0.0000000000000151
 30
0.0
 11
-44.4999999999996589
 21
9.9301424913467589
 31
-0.0000000000000022
210
0.0
220
1.0
230
-0.0000000000000002
  0
LINE
  5
34BC
  8
0
  6
CONTINUOUS
 62
     3
 10
43.6312251048096869
 20
0.0
 30
0.0
 11
44.4999999999996589
 21
9.9301424913467731
 31
-0.0000000000000022
210
0.0
220
1.0
230
-0.0000000000000002
  0
LINE
  5
34BD
  8
0
  6
CONTINUOUS
 62
     3
 10
47.7654046703396986
 20
231.0000000000001137
 30
-0.0000000000000513
 11
48.7951715611017676
 21
228.7916577762489965
 31
-0.0000000000000508
210
0.0
220
1.0
230
-0.0000000000000002
  0
LINE
  5
34BE
  8
0
  6
CONTINUOUS
 62
     3
 10
-47.7654046703399189
 20
231.0
 30
-0.0000000000000513
 11
-48.7951715611019878
 21
228.7916577762489965
 31
-0.0000000000000508
210
0.0
220
1.0
230
-0.0000000000000002
  0
ARC
  5
34BF
  8
0
  6
CONTINUOUS
 62
     3
 10
26.5000000000015312
 20
218.3952485374290973
 30
0.0
 40
24.5999999999983814
210
0.0
220
-0.0000000000000002
230
-1.0
 50
0.0
 51
24.9999999999987992
  0
ARC
  5
34C0
  8
0
  6
CONTINUOUS
 62
     3
 10
-26.5000000000012896
 20
218.3952485374290973
 30
0.0
 40
24.5999999999983885
210
0.0
220
-0.0000000000000002
230
-1.0
 50
155.0000000000015916
 51
180.0000000000003126
  0
LINE
  5
34C1
  8
0
  6
CONTINUOUS
 62
     3
 10
51.0999999999996817
 20
218.3952485374288983
 30
-0.0000000000000485
 11
51.0999999999996817
 21
215.0000000000001137
 31
-0.0000000000000477
210
0.0
220
1.0
230
-0.0000000000000002
  0
LINE
  5
34C2
  8
0
  6
CONTINUOUS
 62
     3
 10
-51.0999999999999091
 20
218.3952485374288983
 30
-0.0000000000000485
 11
-51.0999999999999091
 21
215.0000000000001137
 31
-0.0000000000000477
210
0.0
220
1.0
230
-0.0000000000000002
  0
LINE
  5
34C3
  8
0
  6
CONTINUOUS
 62
     3
 10
44.4999999999996234
 20
115.0
 30
-0.0000000000000255
 11
44.4999999999996589
 21
9.9301424913467731
 31
-0.0000000000000022
210
0.0
220
1.0
230
-0.0000000000000002
  0
LINE
  5
34C4
  8
0
  6
CONTINUOUS
 62
     3
 10
-44.4999999999996874
 20
115.0
 30
-0.0000000000000255
 11
-44.4999999999996518
 21
9.9301424913467589
 31
-0.0000000000000022
210
0.0
220
1.0
230
-0.0000000000000002
  0
LINE
  5
34C5
  8
0
  6
CONTINUOUS
 62
     3
 10
-63.5000000000001208
 20
215.0000000000001137
 30
-0.0000000000000477
 11
63.4999999999998792
 21
215.0000000000001137
 31
-0.0000000000000477
210
0.0
220
1.0
230
-0.0000000000000002
  0
LINE
  5
34C6
  8
0
  6
CONTINUOUS
 62
     3
 10
-63.5000000000001208
 20
115.0
 30
-0.0000000000000255
 11
63.4999999999998792
 21
115.0
 31
-0.0000000000000255
210
0.0
220
1.0
230
-0.0000000000000002
  0
LINE
  5
34C7
  8
0
  6
CONTINUOUS
 62
     3
 10
63.4999999999998792
 20
215.0000000000001137
 30
-0.0000000000000477
 11
63.4999999999998792
 21
115.0
 31
-0.0000000000000255
210
0.0
220
1.0
230
-0.0000000000000002
  0
LINE
  5
34C8
  8
0
  6
CONTINUOUS
 62
     3
 10
-63.5000000000001208
 20
215.0000000000001137
 30
-0.0000000000000477
 11
-63.5000000000001208
 21
115.0
 31
-0.0000000000000255
210
0.0
220
1.0
230
-0.0000000000000002
  0
ARC
  5
34C9
  8
0
  6
VERDECKT
 62
     1
 10
32.9000000000041268
 20
10.4366094290855695
 30
0.0
 40
9.9999999999956248
210
0.0
220
-0.0000000000000002
230
-1.0
 50
354.9999999999988063
 51
0.0000000000010051
  0
ARC
  5
34CA
  8
0
  6
VERDECKT
 62
     1
 10
-32.8999999999957069
 20
10.4366094290859408
 30
0.0
 40
10.0000000000040394
210
0.0
220
-0.0000000000000002
230
-1.0
 50
180.0000000000007958
 51
184.9999999999990905
  0
LINE
  5
34CB
  8
0
  6
VERDECKT
 62
     1
 10
-42.0251133647404274
 20
-0.0000000000000089
 30
0.0
 11
-42.8619469809172031
 21
9.5650520016091622
 31
-0.0000000000000021
210
0.0
220
1.0
230
-0.0000000000000002
  0
LINE
  5
34CC
  8
0
  6
VERDECKT
 62
     1
 10
42.0251133647404274
 20
0.0000000000000053
 30
0.0
 11
42.8619469809172031
 21
9.5650520016091622
 31
-0.0000000000000021
210
0.0
220
1.0
230
-0.0000000000000002
  0
ARC
  5
34CD
  8
0
  6
VERDECKT
 62
     1
 10
26.4999999999966889
 20
218.3952485374283867
 30
0.0
 40
23.000000000003201
210
0.0
220
-0.0000000000000002
230
-1.0
 50
0.0000000000012086
 51
24.9999999999945217
  0
ARC
  5
34CE
  8
0
  6
VERDECKT
 62
     1
 10
-26.4999999999964402
 20
218.3952485374283867
 30
0.0
 40
23.0000000000032294
210
0.0
220
-0.0000000000000002
230
-1.0
 50
155.0000000000054001
 51
179.9999999999986073
  0
LINE
  5
34CF
  8
0
  6
VERDECKT
 62
     1
 10
45.9999999999996732
 20
231.0
 30
-0.0000000000000513
 11
47.3450791018432398
 21
228.1154685574639132
 31
-0.0000000000000507
210
0.0
220
1.0
230
-0.0000000000000002
  0
LINE
  5
34D0
  8
0
  6
VERDECKT
 62
     1
 10
-45.9999999999998792
 20
231.0
 30
-0.0000000000000513
 11
-47.3450791018434529
 21
228.1154685574639132
 31
-0.0000000000000507
210
0.0
220
1.0
230
-0.0000000000000002
  0
LINE
  5
34D1
  8
0
  6
VERDECKT
 62
     1
 10
51.0999999999996817
 20
215.0000000000001137
 30
-0.0000000000000477
 11
51.0999999999996817
 21
211.2998649610192103
 31
-0.0000000000000469
210
0.0
220
1.0
230
-0.0000000000000002
  0
LINE
  5
34D2
  8
0
  6
VERDECKT
 62
     1
 10
-51.0999999999999091
 20
215.0000000000001137
 30
-0.0000000000000477
 11
-51.0999999999999091
 21
211.2998649610192103
 31
-0.0000000000000469
210
0.0
220
1.0
230
-0.0000000000000002
  0
ARC
  5
34D3
  8
0
  6
VERDECKT
 62
     1
 10
26.1019784290770502
 20
211.367922387956213
 30
0.0
 40
24.9981142143499611
210
0.0
220
-0.0000000000000002
230
-1.0
 50
334.8764766535915101
 51
359.8440119077915824
  0
ARC
  5
34D4
  8
0
  6
VERDECKT
 62
     1
 10
-26.1019784290765386
 20
211.3679223879562983
 30
0.0
 40
24.9981142143502311
210
0.0
220
-0.0000000000000002
230
-1.0
 50
180.1559880922083892
 51
205.1235233464082057
  0
ARC
  5
34D5
  8
0
  6
VERDECKT
 62
     1
 10
59.5999999999997812
 20
195.6598669368048036
 30
0.0
 40
11.9999999999998703
210
0.0
220
-0.0000000000000002
230
-1.0
 50
154.8779398133683003
 51
180.0000000000005116
  0
ARC
  5
34D6
  8
0
  6
VERDECKT
 62
     1
 10
-59.5999999999992909
 20
195.6598669368050025
 30
0.0
 40
11.9999999999996092
210
0.0
220
-0.0000000000000002
230
-1.0
 50
359.9999999999989768
 51
25.1220601866318312
  0
LINE
  5
34D7
  8
0
  6
VERDECKT
 62
     1
 10
47.5999999999996817
 20
195.6598669368048036
 30
-0.0000000000000434
 11
47.5999999999996817
 21
176.38872641741699
 31
-0.0000000000000392
210
0.0
220
1.0
230
-0.0000000000000002
  0
LINE
  5
34D8
  8
0
  6
VERDECKT
 62
     1
 10
-47.5999999999999019
 20
195.6598669368046899
 30
-0.0000000000000434
 11
-47.5999999999999019
 21
176.38872641741699
 31
-0.0000000000000392
210
0.0
220
1.0
230
-0.0000000000000002
  0
ARC
  5
34D9
  8
0
  6
VERDECKT
 62
     1
 10
35.5999999999996319
 20
176.3887264174171889
 30
0.0
 40
12.0000000000002593
210
0.0
220
-0.0000000000000002
230
-1.0
 50
327.6719358778378819
 51
359.9999999999989768
  0
ARC
  5
34DA
  8
0
  6
VERDECKT
 62
     1
 10
-35.5999999999994117
 20
176.3887264174171889
 30
0.0
 40
12.0000000000002505
210
0.0
220
-0.0000000000000002
230
-1.0
 50
180.0000000000007105
 51
212.3280641221620044
  0
ARC
  5
34DB
  8
0
  6
VERDECKT
 62
     1
 10
52.4999999999998366
 20
165.6934003354315053
 30
0.0
 40
7.9999999999999734
210
0.0
220
-0.0000000000000002
230
-1.0
 50
147.6719358778377114
 51
180.0000000000013074
  0
ARC
  5
34DC
  8
0
  6
VERDECKT
 62
     1
 10
-52.4999999999995666
 20
165.6934003354315905
 30
0.0
 40
7.9999999999999281
210
0.0
220
-0.0000000000000002
230
-1.0
 50
359.999999999998181
 51
32.3280641221622673
  0
ARC
  5
34DD
  8
0
  6
VERDECKT
 62
     1
 10
52.5000000000012434
 20
165.6934003354309084
 30
0.0
 40
9.6000000000013941
210
0.0
220
-0.0000000000000002
230
-1.0
 50
147.6719358778406956
 51
179.9999999999976126
  0
ARC
  5
34DE
  8
0
  6
VERDECKT
 62
     1
 10
-52.5000000000009877
 20
165.6934003354309937
 30
0.0
 40
9.6000000000013728
210
0.0
220
-0.0000000000000002
230
-1.0
 50
0.0000000000022137
 51
32.3280641221591125
  0
ARC
  5
34DF
  8
0
  6
VERDECKT
 62
     1
 10
35.5999999999984169
 20
176.3887264174177858
 30
0.0
 40
10.4000000000016808
210
0.0
220
-0.0000000000000002
230
-1.0
 50
327.6719358778373135
 51
359.999999999995282
  0
ARC
  5
34E0
  8
0
  6
VERDECKT
 62
     1
 10
-35.5999999999981966
 20
176.3887264174177858
 30
0.0
 40
10.4000000000016701
210
0.0
220
-0.0000000000000002
230
-1.0
 50
180.0000000000044906
 51
212.3280641221626013
  0
LINE
  5
34E1
  8
0
  6
VERDECKT
 62
     1
 10
45.9999999999997726
 20
195.6598669368048036
 30
-0.0000000000000434
 11
45.9999999999997726
 21
176.3887264174169047
 31
-0.0000000000000392
210
0.0
220
1.0
230
-0.0000000000000002
  0
LINE
  5
34E2
  8
0
  6
VERDECKT
 62
     1
 10
-46.0
 20
195.6598669368046899
 30
-0.0000000000000434
 11
-46.0
 21
176.3887264174169047
 31
-0.0000000000000392
210
0.0
220
1.0
230
-0.0000000000000002
  0
ARC
  5
34E3
  8
0
  6
VERDECKT
 62
     1
 10
59.6000000000016712
 20
195.659866936804093
 30
0.0
 40
13.6000000000018009
210
0.0
220
-0.0000000000000002
230
-1.0
 50
154.8779398133692951
 51
179.9999999999974136
  0
ARC
  5
34E4
  8
0
  6
VERDECKT
 62
     1
 10
-59.6000000000010033
 20
195.659866936804292
 30
0.0
 40
13.6000000000013497
210
0.0
220
-0.0000000000000002
230
-1.0
 50
0.0000000000019211
 51
25.1220601866307902
  0
ARC
  5
34E5
  8
0
  6
VERDECKT
 62
     1
 10
26.1018503616318007
 20
211.3679661431901877
 30
0.0
 40
23.398248743666219
210
0.0
220
-0.0000000000000002
230
-1.0
 50
334.8764127392004184
 51
359.8332389799771818
  0
ARC
  5
34E6
  8
0
  6
VERDECKT
 62
     1
 10
-26.1018503616316302
 20
211.3679661431901877
 30
0.0
 40
23.3982487436661586
210
0.0
220
-0.0000000000000002
230
-1.0
 50
180.1667610200225056
 51
205.1235872607994963
  0
LINE
  5
34E7
  8
0
  6
VERDECKT
 62
     1
 10
49.4999999999996589
 20
218.3952485374288983
 30
-0.0000000000000485
 11
49.4999999999996589
 21
211.2998649610188977
 31
-0.0000000000000469
210
0.0
220
1.0
230
-0.0000000000000002
  0
LINE
  5
34E8
  8
0
  6
VERDECKT
 62
     1
 10
-49.4999999999998792
 20
218.3952485374288983
 30
-0.0000000000000485
 11
-49.4999999999998792
 21
211.2998649610188977
 31
-0.0000000000000469
210
0.0
220
1.0
230
-0.0000000000000002
  0
LINE
  5
34E9
  8
0
  6
VERDECKT
 62
     1
 10
42.8999999999997002
 20
165.6934003354313916
 30
-0.0000000000000368
 11
42.899999999999757
 21
10.4366094290857898
 31
-0.0000000000000023
210
0.0
220
1.0
230
-0.0000000000000002
  0
LINE
  5
34EA
  8
0
  6
VERDECKT
 62
     1
 10
-42.8999999999997925
 20
165.6934003354313063
 30
-0.0000000000000368
 11
-42.8999999999997428
 21
10.4366094290857294
 31
-0.0000000000000023
210
0.0
220
1.0
230
-0.0000000000000002
  0
LINE
  5
34EB
  8
0
  6
VERDECKT
 62
     1
 10
44.4999999999996092
 20
165.6934003354313916
 30
-0.0000000000000368
 11
44.4999999999996234
 21
115.0
 31
-0.0000000000000255
210
0.0
220
1.0
230
-0.0000000000000002
  0
LINE
  5
34EC
  8
0
  6
VERDECKT
 62
     1
 10
-44.4999999999996874
 20
165.6934003354313063
 30
-0.0000000000000368
 11
-44.4999999999996874
 21
115.0
 31
-0.0000000000000255
210
0.0
220
1.0
230
-0.0000000000000002
  0
LINE
  5
34ED
  8
0
  6
VERDECKT
 62
     1
 10
51.4999999999998721
 20
195.0000000000001137
 30
-0.0000000000000433
 11
-51.5000000000001066
 21
195.0000000000001137
 31
-0.0000000000000433
210
0.0
220
1.0
230
-0.0000000000000002
  0
LINE
  5
34EE
  8
0
  6
VERDECKT
 62
     1
 10
-51.5000000000001066
 20
195.0000000000001137
 30
-0.0000000000000433
 11
-51.5000000000001066
 21
215.0000000000001137
 31
-0.0000000000000477
210
0.0
220
1.0
230
-0.0000000000000002
  0
LINE
  5
34EF
  8
0
  6
VERDECKT
 62
     1
 10
51.4999999999998792
 20
195.0000000000001137
 30
-0.0000000000000433
 11
51.4999999999998792
 21
215.0000000000001137
 31
-0.0000000000000477
210
0.0
220
1.0
230
-0.0000000000000002
  0
LINE
  5
34F0
  8
0
  6
VERDECKT
 62
     1
 10
50.9999999999998792
 20
195.0000000000001137
 30
-0.0000000000000433
 11
50.9999999999998792
 21
115.0
 31
-0.0000000000000255
210
0.0
220
1.0
230
-0.0000000000000002
  0
LINE
  5
34F1
  8
0
  6
VERDECKT
 62
     1
 10
-51.0000000000001208
 20
195.0000000000001137
 30
-0.0000000000000433
 11
-51.0000000000001208
 21
115.0
 31
-0.0000000000000255
210
0.0
220
1.0
230
-0.0000000000000002
  0
ENDBLK
  5
34F3
  8
0
  0
ENDSEC
  0
SECTION
  2
ENTITIES
  0
TEXT
  5
8F
  8
VOLL
 10
78.076754716981128
 20
31.025947764705851
 30
0.0
 40
1.8
  1

  7
GREEKS
  0
INSERT
  5
FA4
  8
ADSK_ASSOC_ENTITY_BACKUPS
  2
*S0
 10
0.0
 20
0.0
 30
0.0
  0
INSERT
  5
34B6
  8
STEMPEL
  2
A$C484E509C
 10
0.0000000000000621
 20
-163.5
 30
0.0
  0
INSERT
  5
34F4
  8
STEMPEL
  2
A$C3C6F18BD
 10
0.0
 20
0.0
 30
0.0
  0
VIEWPORT
  5
702
 67
     1
  8
0
 10
99.9595808982848837
 20
142.0247198271484024
 30
0.0
 40
557.5441164704363928
 41
298.4396363082536254
 68
     1
 69
     1
1001
ACAD
1000
MVIEW
1002
{
1070
    16
1010
0.0
1020
0.0
1030
0.0
1010
0.0
1020
0.0
1030
1.0
1040
0.0
1040
298.4396363082536254
1040
99.9595808982848837
1040
142.0247198271484024
1040
50.0
1040
0.0
1040
0.0
1070
     0
1070
  1500
1070
     1
1070
     1
1070
     0
1070
     0
1070
     0
1070
     0
1040
0.0
1040
0.0
1040
0.0
1040
10.0
1040
10.0
1040
10.0
1040
10.0
1070
     0
1002
{
1002
}
1002
}
1001
GENIUS_GENOBJ-N-SDF_13
1002
{
1000
OWNER
1000
GEN
1002
}
1001
GENIUS_GENODEF_13
1002
{
1000
HIER
1070
     0
1002
}
1002
{
1000
MANEDIT
1070
     0
1002
}
1002
{
1000
NOSEL
1070
     0
1002
}
1002
{
1000
BEHIND
1070
     0
1002
}
1002
{
1000
OTHER
1070
     0
1002
}
1002
{
1000
REACTOR
1002
}
1001
GENIUS_GENSCREG_15
1000
PF
1040
1.0
1000
DF
1040
1.0
1000
MIN
1011
-165.0882402916159037
1021
0.0
1031
0.0
1021
40.0362991660224381
1031
0.0
1000
MAX
1011
370.412216039028408
1021
0.0
1031
0.0
1021
275.6440174233862876
1031
0.0
1000
FLAGS
1070
     4
  0
ENDSEC
  0
EOF
