  0
SECTION
  2
HEADER
  9
$ACADVER
  1
AC1009
  9
$INSBASE
 10
0.0
 20
0.0
 30
0.0
  9
$EXTMIN
 10
-35.0138844386835899
 20
-170.0119463245056863
 30
-0.005584290723391
  9
$EXTMAX
 10
35.003739014505193
 20
183.042328866946491
 30
0.0083772882450148
  9
$LIMMIN
 10
0.0
 20
0.0
  9
$LIMMAX
 10
419.9999999999998863
 20
594.0
  9
$ORTHOMODE
 70
     1
  9
$REGENMODE
 70
     1
  9
$FILLMODE
 70
     1
  9
$QTEXTMODE
 70
     0
  9
$MIRRTEXT
 70
     1
  9
$DRAGMODE
 70
     2
  9
$LTSCALE
 40
20.0
  9
$OSMODE
 70
  2559
  9
$ATTMODE
 70
     1
  9
$TEXTSIZE
 40
3.5
  9
$TRACEWID
 40
0.5
  9
$TEXTSTYLE
  7
STANDARD
  9
$CLAYER
  8
STEMPEL
  9
$CELTYPE
  6
BYLAYER
  9
$CECOLOR
 62
   256
  9
$DIMSCALE
 40
1.0
  9
$DIMASZ
 40
3.5
  9
$DIMEXO
 40
1.0
  9
$DIMDLI
 40
7.0
  9
$DIMRND
 40
0.0
  9
$DIMDLE
 40
0.0
  9
$DIMEXE
 40
1.0
  9
$DIMTP
 40
0.0
  9
$DIMTM
 40
0.0
  9
$DIMTXT
 40
3.5
  9
$DIMCEN
 40
1.5
  9
$DIMTSZ
 40
0.0
  9
$DIMTOL
 70
     0
  9
$DIMLIM
 70
     0
  9
$DIMTIH
 70
     0
  9
$DIMTOH
 70
     0
  9
$DIMSE1
 70
     0
  9
$DIMSE2
 70
     0
  9
$DIMTAD
 70
     1
  9
$DIMZIN
 70
     8
  9
$DIMBLK
  1

  9
$DIMASO
 70
     1
  9
$DIMSHO
 70
     0
  9
$DIMPOST
  1

  9
$DIMAPOST
  1

  9
$DIMALT
 70
     0
  9
$DIMALTD
 70
     2
  9
$DIMALTF
 40
25.3999999999999986
  9
$DIMLFAC
 40
1.0
  9
$DIMTOFL
 70
     1
  9
$DIMTVP
 40
0.0
  9
$DIMTIX
 70
     0
  9
$DIMSOXD
 70
     0
  9
$DIMSAH
 70
     0
  9
$DIMBLK1
  1

  9
$DIMBLK2
  1

  9
$DIMSTYLE
  2
STANDARD
  9
$DIMCLRD
 70
     0
  9
$DIMCLRE
 70
     0
  9
$DIMCLRT
 70
     1
  9
$DIMTFAC
 40
0.5142857142857143
  9
$DIMGAP
 40
1.5
  9
$LUNITS
 70
     2
  9
$LUPREC
 70
     2
  9
$SKETCHINC
 40
1.0
  9
$FILLETRAD
 40
10.0
  9
$AUNITS
 70
     0
  9
$AUPREC
 70
     0
  9
$MENU
  1
ACAD
  9
$ELEVATION
 40
0.0
  9
$PELEVATION
 40
0.0
  9
$THICKNESS
 40
0.0
  9
$LIMCHECK
 70
     0
  9
$BLIPMODE
 70
     0
  9
$CHAMFERA
 40
0.0
  9
$CHAMFERB
 40
0.0
  9
$SKPOLY
 70
     0
  9
$TDCREATE
 40
2455397.8646990740671754
  9
$TDUPDATE
 40
2458380.6346990740858018
  9
$TDINDWG
 40
0.3901582755
  9
$TDUSRTIMER
 40
0.3901582755
  9
$USRTIMER
 70
     1
  9
$ANGBASE
 50
0.0
  9
$ANGDIR
 70
     0
  9
$PDMODE
 70
     0
  9
$PDSIZE
 40
0.0
  9
$PLINEWID
 40
0.0
  9
$COORDS
 70
     1
  9
$SPLFRAME
 70
     0
  9
$SPLINETYPE
 70
     6
  9
$SPLINESEGS
 70
     8
  9
$ATTDIA
 70
     1
  9
$ATTREQ
 70
     1
  9
$HANDLING
 70
     1
  9
$HANDSEED
  5
314F
  9
$SURFTAB1
 70
     6
  9
$SURFTAB2
 70
     6
  9
$SURFTYPE
 70
     6
  9
$SURFU
 70
     6
  9
$SURFV
 70
     6
  9
$UCSNAME
  2

  9
$UCSORG
 10
0.0
 20
0.0
 30
0.0
  9
$UCSXDIR
 10
1.0
 20
0.0
 30
0.0
  9
$UCSYDIR
 10
0.0
 20
1.0
 30
0.0
  9
$PUCSNAME
  2

  9
$PUCSORG
 10
0.0
 20
0.0
 30
0.0
  9
$PUCSXDIR
 10
1.0
 20
0.0
 30
0.0
  9
$PUCSYDIR
 10
0.0
 20
1.0
 30
0.0
  9
$USERI1
 70
     0
  9
$USERI2
 70
     0
  9
$USERI3
 70
     0
  9
$USERI4
 70
     0
  9
$USERI5
 70
     0
  9
$USERR1
 40
0.0
  9
$USERR2
 40
0.0
  9
$USERR3
 40
0.0
  9
$USERR4
 40
0.0
  9
$USERR5
 40
0.0
  9
$WORLDVIEW
 70
     1
  9
$SHADEDGE
 70
     3
  9
$SHADEDIF
 70
    70
  9
$TILEMODE
 70
     1
  9
$MAXACTVP
 70
    16
  9
$PLIMCHECK
 70
     0
  9
$PEXTMIN
 10
1.0000000000000000E+20
 20
1.0000000000000000E+20
 30
1.0000000000000000E+20
  9
$PEXTMAX
 10
-1.0000000000000000E+20
 20
-1.0000000000000000E+20
 30
-1.0000000000000000E+20
  9
$PLIMMIN
 10
-5.027082920074462
 20
-6.4382776093749987
  9
$PLIMMAX
 10
204.9462447166442871
 20
290.4877172636719251
  9
$UNITMODE
 70
     0
  9
$VISRETAIN
 70
     0
  9
$PLINEGEN
 70
     0
  9
$PSLTSCALE
 70
     0
  0
ENDSEC
  0
SECTION
  2
TABLES
  0
TABLE
  2
VPORT
 70
     1
  0
VPORT
  2
*ACTIVE
 70
     0
 10
0.0
 20
0.0
 11
1.0
 21
1.0
 12
-0.0050727120892589
 22
-67.4931095100296261
 13
0.0
 23
0.0
 14
1.0
 24
1.0
 15
10.0
 25
10.0
 16
-0.0000000000001307
 26
0.0
 36
588.7816760836930143
 17
0.0
 27
74.00830078125
 37
-0.0000000000000203
 40
354.8540420998198783
 41
1.868197278911564
 42
50.0
 43
0.0
 44
0.0
 50
0.0
 51
0.0
 71
     0
 72
  1500
 73
     1
 74
     0
 75
     0
 76
     0
 77
     0
 78
     0
  0
ENDTAB
  0
TABLE
  2
LTYPE
 70
     7
  0
LTYPE
  2
CONTINUOUS
 70
     0
  3
Solid line
 72
    65
 73
     0
 40
0.0
  0
LTYPE
  2
PHANTOM2
 70
     0
  3
Phantom (.5x) ___ _ _ ___ _ _ ___ _ _ ___ _ _
 72
    65
 73
     6
 40
1.25
 49
0.625
 49
-0.125
 49
0.125
 49
-0.125
 49
0.125
 49
-0.125
  0
LTYPE
  2
AUSGEZOGEN
 70
     0
  3
Ausgezogene Linie
 72
    65
 73
     0
 40
0.0
  0
LTYPE
  2
VERDECKT
 70
     0
  3
_ _ _ _ _ _ _ _ _ _ _ _ _ _ _ _ _ _ _ _ _ _ _
 72
    65
 73
     2
 40
0.375
 49
0.25
 49
-0.125
  0
ENDTAB
  0
TABLE
  2
LAYER
 70
    17
  0
LAYER
  2
0
 70
     0
 62
     7
  6
CONTINUOUS
  0
LAYER
  2
VOLL
 70
     0
 62
     1
  6
CONTINUOUS
  0
LAYER
  2
STEMPEL
 70
     0
 62
     3
  6
CONTINUOUS
  0
LAYER
  2
DEFPOINTS
 70
     0
 62
     7
  6
CONTINUOUS
  0
LAYER
  2
ADSK_ASSOC_ENTITY_BACKUPS
 70
     0
 62
     7
  6
CONTINUOUS
  0
ENDTAB
  0
TABLE
  2
STYLE
 70
     2
  0
STYLE
  2
STANDARD
 70
     0
 40
0.0
 41
0.8
 50
0.0
 71
     0
 42
3.5
  3
simplex.shx
  4

  0
STYLE
  2
GREEKS
 70
     0
 40
0.0
 41
0.8
 50
0.0
 71
     0
 42
2.5
  3
SIMPLEX.shx
  4

  0
ENDTAB
  0
TABLE
  2
VIEW
 70
     2
  0
ENDTAB
  0
TABLE
  2
UCS
 70
     0
  0
ENDTAB
  0
TABLE
  2
APPID
 70
    34
  0
APPID
  2
ACAD
 70
     0
  0
APPID
  2
ACAD_EXEMPT_FROM_CAD_STANDARDS
 70
     0
  0
APPID
  2
ACAD_NAV_VCDISPLAY
 70
     0
  0
APPID
  2
ACAECLAYERSTANDARD
 70
     0
  0
APPID
  2
ACCMTRANSPARENCY
 70
     0
  0
APPID
  2
ACAD_PSEXT
 70
     0
  0
APPID
  2
GRADIENTCOLOR1ACI
 70
     0
  0
APPID
  2
GRADIENTCOLOR2ACI
 70
     0
  0
APPID
  2
ACAD_MLEADERVER
 70
     0
  0
APPID
  2
ACAD_OBJECT_CHANGE_GUID
 70
     0
  0
APPID
  2
MCAD_NO_VIS
 70
     0
  0
APPID
  2
ACAD_TEMP_GRAPHIC
 70
     0
  0
APPID
  2
ACATTRIBSERVICES
 70
     0
  0
APPID
  2
DESIGNERASSEMBLIES
 70
     0
  0
APPID
  2
ACAD_DSTYLE_DIMJAG
 70
     0
  0
APPID
  2
ACAD_DSTYLE_DIMBREAK
 70
     0
  0
APPID
  2
GENIUS_GENSCREG_15
 70
     0
  0
APPID
  2
GENIUS_GENOBJ-N-SDF_13
 70
     0
  0
APPID
  2
GENIUS_GENODEF_13
 70
     0
  0
APPID
  2
RAK
 70
     0
  0
APPID
  2
ACAUTHENVIRON
 70
     0
  0
APPID
  2
ACDBDYNAMICBLOCKTRUENAME
 70
     0
  0
APPID
  2
ACDBDYNAMICBLOCKGUID
 70
     0
  0
APPID
  2
ACSYNERGY
 70
     0
  0
APPID
  2
SYNERGY_BODY_TBR_ID
 70
     0
  0
APPID
  2
ACAD_VIEW_EDGE_ID
 70
     0
  0
APPID
  2
ACSYNERGYSKETCH
 70
     0
  0
APPID
  2
ACAD_STEPID
 70
     0
  0
APPID
  2
ACAD_MODELDOC_XFORM
 70
     0
  0
APPID
  2
GENIUS_GENDTOL_13
 70
     0
  0
APPID
  2
ACAD_DSTYLE_DIMINSPECT
 70
     0
  0
APPID
  2
ACADANNOMONITORALERTICONDI
 70
     0
  0
APPID
  2
GENIUS_GENDIMSH_14
 70
     0
  0
APPID
  2
ACDBATTR
 70
     0
  0
ENDTAB
  0
TABLE
  2
DIMSTYLE
 70
     2
  0
DIMSTYLE
  2
STANDARD
 70
     0
  3

  4

  5

  6

  7

 40
1.0
 41
0.18
 42
0.0625
 43
0.38
 44
0.18
 45
0.0
 46
0.0
 47
0.0
 48
0.0
140
0.18
141
0.09
142
0.0
143
25.3999999999999986
144
1.0
145
0.0
146
1.0
147
0.09
 71
     0
 72
     0
 73
     1
 74
     1
 75
     0
 76
     0
 77
     0
 78
     0
170
     0
171
     2
172
     0
173
     0
174
     0
175
     0
176
     0
177
     0
178
     0
  0
ENDTAB
  0
ENDSEC
  0
SECTION
  2
BLOCKS
  0
BLOCK
  8
0
  2
$MODEL_SPACE
 70
     0
 10
0.0
 20
0.0
 30
0.0
  3
$MODEL_SPACE
  1

  0
ENDBLK
  5
36
  8
0
  0
BLOCK
 67
     1
  8
0
  2
$PAPER_SPACE
 70
     0
 10
0.0
 20
0.0
 30
0.0
  3
$PAPER_SPACE
  1

  0
ENDBLK
  5
34
 67
     1
  8
0
  0
BLOCK
  8
0
  2
*S0
 70
     1
 10
0.0
 20
0.0
 30
0.0
  3
*S0
  1

  0
ENDBLK
  5
FA2
  8
0
  0
BLOCK
  8
0
  2
A$C332300E0
 70
     0
 10
0.0
 20
0.0
 30
0.0
  3
A$C332300E0
  1

  0
LINE
  5
30B7
  8
0
  6
CONTINUOUS
 62
     3
 10
-20.3933091116335916
 20
0.0000000000000045
 30
0.0
 11
20.3933091116335916
 21
-0.0000000000000045
 31
0.0
210
0.0000000000000002
220
1.0
230
-0.0000000000000002
  0
LINE
  5
30B8
  8
0
  6
CONTINUOUS
 62
     3
 10
-24.1476030003185187
 20
183.0
 30
-0.0000000000000406
 11
24.1476030003186004
 21
183.0
 31
-0.0000000000000406
210
0.0000000000000002
220
1.0
230
-0.0000000000000002
  0
LINE
  5
30B9
  8
0
  6
CONTINUOUS
 62
     3
 10
-20.3933091116336414
 20
-0.0000000000000004
 30
0.0
 11
-21.0000000000000604
 21
6.9345085856374462
 31
-0.0000000000000015
210
0.0000000000000002
220
1.0
230
-0.0000000000000002
  0
LINE
  5
30BA
  8
0
  6
CONTINUOUS
 62
     3
 10
20.3933091116336414
 20
-0.0000000000000094
 30
0.0
 11
21.0000000000000604
 21
6.9345085856374373
 31
-0.0000000000000015
210
0.0000000000000002
220
1.0
230
-0.0000000000000002
  0
ARC
  5
30BB
  8
0
  6
CONTINUOUS
 62
     3
 10
9.3424289763832498
 20
176.5293811158539938
 30
0.0
 40
16.1574158398821304
210
0.0
220
-0.0000000000000002
230
-1.0
 50
359.9999999999968736
 51
23.6077903705768115
  0
ARC
  5
30BC
  8
0
  6
CONTINUOUS
 62
     3
 10
-9.3424289763833297
 20
176.5293811158539938
 30
0.0
 40
16.1574158398821304
210
0.0
220
-0.0000000000000002
230
-1.0
 50
156.3922096294232063
 51
180.000000000003098
  0
LINE
  5
30BD
  8
0
  6
CONTINUOUS
 62
     3
 10
25.4998448162653411
 20
176.5293811158531128
 30
-0.0000000000000392
 11
25.4998448162653411
 21
175.0
 31
-0.0000000000000389
210
0.0000000000000002
220
1.0
230
-0.0000000000000002
  0
LINE
  5
30BE
  8
0
  6
CONTINUOUS
 62
     3
 10
-25.4998448162652593
 20
176.5293811158531128
 30
-0.0000000000000392
 11
-25.4998448162652593
 21
175.0
 31
-0.0000000000000389
210
0.0000000000000002
220
1.0
230
-0.0000000000000002
  0
LINE
  5
30BF
  8
0
  6
CONTINUOUS
 62
     3
 10
21.0000000000000213
 20
74.9999999999999574
 30
-0.0000000000000167
 11
21.0
 21
6.9345085856374418
 31
-0.0000000000000015
210
0.0000000000000002
220
1.0
230
-0.0000000000000002
  0
LINE
  5
30C0
  8
0
  6
CONTINUOUS
 62
     3
 10
-20.9999999999999787
 20
74.9999999999999574
 30
-0.0000000000000167
 11
-21.0
 21
6.9345085856374507
 31
-0.0000000000000015
210
0.0000000000000002
220
1.0
230
-0.0000000000000002
  0
LINE
  5
30C1
  8
0
  6
CONTINUOUS
 62
     3
 10
-34.9999999999999574
 20
175.0
 30
-0.0000000000000389
 11
35.0000000000000284
 21
175.0
 31
-0.0000000000000389
210
0.0000000000000002
220
1.0
230
-0.0000000000000002
  0
LINE
  5
30C2
  8
0
  6
CONTINUOUS
 62
     3
 10
-34.9999999999999929
 20
74.9999999999999716
 30
-0.0000000000000167
 11
35.0000000000000213
 21
74.9999999999999432
 31
-0.0000000000000167
210
0.0000000000000002
220
1.0
230
-0.0000000000000002
  0
LINE
  5
30C3
  8
0
  6
CONTINUOUS
 62
     3
 10
35.0000000000000284
 20
175.0
 30
-0.0000000000000389
 11
35.0000000000000213
 21
74.9999999999999432
 31
-0.0000000000000167
210
0.0000000000000002
220
1.0
230
-0.0000000000000002
  0
LINE
  5
30C4
  8
0
  6
CONTINUOUS
 62
     3
 10
-34.9999999999999574
 20
175.0
 30
-0.0000000000000389
 11
-34.9999999999999929
 21
74.9999999999999716
 31
-0.0000000000000167
210
0.0000000000000002
220
1.0
230
-0.0000000000000002
  0
LINE
  5
30C5
  8
0
  6
VERDECKT
 62
     1
 10
-18.8875793553186107
 20
0.0000000000000046
 30
0.0
 11
-19.461946980917471
 21
6.5650520016089349
 31
-0.0000000000000015
210
0.0000000000000002
220
1.0
230
-0.0000000000000002
  0
LINE
  5
30C6
  8
0
  6
VERDECKT
 62
     1
 10
18.8875793553186107
 20
-0.0000000000000037
 30
0.0
 11
19.461946980917471
 21
6.565052001608926
 31
-0.0000000000000015
210
0.0000000000000002
220
1.0
230
-0.0000000000000002
  0
ARC
  5
30C7
  8
0
  6
VERDECKT
 62
     1
 10
9.5000000000003872
 20
7.436609429085359
 30
0.0
 40
9.9999999999996092
210
0.0
220
-0.0000000000000002
230
-1.0
 50
355.0000000000006821
 51
0.0000000000000636
  0
ARC
  5
30C8
  8
0
  6
VERDECKT
 62
     1
 10
-9.5000000000003926
 20
7.4366094290853573
 30
0.0
 40
9.9999999999996092
210
0.0
220
-0.0000000000000002
230
-1.0
 50
179.9999999999998863
 51
184.9999999999992042
  0
ARC
  5
30C9
  8
0
  6
VERDECKT
 62
     1
 10
8.9980081951692572
 20
176.4573624945500967
 30
0.0
 40
15.0019917839242805
210
0.0
220
-0.0000000000000002
230
-1.0
 50
359.9982534496181188
 51
25.8564504416030694
  0
ARC
  5
30CA
  8
0
  6
VERDECKT
 62
     1
 10
-8.9980081951693371
 20
176.4573624945500967
 30
0.0
 40
15.0019917839242805
210
0.0
220
-0.0000000000000002
230
-1.0
 50
154.1435495583968986
 51
180.0017465503819096
  0
LINE
  5
30CB
  8
0
  6
VERDECKT
 62
     1
 10
-23.9998448162652593
 20
171.3669999999997913
 30
-0.0000000000000381
 11
-23.99999997212349
 21
176.456905188013792
 31
-0.0000000000000392
210
0.0000000000000002
220
1.0
230
-0.0000000000000002
  0
LINE
  5
30CC
  8
0
  6
VERDECKT
 62
     1
 10
23.9998448162653411
 20
171.3669999999997913
 30
-0.0000000000000381
 11
23.9999999721235717
 21
176.456905188013792
 31
-0.0000000000000392
210
0.0000000000000002
220
1.0
230
-0.0000000000000002
  0
ARC
  5
30CD
  8
0
  6
VERDECKT
 62
     1
 10
5.5000000000165521
 20
171.3669999999972902
 30
0.0
 40
18.4998448162487001
210
0.0
220
-0.0000000000000002
230
-1.0
 50
341.8060294016079865
 51
0.000000000008015
  0
ARC
  5
30CE
  8
0
  6
VERDECKT
 62
     1
 10
-5.5000000000166294
 20
171.3669999999972902
 30
0.0
 40
18.4998448162487001
210
0.0
220
-0.0000000000000002
230
-1.0
 50
179.9999999999918998
 51
198.1939705983918998
  0
ARC
  5
30CF
  8
0
  6
VERDECKT
 62
     1
 10
33.9999999999979465
 20
161.9999999999996021
 30
0.0
 40
11.4999999999982006
210
0.0
220
-0.0000000000000002
230
-1.0
 50
161.8060294016096066
 51
180.0000000000027001
  0
ARC
  5
30D0
  8
0
  6
VERDECKT
 62
     1
 10
-33.9999999999980176
 20
161.9999999999996021
 30
0.0
 40
11.4999999999982094
210
0.0
220
-0.0000000000000002
230
-1.0
 50
359.9999999999973284
 51
18.1939705983904005
  0
LINE
  5
30D1
  8
0
  6
VERDECKT
 62
     1
 10
22.4999999999999183
 20
161.9999999999990052
 30
-0.000000000000036
 11
22.4999999999999183
 21
157.8218253804963922
 31
-0.000000000000035
210
0.0000000000000002
220
1.0
230
-0.0000000000000002
  0
LINE
  5
30D2
  8
0
  6
VERDECKT
 62
     1
 10
-22.4999999999998508
 20
161.9999999999990052
 30
-0.000000000000036
 11
-22.4999999999998508
 21
157.8218253804963922
 31
-0.000000000000035
210
0.0000000000000002
220
1.0
230
-0.0000000000000002
  0
ARC
  5
30D3
  8
0
  6
VERDECKT
 62
     1
 10
14.0000000000015401
 20
157.821825380495909
 30
0.0
 40
8.4999999999984297
210
0.0
220
-0.0000000000000002
230
-1.0
 50
324.3409123038578059
 51
0.0000000000032696
  0
ARC
  5
30D4
  8
0
  6
VERDECKT
 62
     1
 10
-14.0000000000016094
 20
157.821825380495909
 30
0.0
 40
8.4999999999984261
210
0.0
220
-0.0000000000000002
230
-1.0
 50
179.9999999999967031
 51
215.6590876961421941
  0
ARC
  5
30D5
  8
0
  6
VERDECKT
 62
     1
 10
26.9999999999994884
 20
148.4944463274075872
 30
0.0
 40
7.4999999999996394
210
0.0
220
-0.0000000000000002
230
-1.0
 50
144.3409123038588859
 51
179.999999999999801
  0
ARC
  5
30D6
  8
0
  6
VERDECKT
 62
     1
 10
-26.9999999999995595
 20
148.4944463274075872
 30
0.0
 40
7.4999999999996412
210
0.0
220
-0.0000000000000002
230
-1.0
 50
0.000000000000229
 51
35.6590876961410999
  0
ARC
  5
30D7
  8
0
  6
VERDECKT
 62
     1
 10
26.9999999999993499
 20
148.4944463274077862
 30
0.0
 40
5.9999999999993783
210
0.0
220
-0.0000000000000002
230
-1.0
 50
144.3409123038593975
 51
180.0000000000015916
  0
ARC
  5
30D8
  8
0
  6
VERDECKT
 62
     1
 10
-26.9999999999993499
 20
148.4944463274077862
 30
0.0
 40
5.9999999999993197
210
0.0
220
-0.0000000000000002
230
-1.0
 50
359.9999999999984084
 51
35.659087696140972
  0
ARC
  5
30D9
  8
0
  6
VERDECKT
 62
     1
 10
13.9999999999999307
 20
157.8218253804963922
 30
0.0
 40
10.0000000000000409
210
0.0
220
-0.0000000000000002
230
-1.0
 50
324.340912303861387
 51
359.9999999999997726
  0
ARC
  5
30DA
  8
0
  6
VERDECKT
 62
     1
 10
-13.9999999999999698
 20
157.8218253804963922
 30
0.0
 40
10.0000000000000693
210
0.0
220
-0.0000000000000002
230
-1.0
 50
180.0000000000001137
 51
215.6590876961384993
  0
LINE
  5
30DB
  8
0
  6
VERDECKT
 62
     1
 10
24.0000000000000391
 20
162.0
 30
-0.000000000000036
 11
24.0000000000000391
 21
157.8218253804963922
 31
-0.000000000000035
210
0.0000000000000002
220
1.0
230
-0.0000000000000002
  0
LINE
  5
30DC
  8
0
  6
VERDECKT
 62
     1
 10
-23.9999999999999609
 20
162.0
 30
-0.000000000000036
 11
-23.9999999999999609
 21
157.8218253804963922
 31
-0.000000000000035
210
0.0000000000000002
220
1.0
230
-0.0000000000000002
  0
ARC
  5
30DD
  8
0
  6
VERDECKT
 62
     1
 10
34.0000000000002913
 20
161.9999999999998863
 30
0.0
 40
10.0000000000003197
210
0.0
220
-0.0000000000000002
230
-1.0
 50
161.8060294016160867
 51
179.9999999999996874
  0
ARC
  5
30DE
  8
0
  6
VERDECKT
 62
     1
 10
-34.0000000000003624
 20
161.9999999999998863
 30
0.0
 40
10.0000000000003197
210
0.0
220
-0.0000000000000002
230
-1.0
 50
0.0000000000003435
 51
18.1939705983838813
  0
ARC
  5
30DF
  8
0
  6
VERDECKT
 62
     1
 10
5.4999999999975486
 20
171.3670000000003881
 30
0.0
 40
19.9998448162677107
210
0.0
220
-0.0000000000000002
230
-1.0
 50
341.806029401616513
 51
359.9999999999982947
  0
ARC
  5
30E0
  8
0
  6
VERDECKT
 62
     1
 10
-5.499999999997355
 20
171.3670000000003881
 30
0.0
 40
19.9998448162679807
210
0.0
220
-0.0000000000000002
230
-1.0
 50
180.0000000000017053
 51
198.193970598383288
  0
LINE
  5
30E1
  8
0
  6
VERDECKT
 62
     1
 10
25.4998448162653411
 20
175.0
 30
-0.0000000000000389
 11
25.4998448162653411
 21
171.3669999999997913
 31
-0.0000000000000381
210
0.0000000000000002
220
1.0
230
-0.0000000000000002
  0
LINE
  5
30E2
  8
0
  6
VERDECKT
 62
     1
 10
-25.4998448162652593
 20
175.0
 30
-0.0000000000000389
 11
-25.4998448162652593
 21
171.3669999999997913
 31
-0.0000000000000381
210
0.0000000000000002
220
1.0
230
-0.0000000000000002
  0
LINE
  5
30E3
  8
0
  6
VERDECKT
 62
     1
 10
21.0000000000000284
 20
148.4944463274077009
 30
-0.000000000000033
 11
21.0000000000000213
 21
74.9999999999999574
 31
-0.0000000000000167
210
0.0000000000000002
220
1.0
230
-0.0000000000000002
  0
LINE
  5
30E4
  8
0
  6
VERDECKT
 62
     1
 10
-20.9999999999999716
 20
148.4944463274077009
 30
-0.000000000000033
 11
-20.9999999999999787
 21
74.9999999999999574
 31
-0.0000000000000167
210
0.0000000000000002
220
1.0
230
-0.0000000000000002
  0
LINE
  5
30E5
  8
0
  6
VERDECKT
 62
     1
 10
19.5000000000000284
 20
148.4944463274075872
 30
-0.000000000000033
 11
19.5
 21
7.4366094290853617
 31
-0.0000000000000017
210
0.0000000000000002
220
1.0
230
-0.0000000000000002
  0
LINE
  5
30E6
  8
0
  6
VERDECKT
 62
     1
 10
-19.4999999999999716
 20
148.4944463274075872
 30
-0.000000000000033
 11
-19.5
 21
7.4366094290853706
 31
-0.0000000000000017
210
0.0000000000000002
220
1.0
230
-0.0000000000000002
  0
LINE
  5
30E7
  8
0
  6
VERDECKT
 62
     1
 10
26.200000000000081
 20
175.0
 30
-0.0000000000000389
 11
26.2000000000000597
 21
74.9999999999999574
 31
-0.0000000000000167
210
0.0000000000000002
220
1.0
230
-0.0000000000000002
  0
LINE
  5
30E8
  8
0
  6
VERDECKT
 62
     1
 10
-26.2000000000000099
 20
175.0
 30
-0.0000000000000389
 11
-26.2000000000000313
 21
74.9999999999999574
 31
-0.0000000000000167
210
0.0000000000000002
220
1.0
230
-0.0000000000000002
  0
ENDBLK
  5
30EA
  8
0
  0
BLOCK
  8
0
  2
A$C50032DB7
 70
     0
 10
0.0
 20
0.0
 30
0.0
  3
A$C50032DB7
  1

  0
CIRCLE
  5
30EE
  8
0
  6
CONTINUOUS
 62
     3
 10
0.0
 20
0.0
 30
0.0
 40
18.8875793553186213
  0
CIRCLE
  5
30EF
  8
0
  6
CONTINUOUS
 62
     3
 10
0.0000000000000392
 20
0.0
 30
0.0
 40
25.4998448162654086
  0
CIRCLE
  5
30F0
  8
0
  6
CONTINUOUS
 62
     3
 10
0.0000000000000406
 20
0.0
 30
0.0
 40
24.1476030003185613
  0
CIRCLE
  5
30F1
  8
0
  6
CONTINUOUS
 62
     3
 10
0.0000000000000406
 20
0.0
 30
0.0
 40
22.4981434521662287
  0
CIRCLE
  5
30F2
  8
0
  6
CONTINUOUS
 62
     3
 10
0.000000000000033
 20
0.0
 30
0.0
 40
19.4999999999998792
  0
CIRCLE
  5
30F3
  8
0
  6
CONTINUOUS
 62
     3
 10
0.0000000000000389
 20
0.0
 30
0.0
 40
26.2000000000000384
  0
CIRCLE
  5
30F4
  8
0
  6
CONTINUOUS
 62
     3
 10
0.0000000000000389
 20
0.0
 30
0.0
 40
35.0
  0
CIRCLE
  5
30F5
  8
0
  6
VERDECKT
 62
     1
 10
0.0
 20
0.0
 30
0.0
 40
20.3933091116335916
  0
CIRCLE
  5
30F6
  8
0
  6
VERDECKT
 62
     1
 10
0.000000000000036
 20
0.0
 30
0.0
 40
22.4999999999997691
  0
CIRCLE
  5
30F7
  8
0
  6
VERDECKT
 62
     1
 10
0.000000000000033
 20
0.0
 30
0.0
 40
21.0
  0
CIRCLE
  5
30F8
  8
0
  6
VERDECKT
 62
     1
 10
0.0000000000000392
 20
0.0
 30
0.0
 40
23.9999999790935803
  0
ENDBLK
  5
30FA
  8
0
  0
ENDSEC
  0
SECTION
  2
ENTITIES
  0
TEXT
  5
8F
  8
VOLL
 10
78.076754716981128
 20
31.025947764705851
 30
0.0
 40
1.8
  1

  7
GREEKS
  0
INSERT
  5
FA4
  8
ADSK_ASSOC_ENTITY_BACKUPS
  2
*S0
 10
0.0
 20
0.0
 30
0.0
  0
INSERT
  5
30EB
  8
STEMPEL
  2
A$C332300E0
 10
0.0
 20
0.0
 30
0.0
  0
INSERT
  5
30FB
  8
STEMPEL
  2
A$C50032DB7
 10
-0.0000000000000078
 20
-135.0
 30
0.0
  0
VIEWPORT
  5
702
 67
     1
  8
0
 10
99.9595808982848837
 20
142.0247198271484024
 30
0.0
 40
557.5441164704363928
 41
298.4396363082536254
 68
     1
 69
     1
1001
ACAD
1000
MVIEW
1002
{
1070
    16
1010
0.0
1020
0.0
1030
0.0
1010
0.0
1020
0.0
1030
1.0
1040
0.0
1040
298.4396363082536254
1040
99.9595808982848837
1040
142.0247198271484024
1040
50.0
1040
0.0
1040
0.0
1070
     0
1070
  1500
1070
     1
1070
     1
1070
     0
1070
     0
1070
     0
1070
     0
1040
0.0
1040
0.0
1040
0.0
1040
10.0
1040
10.0
1040
10.0
1040
10.0
1070
     0
1002
{
1002
}
1002
}
1001
GENIUS_GENOBJ-N-SDF_13
1002
{
1000
OWNER
1000
GEN
1002
}
1001
GENIUS_GENODEF_13
1002
{
1000
HIER
1070
     0
1002
}
1002
{
1000
MANEDIT
1070
     0
1002
}
1002
{
1000
NOSEL
1070
     0
1002
}
1002
{
1000
BEHIND
1070
     0
1002
}
1002
{
1000
OTHER
1070
     0
1002
}
1002
{
1000
REACTOR
1002
}
1001
GENIUS_GENSCREG_15
1000
PF
1040
1.0
1000
DF
1040
1.0
1000
MIN
1011
-206.1407637235639925
1021
0.0
1031
0.0
1021
12.0538728087859699
1031
0.0
1000
MAX
1011
481.0550651614959747
1021
0.0
1031
0.0
1021
314.4040189674224735
1031
0.0
1000
FLAGS
1070
     4
  0
ENDSEC
  0
EOF
