  0
SECTION
  2
HEADER
  9
$ACADVER
  1
AC1009
  9
$INSBASE
 10
0.0
 20
0.0
 30
0.0
  9
$EXTMIN
 10
-96.8500000000002501
 20
-293.7000000000002728
 30
-0.0000000000000777
  9
$EXTMAX
 10
96.8500000000001364
 20
350.0
 30
0.0
  9
$LIMMIN
 10
0.0
 20
0.0
  9
$LIMMAX
 10
419.9999999999998863
 20
594.0
  9
$ORTHOMODE
 70
     1
  9
$REGENMODE
 70
     1
  9
$FILLMODE
 70
     1
  9
$QTEXTMODE
 70
     0
  9
$MIRRTEXT
 70
     1
  9
$DRAGMODE
 70
     2
  9
$LTSCALE
 40
20.0
  9
$OSMODE
 70
  2559
  9
$ATTMODE
 70
     1
  9
$TEXTSIZE
 40
3.5
  9
$TRACEWID
 40
0.5
  9
$TEXTSTYLE
  7
STANDARD
  9
$CLAYER
  8
STEMPEL
  9
$CELTYPE
  6
BYLAYER
  9
$CECOLOR
 62
   256
  9
$DIMSCALE
 40
1.0
  9
$DIMASZ
 40
3.5
  9
$DIMEXO
 40
1.0
  9
$DIMDLI
 40
7.0
  9
$DIMRND
 40
0.0
  9
$DIMDLE
 40
0.0
  9
$DIMEXE
 40
1.0
  9
$DIMTP
 40
0.0
  9
$DIMTM
 40
0.0
  9
$DIMTXT
 40
3.5
  9
$DIMCEN
 40
1.5
  9
$DIMTSZ
 40
0.0
  9
$DIMTOL
 70
     0
  9
$DIMLIM
 70
     0
  9
$DIMTIH
 70
     0
  9
$DIMTOH
 70
     0
  9
$DIMSE1
 70
     0
  9
$DIMSE2
 70
     0
  9
$DIMTAD
 70
     1
  9
$DIMZIN
 70
     8
  9
$DIMBLK
  1

  9
$DIMASO
 70
     1
  9
$DIMSHO
 70
     0
  9
$DIMPOST
  1

  9
$DIMAPOST
  1

  9
$DIMALT
 70
     0
  9
$DIMALTD
 70
     2
  9
$DIMALTF
 40
25.3999999999999986
  9
$DIMLFAC
 40
1.0
  9
$DIMTOFL
 70
     1
  9
$DIMTVP
 40
0.0
  9
$DIMTIX
 70
     0
  9
$DIMSOXD
 70
     0
  9
$DIMSAH
 70
     0
  9
$DIMBLK1
  1

  9
$DIMBLK2
  1

  9
$DIMSTYLE
  2
STANDARD
  9
$DIMCLRD
 70
     0
  9
$DIMCLRE
 70
     0
  9
$DIMCLRT
 70
     1
  9
$DIMTFAC
 40
0.5142857142857143
  9
$DIMGAP
 40
1.5
  9
$LUNITS
 70
     2
  9
$LUPREC
 70
     2
  9
$SKETCHINC
 40
1.0
  9
$FILLETRAD
 40
10.0
  9
$AUNITS
 70
     0
  9
$AUPREC
 70
     0
  9
$MENU
  1
ACAD
  9
$ELEVATION
 40
0.0
  9
$PELEVATION
 40
0.0
  9
$THICKNESS
 40
0.0
  9
$LIMCHECK
 70
     0
  9
$BLIPMODE
 70
     0
  9
$CHAMFERA
 40
0.0
  9
$CHAMFERB
 40
0.0
  9
$SKPOLY
 70
     0
  9
$TDCREATE
 40
2455397.8646990740671754
  9
$TDUPDATE
 40
2458380.6287152781151235
  9
$TDINDWG
 40
0.6450674769
  9
$TDUSRTIMER
 40
0.6450674769
  9
$USRTIMER
 70
     1
  9
$ANGBASE
 50
0.0
  9
$ANGDIR
 70
     0
  9
$PDMODE
 70
     0
  9
$PDSIZE
 40
0.0
  9
$PLINEWID
 40
0.0
  9
$COORDS
 70
     1
  9
$SPLFRAME
 70
     0
  9
$SPLINETYPE
 70
     6
  9
$SPLINESEGS
 70
     8
  9
$ATTDIA
 70
     1
  9
$ATTREQ
 70
     1
  9
$HANDLING
 70
     1
  9
$HANDSEED
  5
383C
  9
$SURFTAB1
 70
     6
  9
$SURFTAB2
 70
     6
  9
$SURFTYPE
 70
     6
  9
$SURFU
 70
     6
  9
$SURFV
 70
     6
  9
$UCSNAME
  2

  9
$UCSORG
 10
0.0
 20
0.0
 30
0.0
  9
$UCSXDIR
 10
1.0
 20
0.0
 30
0.0
  9
$UCSYDIR
 10
0.0
 20
1.0
 30
0.0
  9
$PUCSNAME
  2

  9
$PUCSORG
 10
0.0
 20
0.0
 30
0.0
  9
$PUCSXDIR
 10
1.0
 20
0.0
 30
0.0
  9
$PUCSYDIR
 10
0.0
 20
1.0
 30
0.0
  9
$USERI1
 70
     0
  9
$USERI2
 70
     0
  9
$USERI3
 70
     0
  9
$USERI4
 70
     0
  9
$USERI5
 70
     0
  9
$USERR1
 40
0.0
  9
$USERR2
 40
0.0
  9
$USERR3
 40
0.0
  9
$USERR4
 40
0.0
  9
$USERR5
 40
0.0
  9
$WORLDVIEW
 70
     1
  9
$SHADEDGE
 70
     3
  9
$SHADEDIF
 70
    70
  9
$TILEMODE
 70
     1
  9
$MAXACTVP
 70
    16
  9
$PLIMCHECK
 70
     0
  9
$PEXTMIN
 10
1.0000000000000000E+20
 20
1.0000000000000000E+20
 30
1.0000000000000000E+20
  9
$PEXTMAX
 10
-1.0000000000000000E+20
 20
-1.0000000000000000E+20
 30
-1.0000000000000000E+20
  9
$PLIMMIN
 10
-5.027082920074462
 20
-6.4382776093749987
  9
$PLIMMAX
 10
204.9462447166442871
 20
290.4877172636719251
  9
$UNITMODE
 70
     0
  9
$VISRETAIN
 70
     0
  9
$PLINEGEN
 70
     0
  9
$PSLTSCALE
 70
     0
  0
ENDSEC
  0
SECTION
  2
TABLES
  0
TABLE
  2
VPORT
 70
     1
  0
VPORT
  2
*ACTIVE
 70
     0
 10
0.0
 20
0.0
 11
1.0
 21
1.0
 12
82.6437926042815434
 22
-98.4318341045321432
 13
0.0
 23
0.0
 14
1.0
 24
1.0
 15
10.0
 25
10.0
 16
-0.0000000000002781
 26
0.0
 36
1252.4623947507009234
 17
0.0
 27
126.579219818115206
 37
-0.0000000000000389
 40
631.501323589009985
 41
1.868197278911564
 42
50.0
 43
0.0
 44
0.0
 50
0.0
 51
0.0
 71
     0
 72
  1500
 73
     1
 74
     0
 75
     0
 76
     0
 77
     0
 78
     0
  0
ENDTAB
  0
TABLE
  2
LTYPE
 70
     4
  0
LTYPE
  2
CONTINUOUS
 70
     0
  3
Solid line
 72
    65
 73
     0
 40
0.0
  0
LTYPE
  2
PHANTOM2
 70
     0
  3
Phantom (.5x) ___ _ _ ___ _ _ ___ _ _ ___ _ _
 72
    65
 73
     6
 40
1.25
 49
0.625
 49
-0.125
 49
0.125
 49
-0.125
 49
0.125
 49
-0.125
  0
LTYPE
  2
AUSGEZOGEN
 70
     0
  3
Ausgezogene Linie
 72
    65
 73
     0
 40
0.0
  0
LTYPE
  2
VERDECKT
 70
     0
  3
_ _ _ _ _ _ _ _ _ _ _ _ _ _ _ _ _ _ _ _ _ _ _
 72
    65
 73
     2
 40
0.375
 49
0.25
 49
-0.125
  0
ENDTAB
  0
TABLE
  2
LAYER
 70
     5
  0
LAYER
  2
0
 70
     0
 62
     7
  6
CONTINUOUS
  0
LAYER
  2
VOLL
 70
     0
 62
     1
  6
CONTINUOUS
  0
LAYER
  2
STEMPEL
 70
     0
 62
     3
  6
CONTINUOUS
  0
LAYER
  2
DEFPOINTS
 70
     0
 62
     7
  6
CONTINUOUS
  0
LAYER
  2
ADSK_ASSOC_ENTITY_BACKUPS
 70
     1
 62
    -7
  6
CONTINUOUS
  0
ENDTAB
  0
TABLE
  2
STYLE
 70
     2
  0
STYLE
  2
STANDARD
 70
     0
 40
0.0
 41
0.8
 50
0.0
 71
     0
 42
3.5
  3
simplex.shx
  4

  0
STYLE
  2
GREEKS
 70
     0
 40
0.0
 41
0.8
 50
0.0
 71
     0
 42
2.5
  3
SIMPLEX.shx
  4

  0
ENDTAB
  0
TABLE
  2
VIEW
 70
     0
  0
ENDTAB
  0
TABLE
  2
UCS
 70
     0
  0
ENDTAB
  0
TABLE
  2
APPID
 70
    34
  0
APPID
  2
ACAD
 70
     0
  0
APPID
  2
ACAD_EXEMPT_FROM_CAD_STANDARDS
 70
     0
  0
APPID
  2
ACAD_NAV_VCDISPLAY
 70
     0
  0
APPID
  2
ACAECLAYERSTANDARD
 70
     0
  0
APPID
  2
ACCMTRANSPARENCY
 70
     0
  0
APPID
  2
ACAD_PSEXT
 70
     0
  0
APPID
  2
GRADIENTCOLOR1ACI
 70
     0
  0
APPID
  2
GRADIENTCOLOR2ACI
 70
     0
  0
APPID
  2
ACAD_MLEADERVER
 70
     0
  0
APPID
  2
ACAD_OBJECT_CHANGE_GUID
 70
     0
  0
APPID
  2
MCAD_NO_VIS
 70
     0
  0
APPID
  2
ACAD_TEMP_GRAPHIC
 70
     0
  0
APPID
  2
ACATTRIBSERVICES
 70
     0
  0
APPID
  2
DESIGNERASSEMBLIES
 70
     0
  0
APPID
  2
ACAD_DSTYLE_DIMJAG
 70
     0
  0
APPID
  2
ACAD_DSTYLE_DIMBREAK
 70
     0
  0
APPID
  2
GENIUS_GENSCREG_15
 70
     0
  0
APPID
  2
GENIUS_GENOBJ-N-SDF_13
 70
     0
  0
APPID
  2
GENIUS_GENODEF_13
 70
     0
  0
APPID
  2
RAK
 70
     0
  0
APPID
  2
ACAUTHENVIRON
 70
     0
  0
APPID
  2
ACDBDYNAMICBLOCKTRUENAME
 70
     0
  0
APPID
  2
ACDBDYNAMICBLOCKGUID
 70
     0
  0
APPID
  2
ACSYNERGY
 70
     0
  0
APPID
  2
SYNERGY_BODY_TBR_ID
 70
     0
  0
APPID
  2
ACAD_VIEW_EDGE_ID
 70
     0
  0
APPID
  2
ACSYNERGYSKETCH
 70
     0
  0
APPID
  2
ACAD_STEPID
 70
     0
  0
APPID
  2
ACAD_MODELDOC_XFORM
 70
     0
  0
APPID
  2
GENIUS_GENDTOL_13
 70
     0
  0
APPID
  2
ACAD_DSTYLE_DIMINSPECT
 70
     0
  0
APPID
  2
ACADANNOMONITORALERTICONDI
 70
     0
  0
APPID
  2
GENIUS_GENDIMSH_14
 70
     0
  0
APPID
  2
ACDBATTR
 70
     0
  0
ENDTAB
  0
TABLE
  2
DIMSTYLE
 70
     1
  0
DIMSTYLE
  2
STANDARD
 70
     0
  3

  4

  5

  6

  7

 40
1.0
 41
0.18
 42
0.0625
 43
0.38
 44
0.18
 45
0.0
 46
0.0
 47
0.0
 48
0.0
140
0.18
141
0.09
142
0.0
143
25.3999999999999986
144
1.0
145
0.0
146
1.0
147
0.09
 71
     0
 72
     0
 73
     1
 74
     1
 75
     0
 76
     0
 77
     0
 78
     0
170
     0
171
     2
172
     0
173
     0
174
     0
175
     0
176
     0
177
     0
178
     0
  0
ENDTAB
  0
ENDSEC
  0
SECTION
  2
BLOCKS
  0
BLOCK
  8
0
  2
$MODEL_SPACE
 70
     0
 10
0.0
 20
0.0
 30
0.0
  3
$MODEL_SPACE
  1

  0
ENDBLK
  5
36
  8
0
  0
BLOCK
 67
     1
  8
0
  2
$PAPER_SPACE
 70
     0
 10
0.0
 20
0.0
 30
0.0
  3
$PAPER_SPACE
  1

  0
ENDBLK
  5
34
 67
     1
  8
0
  0
BLOCK
  8
0
  2
*S0
 70
     1
 10
0.0
 20
0.0
 30
0.0
  3
*S0
  1

  0
ENDBLK
  5
FA2
  8
0
  0
BLOCK
  8
0
  2
A$C70A55344
 70
     0
 10
0.0
 20
0.0
 30
0.0
  3
A$C70A55344
  1

  0
LINE
  5
3788
  8
0
  6
CONTINUOUS
 62
     3
 10
-65.1972196409694646
 20
0.0
 30
0.0
 11
65.1972196409694646
 21
0.0
 31
0.0
210
0.0
220
1.0
230
-0.0000000000000002
  0
LINE
  5
3789
  8
0
  6
CONTINUOUS
 62
     3
 10
-72.7584447974063551
 20
350.0
 30
-0.0000000000000777
 11
72.7584447974063551
 21
350.0
 31
-0.0000000000000777
210
0.0
220
1.0
230
-0.0000000000000002
  0
ARC
  5
378A
  8
0
  6
CONTINUOUS
 62
     3
 10
45.999999999998181
 20
327.291000000000281
 30
0.0
 40
29.9997362596939183
210
0.0
220
-0.0000000000000002
230
-1.0
 50
334.9928416634461996
 51
359.9999999999993179
  0
ARC
  5
378B
  8
0
  6
CONTINUOUS
 62
     3
 10
-45.9999999999978897
 20
327.291000000000281
 30
0.0
 40
29.9997362596942097
210
0.0
220
-0.0000000000000002
230
-1.0
 50
180.0000000000005969
 51
205.0071583365534877
  0
ARC
  5
378C
  8
0
  6
CONTINUOUS
 62
     3
 10
89.4999999999958504
 20
307.0000000000007958
 30
0.0
 40
17.9999999999958611
210
0.0
220
-0.0000000000000002
230
-1.0
 50
154.9928416634481039
 51
180.0000000000025864
  0
ARC
  5
378D
  8
0
  6
CONTINUOUS
 62
     3
 10
-89.4999999999958362
 20
307.0000000000007958
 30
0.0
 40
17.9999999999958504
210
0.0
220
-0.0000000000000002
230
-1.0
 50
359.9999999999973284
 51
25.007158336551921
  0
LINE
  5
378E
  8
0
  6
CONTINUOUS
 62
     3
 10
71.5
 20
306.9999999999998863
 30
-0.0000000000000682
 11
71.5
 21
283.4687194226710858
 31
-0.0000000000000629
210
0.0
220
1.0
230
-0.0000000000000002
  0
LINE
  5
378F
  8
0
  6
CONTINUOUS
 62
     3
 10
-71.5
 20
306.9999999999998863
 30
-0.0000000000000682
 11
-71.5
 21
283.4687194226711995
 31
-0.0000000000000629
210
0.0
220
1.0
230
-0.0000000000000002
  0
ARC
  5
3790
  8
0
  6
CONTINUOUS
 62
     3
 10
53.5000000000014282
 20
283.4687194226708016
 30
0.0
 40
17.9999999999985789
210
0.0
220
-0.0000000000000002
230
-1.0
 50
325.2280559680507963
 51
0.0000000000010941
  0
ARC
  5
3791
  8
0
  6
CONTINUOUS
 62
     3
 10
-53.5000000000014282
 20
283.4687194226708016
 30
0.0
 40
17.9999999999985683
210
0.0
220
-0.0000000000000002
230
-1.0
 50
179.9999999999988916
 51
214.77194403194909
  0
ARC
  5
3792
  8
0
  6
CONTINUOUS
 62
     3
 10
76.50000000000081
 20
267.4999999999997158
 30
0.0
 40
10.0000000000007798
210
0.0
220
-0.0000000000000002
230
-1.0
 50
145.2280559680515069
 51
179.9999999999984084
  0
ARC
  5
3793
  8
0
  6
CONTINUOUS
 62
     3
 10
-76.50000000000081
 20
267.4999999999997158
 30
0.0
 40
10.0000000000007905
210
0.0
220
-0.0000000000000002
230
-1.0
 50
0.0
 51
34.7719440319469086
  0
LINE
  5
3794
  8
0
  6
CONTINUOUS
 62
     3
 10
66.5000000000001137
 20
267.5
 30
-0.0000000000000594
 11
66.5000000000001137
 21
244.0
 31
-0.0000000000000542
210
0.0
220
1.0
230
-0.0000000000000002
  0
LINE
  5
3795
  8
0
  6
CONTINUOUS
 62
     3
 10
66.5000000000001137
 20
139.9999999999998863
 30
-0.0000000000000311
 11
66.5000000000001137
 21
14.89084764273003
 31
-0.0000000000000033
210
0.0
220
1.0
230
-0.0000000000000002
  0
LINE
  5
3796
  8
0
  6
CONTINUOUS
 62
     3
 10
-66.5000000000001137
 20
267.5
 30
-0.0000000000000594
 11
-66.5000000000001137
 21
244.0
 31
-0.0000000000000542
210
0.0
220
1.0
230
-0.0000000000000002
  0
LINE
  5
3797
  8
0
  6
CONTINUOUS
 62
     3
 10
-66.5000000000001137
 20
139.9999999999998863
 30
-0.0000000000000311
 11
-66.5000000000001137
 21
14.89084764273003
 31
-0.0000000000000033
210
0.0
220
1.0
230
-0.0000000000000002
  0
LINE
  5
3798
  8
0
  6
CONTINUOUS
 62
     3
 10
-65.1972196409694789
 20
-0.0000000000000009
 30
0.0
 11
-66.5000000000002274
 21
14.89084764273003
 31
-0.0000000000000033
210
0.0
220
1.0
230
-0.0000000000000002
  0
LINE
  5
3799
  8
0
  6
CONTINUOUS
 62
     3
 10
65.1972196409694789
 20
-0.0000000000000009
 30
0.0
 11
66.5000000000002274
 21
14.89084764273003
 31
-0.0000000000000033
210
0.0
220
1.0
230
-0.0000000000000002
  0
LINE
  5
379A
  8
0
  6
CONTINUOUS
 62
     3
 10
72.7584447974063551
 20
350.0
 30
-0.0000000000000777
 11
73.1892336110986435
 21
349.0761704077588092
 31
-0.0000000000000775
210
0.0
220
1.0
230
-0.0000000000000002
  0
LINE
  5
379B
  8
0
  6
CONTINUOUS
 62
     3
 10
-72.7584447974063551
 20
350.0
 30
-0.0000000000000777
 11
-73.1892336110986435
 21
349.0761704077588092
 31
-0.0000000000000775
210
0.0
220
1.0
230
-0.0000000000000002
  0
ARC
  5
379C
  8
0
  6
CONTINUOUS
 62
     3
 10
45.9999999999973284
 20
336.3976225555354063
 30
0.0
 40
30.0000000000026716
210
0.0
220
-0.0000000000000002
230
-1.0
 50
0.0000000000007633
 51
25.0000000000027391
  0
ARC
  5
379D
  8
0
  6
CONTINUOUS
 62
     3
 10
-45.9999999999973284
 20
336.3976225555354063
 30
0.0
 40
30.0000000000026716
210
0.0
220
-0.0000000000000002
230
-1.0
 50
154.9999999999971863
 51
179.9999999999992042
  0
LINE
  5
379E
  8
0
  6
CONTINUOUS
 62
     3
 10
76.0
 20
336.3976225555358042
 30
-0.0000000000000747
 11
76.0
 21
327.2909999999999968
 31
-0.0000000000000727
210
0.0
220
1.0
230
-0.0000000000000002
  0
LINE
  5
379F
  8
0
  6
CONTINUOUS
 62
     3
 10
-76.0
 20
336.3976225555358042
 30
-0.0000000000000747
 11
-76.0
 21
327.2909999999999968
 31
-0.0000000000000727
210
0.0
220
1.0
230
-0.0000000000000002
  0
LINE
  5
37A0
  8
0
  6
CONTINUOUS
 62
     3
 10
-91.5000000000001137
 20
244.0
 30
-0.0000000000000542
 11
91.4999999999998863
 21
244.0
 31
-0.0000000000000542
210
0.0
220
1.0
230
-0.0000000000000002
  0
LINE
  5
37A1
  8
0
  6
CONTINUOUS
 62
     3
 10
91.4999999999998863
 20
244.0
 30
-0.0000000000000542
 11
91.4999999999998863
 21
240.000000000000199
 31
-0.0000000000000533
210
0.0
220
1.0
230
-0.0000000000000002
  0
LINE
  5
37A2
  8
0
  6
CONTINUOUS
 62
     3
 10
-91.5000000000001137
 20
244.0
 30
-0.0000000000000542
 11
-91.5000000000001137
 21
240.000000000000199
 31
-0.0000000000000533
210
0.0
220
1.0
230
-0.0000000000000002
  0
LINE
  5
37A3
  8
0
  6
CONTINUOUS
 62
     3
 10
-96.8500000000000227
 20
139.9999999999998863
 30
-0.0000000000000311
 11
96.8499999999997954
 21
139.9999999999998863
 31
-0.0000000000000311
210
0.0
220
1.0
230
-0.0000000000000002
  0
LINE
  5
37A4
  8
0
  6
CONTINUOUS
 62
     3
 10
-96.8500000000002501
 20
240.0000000000001137
 30
-0.0000000000000533
 11
96.8500000000000227
 21
240.0000000000001137
 31
-0.0000000000000533
210
0.0
220
1.0
230
-0.0000000000000002
  0
LINE
  5
37A5
  8
0
  6
CONTINUOUS
 62
     3
 10
96.8499999999999091
 20
240.0000000000001137
 30
-0.0000000000000533
 11
96.8499999999999091
 21
139.9999999999998863
 31
-0.0000000000000311
210
0.0
220
1.0
230
-0.0000000000000002
  0
LINE
  5
37A6
  8
0
  6
CONTINUOUS
 62
     3
 10
-96.8500000000001364
 20
240.0000000000001137
 30
-0.0000000000000533
 11
-96.8500000000001364
 21
139.9999999999998863
 31
-0.0000000000000311
210
0.0
220
1.0
230
-0.0000000000000002
  0
ARC
  5
37A7
  8
0
  6
VERDECKT
 62
     1
 10
54.0000000000009805
 20
15.4366094290847293
 30
0.0
 40
9.9999999999990266
210
0.0
220
-0.0000000000000002
230
-1.0
 50
355.0000000000001137
 51
0.0000000000005343
  0
ARC
  5
37A8
  8
0
  6
VERDECKT
 62
     1
 10
-53.9999999999972005
 20
15.4366094290849798
 30
0.0
 40
10.0000000000027995
210
0.0
220
-0.0000000000000002
230
-1.0
 50
180.0000000000007958
 51
184.9999999999994031
  0
LINE
  5
37A9
  8
0
  6
VERDECKT
 62
     1
 10
-62.687670047111169
 20
0.0
 30
0.0
 11
-63.9619469809174603
 21
14.5650520016082492
 31
-0.0000000000000032
210
0.0
220
1.0
230
-0.0000000000000002
  0
LINE
  5
37AA
  8
0
  6
VERDECKT
 62
     1
 10
62.687670047111169
 20
0.0
 30
0.0
 11
63.9619469809174603
 21
14.5650520016082492
 31
-0.0000000000000032
210
0.0
220
1.0
230
-0.0000000000000002
  0
LINE
  5
37AB
  8
0
  6
VERDECKT
 62
     1
 10
64.0
 20
267.5
 30
-0.0000000000000594
 11
64.0
 21
15.4366094290848306
 31
-0.0000000000000034
210
0.0
220
1.0
230
-0.0000000000000002
  0
LINE
  5
37AC
  8
0
  6
VERDECKT
 62
     1
 10
-64.0
 20
267.5
 30
-0.0000000000000594
 11
-64.0
 21
15.4366094290848306
 31
-0.0000000000000034
210
0.0
220
1.0
230
-0.0000000000000002
  0
LINE
  5
37AD
  8
0
  6
VERDECKT
 62
     1
 10
66.5000000000001137
 20
244.0
 30
-0.0000000000000542
 11
66.5000000000001137
 21
139.9999999999998863
 31
-0.0000000000000311
210
0.0
220
1.0
230
-0.0000000000000002
  0
LINE
  5
37AE
  8
0
  6
VERDECKT
 62
     1
 10
-66.5000000000001137
 20
244.0
 30
-0.0000000000000542
 11
-66.5000000000001137
 21
139.9999999999998863
 31
-0.0000000000000311
210
0.0
220
1.0
230
-0.0000000000000002
  0
ARC
  5
37AF
  8
0
  6
VERDECKT
 62
     1
 10
76.4999999999987068
 20
267.5000000000002842
 30
0.0
 40
12.4999999999986908
210
0.0
220
-0.0000000000000002
230
-1.0
 50
145.2280559680511089
 51
180.0000000000015064
  0
ARC
  5
37B0
  8
0
  6
VERDECKT
 62
     1
 10
-76.4999999999987068
 20
267.5000000000002842
 30
0.0
 40
12.4999999999986997
210
0.0
220
-0.0000000000000002
230
-1.0
 50
359.9999999999984084
 51
34.7719440319487987
  0
ARC
  5
37B1
  8
0
  6
VERDECKT
 62
     1
 10
53.5000000000013713
 20
283.4687194226708016
 30
0.0
 40
15.4999999999986304
210
0.0
220
-0.0000000000000002
230
-1.0
 50
325.2280559680485226
 51
0.0000000000014758
  0
ARC
  5
37B2
  8
0
  6
VERDECKT
 62
     1
 10
-53.5000000000013713
 20
283.4687194226708016
 30
0.0
 40
15.4999999999986304
210
0.0
220
-0.0000000000000002
230
-1.0
 50
179.9999999999984936
 51
214.7719440319513922
  0
LINE
  5
37B3
  8
0
  6
VERDECKT
 62
     1
 10
69.0
 20
306.9999999999998863
 30
-0.0000000000000682
 11
69.0
 21
283.4687194226711995
 31
-0.0000000000000629
210
0.0
220
1.0
230
-0.0000000000000002
  0
LINE
  5
37B4
  8
0
  6
VERDECKT
 62
     1
 10
-69.0
 20
306.9999999999998863
 30
-0.0000000000000682
 11
-69.0
 21
283.4687194226711995
 31
-0.0000000000000629
210
0.0
220
1.0
230
-0.0000000000000002
  0
ARC
  5
37B5
  8
0
  6
VERDECKT
 62
     1
 10
89.5000000000000142
 20
307.0000000000001137
 30
0.0
 40
20.5000000000000213
210
0.0
220
-0.0000000000000002
230
-1.0
 50
155.2128276928108903
 51
180.0000000000003126
  0
ARC
  5
37B6
  8
0
  6
VERDECKT
 62
     1
 10
-89.5000000000000142
 20
307.0000000000001137
 30
0.0
 40
20.5000000000000213
210
0.0
220
-0.0000000000000002
230
-1.0
 50
359.9999999999997158
 51
24.7871723071890315
  0
ARC
  5
37B7
  8
0
  6
VERDECKT
 62
     1
 10
45.9999999999972715
 20
327.2910000000006221
 30
0.0
 40
27.5000000000027214
210
0.0
220
-0.0000000000000002
230
-1.0
 50
334.8288522569367842
 51
359.9999999999986926
  0
ARC
  5
37B8
  8
0
  6
VERDECKT
 62
     1
 10
-45.9999999999972786
 20
327.2910000000006221
 30
0.0
 40
27.5000000000027001
210
0.0
220
-0.0000000000000002
230
-1.0
 50
180.0000000000013074
 51
205.1711477430631874
  0
LINE
  5
37B9
  8
0
  6
VERDECKT
 62
     1
 10
73.5
 20
336.3976225555358042
 30
-0.0000000000000747
 11
73.5
 21
327.2909999999999968
 31
-0.0000000000000727
210
0.0
220
1.0
230
-0.0000000000000002
  0
LINE
  5
37BA
  8
0
  6
VERDECKT
 62
     1
 10
-73.5
 20
336.3976225555358042
 30
-0.0000000000000747
 11
-73.5
 21
327.2909999999999968
 31
-0.0000000000000727
210
0.0
220
1.0
230
-0.0000000000000002
  0
ARC
  5
37BB
  8
0
  6
VERDECKT
 62
     1
 10
45.9999999999981597
 20
336.397622555535122
 30
0.0
 40
27.5000000000018296
210
0.0
220
-0.0000000000000002
230
-1.0
 50
0.0
 51
24.9999999999971507
  0
ARC
  5
37BC
  8
0
  6
VERDECKT
 62
     1
 10
-45.9999999999981597
 20
336.397622555535122
 30
0.0
 40
27.5000000000018403
210
0.0
220
-0.0000000000000002
230
-1.0
 50
155.0000000000015064
 51
179.9999999999986926
  0
LINE
  5
37BD
  8
0
  6
VERDECKT
 62
     1
 10
69.9999999999999858
 20
350.0
 30
-0.0000000000000777
 11
70.9234641435079851
 21
348.0196247534045142
 31
-0.0000000000000773
210
0.0
220
1.0
230
-0.0000000000000002
  0
LINE
  5
37BE
  8
0
  6
VERDECKT
 62
     1
 10
-70.0000000000000142
 20
350.0
 30
-0.0000000000000777
 11
-70.9234641435079851
 21
348.0196247534045142
 31
-0.0000000000000773
210
0.0
220
1.0
230
-0.0000000000000002
  0
LINE
  5
37BF
  8
0
  6
VERDECKT
 62
     1
 10
67.4999999999998863
 20
244.0000000000001137
 30
-0.0000000000000542
 11
67.4999999999998863
 21
240.0000000000001137
 31
-0.0000000000000533
210
0.0
220
1.0
230
-0.0000000000000002
  0
LINE
  5
37C0
  8
0
  6
VERDECKT
 62
     1
 10
-67.5000000000001137
 20
244.0000000000001137
 30
-0.0000000000000542
 11
-67.5000000000001137
 21
240.0000000000001137
 31
-0.0000000000000533
210
0.0
220
1.0
230
-0.0000000000000002
  0
LINE
  5
37C1
  8
0
  6
VERDECKT
 62
     1
 10
88.0499999999998266
 20
240.0000000000001137
 30
-0.0000000000000533
 11
88.0499999999998266
 21
139.9999999999998863
 31
-0.0000000000000311
210
0.0
220
1.0
230
-0.0000000000000002
  0
LINE
  5
37C2
  8
0
  6
VERDECKT
 62
     1
 10
-88.050000000000054
 20
240.0000000000001137
 30
-0.0000000000000533
 11
-88.050000000000054
 21
139.9999999999998863
 31
-0.0000000000000311
210
0.0
220
1.0
230
-0.0000000000000002
  0
ENDBLK
  5
376E
  8
0
  0
BLOCK
  8
0
  2
A$C01D80E41
 70
     0
 10
0.0
 20
0.0
 30
0.0
  3
A$C01D80E41
  1

  0
CIRCLE
  5
3772
  8
0
  6
CONTINUOUS
 62
     3
 10
0.0
 20
0.0
 30
0.0
 40
62.687670047111169
  0
CIRCLE
  5
3773
  8
0
  6
CONTINUOUS
 62
     3
 10
0.0000000000000594
 20
0.0
 30
0.0
 40
64.0
  0
CIRCLE
  5
3774
  8
0
  6
CONTINUOUS
 62
     3
 10
0.0000000000000682
 20
0.0
 30
0.0
 40
69.0
  0
CIRCLE
  5
3775
  8
0
  6
CONTINUOUS
 62
     3
 10
0.0000000000000777
 20
0.0
 30
0.0
 40
70.0
  0
CIRCLE
  5
3776
  8
0
  6
CONTINUOUS
 62
     3
 10
0.0000000000000777
 20
0.0
 30
0.0
 40
72.7584447974063551
  0
CIRCLE
  5
3777
  8
0
  6
CONTINUOUS
 62
     3
 10
0.0000000000000747
 20
0.0
 30
0.0
 40
76.0
  0
CIRCLE
  5
3778
  8
0
  6
CONTINUOUS
 62
     3
 10
-0.0000000000000595
 20
0.0
 30
0.0
 40
91.5
  0
CIRCLE
  5
3779
  8
0
  6
CONTINUOUS
 62
     3
 10
-0.0000000000000604
 20
0.0
 30
0.0
 40
96.8500000000001364
  0
CIRCLE
  5
377A
  8
0
  6
VERDECKT
 62
     1
 10
0.0000000000000727
 20
0.0
 30
0.0
 40
75.9997362596920993
  0
CIRCLE
  5
377B
  8
0
  6
VERDECKT
 62
     1
 10
0.0000000000000682
 20
0.0
 30
0.0
 40
71.5
  0
CIRCLE
  5
377C
  8
0
  6
VERDECKT
 62
     1
 10
0.0000000000000594
 20
0.0
 30
0.0
 40
66.5
  0
CIRCLE
  5
377D
  8
0
  6
VERDECKT
 62
     1
 10
0.0
 20
0.0
 30
0.0
 40
65.1972196409694789
  0
CIRCLE
  5
377E
  8
0
  6
VERDECKT
 62
     1
 10
0.0000000000000747
 20
0.0
 30
0.0
 40
73.5
  0
CIRCLE
  5
377F
  8
0
  6
VERDECKT
 62
     1
 10
-0.0000000000000595
 20
0.0
 30
0.0
 40
67.5
  0
CIRCLE
  5
3780
  8
0
  6
VERDECKT
 62
     1
 10
-0.0000000000000604
 20
0.0
 30
0.0
 40
88.0499999999999545
  0
ENDBLK
  5
3782
  8
0
  0
ENDSEC
  0
SECTION
  2
ENTITIES
  0
TEXT
  5
8F
  8
VOLL
 10
78.076754716981128
 20
31.025947764705851
 30
0.0
 40
1.8
  1

  7
GREEKS
  0
INSERT
  5
FA4
  8
ADSK_ASSOC_ENTITY_BACKUPS
  2
*S0
 10
0.0
 20
0.0
 30
0.0
  0
INSERT
  5
376F
  8
STEMPEL
  2
A$C70A55344
 10
0.0
 20
0.0
 30
0.0
  0
INSERT
  5
3783
  8
STEMPEL
  2
A$C01D80E41
 10
0.0000000000000545
 20
-196.850000000000108
 30
0.0
  0
VIEWPORT
  5
702
 67
     1
  8
0
 10
99.9595808982848837
 20
142.0247198271484024
 30
0.0
 40
557.5441164704363928
 41
298.4396363082536254
 68
     1
 69
     1
1001
ACAD
1000
MVIEW
1002
{
1070
    16
1010
0.0
1020
0.0
1030
0.0
1010
0.0
1020
0.0
1030
1.0
1040
0.0
1040
298.4396363082536254
1040
99.9595808982848837
1040
142.0247198271484024
1040
50.0
1040
0.0
1040
0.0
1070
     0
1070
  1500
1070
     1
1070
     1
1070
     0
1070
     0
1070
     0
1070
     0
1040
0.0
1040
0.0
1040
0.0
1040
10.0
1040
10.0
1040
10.0
1040
10.0
1070
     0
1002
{
1002
}
1002
}
1001
GENIUS_GENOBJ-N-SDF_13
1002
{
1000
OWNER
1000
GEN
1002
}
1001
GENIUS_GENODEF_13
1002
{
1000
HIER
1070
     0
1002
}
1002
{
1000
MANEDIT
1070
     0
1002
}
1002
{
1000
NOSEL
1070
     0
1002
}
1002
{
1000
BEHIND
1070
     0
1002
}
1002
{
1000
OTHER
1070
     0
1002
}
1002
{
1000
REACTOR
1002
}
1001
GENIUS_GENSCREG_15
1000
PF
1040
1.0
1000
DF
1040
1.0
1000
MIN
1011
-327.2680799503845037
1021
0.0
1031
0.0
1021
-59.1300374055242628
1031
0.0
1000
MAX
1011
687.3210976952041165
1021
0.0
1031
0.0
1021
387.2655506611537248
1031
0.0
1000
FLAGS
1070
     4
  0
ENDSEC
  0
EOF
