  0
SECTION
  2
HEADER
  9
$ACADVER
  1
AC1009
  9
$INSBASE
 10
0.0
 20
0.0
 30
0.0
  9
$EXTMIN
 10
-76.2302837960070292
 20
-252.447848908520001
 30
-0.0000018997869986
  9
$EXTMAX
 10
76.2247310239054059
 20
340.0449818112206231
 30
0.0000000792130814
  9
$LIMMIN
 10
0.0
 20
0.0
  9
$LIMMAX
 10
419.9999999999998863
 20
594.0
  9
$ORTHOMODE
 70
     1
  9
$REGENMODE
 70
     1
  9
$FILLMODE
 70
     1
  9
$QTEXTMODE
 70
     0
  9
$MIRRTEXT
 70
     1
  9
$DRAGMODE
 70
     2
  9
$LTSCALE
 40
20.0
  9
$OSMODE
 70
  2559
  9
$ATTMODE
 70
     1
  9
$TEXTSIZE
 40
3.5
  9
$TRACEWID
 40
0.5
  9
$TEXTSTYLE
  7
STANDARD
  9
$CLAYER
  8
STEMPEL
  9
$CELTYPE
  6
BYLAYER
  9
$CECOLOR
 62
   256
  9
$DIMSCALE
 40
1.0
  9
$DIMASZ
 40
3.5
  9
$DIMEXO
 40
1.0
  9
$DIMDLI
 40
7.0
  9
$DIMRND
 40
0.0
  9
$DIMDLE
 40
0.0
  9
$DIMEXE
 40
1.0
  9
$DIMTP
 40
0.0
  9
$DIMTM
 40
0.0
  9
$DIMTXT
 40
3.5
  9
$DIMCEN
 40
1.5
  9
$DIMTSZ
 40
0.0
  9
$DIMTOL
 70
     0
  9
$DIMLIM
 70
     0
  9
$DIMTIH
 70
     0
  9
$DIMTOH
 70
     0
  9
$DIMSE1
 70
     0
  9
$DIMSE2
 70
     0
  9
$DIMTAD
 70
     1
  9
$DIMZIN
 70
     8
  9
$DIMBLK
  1

  9
$DIMASO
 70
     1
  9
$DIMSHO
 70
     0
  9
$DIMPOST
  1

  9
$DIMAPOST
  1

  9
$DIMALT
 70
     0
  9
$DIMALTD
 70
     2
  9
$DIMALTF
 40
25.3999999999999986
  9
$DIMLFAC
 40
1.0
  9
$DIMTOFL
 70
     1
  9
$DIMTVP
 40
0.0
  9
$DIMTIX
 70
     0
  9
$DIMSOXD
 70
     0
  9
$DIMSAH
 70
     0
  9
$DIMBLK1
  1

  9
$DIMBLK2
  1

  9
$DIMSTYLE
  2
STANDARD
  9
$DIMCLRD
 70
     0
  9
$DIMCLRE
 70
     0
  9
$DIMCLRT
 70
     1
  9
$DIMTFAC
 40
0.5142857142857143
  9
$DIMGAP
 40
1.5
  9
$LUNITS
 70
     2
  9
$LUPREC
 70
     2
  9
$SKETCHINC
 40
1.0
  9
$FILLETRAD
 40
10.0
  9
$AUNITS
 70
     0
  9
$AUPREC
 70
     0
  9
$MENU
  1
ACAD
  9
$ELEVATION
 40
0.0
  9
$PELEVATION
 40
0.0
  9
$THICKNESS
 40
0.0
  9
$LIMCHECK
 70
     0
  9
$BLIPMODE
 70
     0
  9
$CHAMFERA
 40
0.0
  9
$CHAMFERB
 40
0.0
  9
$SKPOLY
 70
     0
  9
$TDCREATE
 40
2455397.8646990740671754
  9
$TDUPDATE
 40
2458380.6258796290494502
  9
$TDINDWG
 40
0.530340081
  9
$TDUSRTIMER
 40
0.530340081
  9
$USRTIMER
 70
     1
  9
$ANGBASE
 50
0.0
  9
$ANGDIR
 70
     0
  9
$PDMODE
 70
     0
  9
$PDSIZE
 40
0.0
  9
$PLINEWID
 40
0.0
  9
$COORDS
 70
     1
  9
$SPLFRAME
 70
     0
  9
$SPLINETYPE
 70
     6
  9
$SPLINESEGS
 70
     8
  9
$ATTDIA
 70
     1
  9
$ATTREQ
 70
     1
  9
$HANDLING
 70
     1
  9
$HANDSEED
  5
34B6
  9
$SURFTAB1
 70
     6
  9
$SURFTAB2
 70
     6
  9
$SURFTYPE
 70
     6
  9
$SURFU
 70
     6
  9
$SURFV
 70
     6
  9
$UCSNAME
  2

  9
$UCSORG
 10
0.0
 20
0.0
 30
0.0
  9
$UCSXDIR
 10
1.0
 20
0.0
 30
0.0
  9
$UCSYDIR
 10
0.0
 20
1.0
 30
0.0
  9
$PUCSNAME
  2

  9
$PUCSORG
 10
0.0
 20
0.0
 30
0.0
  9
$PUCSXDIR
 10
1.0
 20
0.0
 30
0.0
  9
$PUCSYDIR
 10
0.0
 20
1.0
 30
0.0
  9
$USERI1
 70
     0
  9
$USERI2
 70
     0
  9
$USERI3
 70
     0
  9
$USERI4
 70
     0
  9
$USERI5
 70
     0
  9
$USERR1
 40
0.0
  9
$USERR2
 40
0.0
  9
$USERR3
 40
0.0
  9
$USERR4
 40
0.0
  9
$USERR5
 40
0.0
  9
$WORLDVIEW
 70
     1
  9
$SHADEDGE
 70
     3
  9
$SHADEDIF
 70
    70
  9
$TILEMODE
 70
     1
  9
$MAXACTVP
 70
    16
  9
$PLIMCHECK
 70
     0
  9
$PEXTMIN
 10
1.0000000000000000E+20
 20
1.0000000000000000E+20
 30
1.0000000000000000E+20
  9
$PEXTMAX
 10
-1.0000000000000000E+20
 20
-1.0000000000000000E+20
 30
-1.0000000000000000E+20
  9
$PLIMMIN
 10
-5.027082920074462
 20
-6.4382776093749987
  9
$PLIMMAX
 10
204.9462447166442871
 20
290.4877172636719251
  9
$UNITMODE
 70
     0
  9
$VISRETAIN
 70
     0
  9
$PLINEGEN
 70
     0
  9
$PSLTSCALE
 70
     0
  0
ENDSEC
  0
SECTION
  2
TABLES
  0
TABLE
  2
VPORT
 70
     1
  0
VPORT
  2
*ACTIVE
 70
     0
 10
0.0
 20
0.0
 11
1.0
 21
1.0
 12
-0.0027763860507548
 22
-88.1053909155930342
 13
0.0
 23
0.0
 14
1.0
 24
1.0
 15
10.0
 25
10.0
 16
-0.0000000000002531
 26
0.0
 36
1139.8191082481150715
 17
0.0
 27
131.9039573669433025
 37
-0.0000000000000377
 40
595.5131849969865243
 41
1.868197278911564
 42
50.0
 43
0.0
 44
0.0
 50
0.0
 51
0.0
 71
     0
 72
  1500
 73
     1
 74
     0
 75
     0
 76
     0
 77
     0
 78
     0
  0
ENDTAB
  0
TABLE
  2
LTYPE
 70
     4
  0
LTYPE
  2
CONTINUOUS
 70
     0
  3
Solid line
 72
    65
 73
     0
 40
0.0
  0
LTYPE
  2
PHANTOM2
 70
     0
  3
Phantom (.5x) ___ _ _ ___ _ _ ___ _ _ ___ _ _
 72
    65
 73
     6
 40
1.25
 49
0.625
 49
-0.125
 49
0.125
 49
-0.125
 49
0.125
 49
-0.125
  0
LTYPE
  2
AUSGEZOGEN
 70
     0
  3
Ausgezogene Linie
 72
    65
 73
     0
 40
0.0
  0
LTYPE
  2
VERDECKT
 70
     0
  3
_ _ _ _ _ _ _ _ _ _ _ _ _ _ _ _ _ _ _ _ _ _ _
 72
    65
 73
     2
 40
0.375
 49
0.25
 49
-0.125
  0
ENDTAB
  0
TABLE
  2
LAYER
 70
     5
  0
LAYER
  2
0
 70
     0
 62
     7
  6
CONTINUOUS
  0
LAYER
  2
VOLL
 70
     0
 62
     1
  6
CONTINUOUS
  0
LAYER
  2
STEMPEL
 70
     0
 62
     3
  6
CONTINUOUS
  0
LAYER
  2
DEFPOINTS
 70
     0
 62
     7
  6
CONTINUOUS
  0
LAYER
  2
ADSK_ASSOC_ENTITY_BACKUPS
 70
     1
 62
    -7
  6
CONTINUOUS
  0
ENDTAB
  0
TABLE
  2
STYLE
 70
     2
  0
STYLE
  2
STANDARD
 70
     0
 40
0.0
 41
0.8
 50
0.0
 71
     0
 42
3.5
  3
simplex.shx
  4

  0
STYLE
  2
GREEKS
 70
     0
 40
0.0
 41
0.8
 50
0.0
 71
     0
 42
2.5
  3
SIMPLEX.shx
  4

  0
ENDTAB
  0
TABLE
  2
VIEW
 70
     0
  0
ENDTAB
  0
TABLE
  2
UCS
 70
     0
  0
ENDTAB
  0
TABLE
  2
APPID
 70
    34
  0
APPID
  2
ACAD
 70
     0
  0
APPID
  2
ACAD_EXEMPT_FROM_CAD_STANDARDS
 70
     0
  0
APPID
  2
ACAD_NAV_VCDISPLAY
 70
     0
  0
APPID
  2
ACAECLAYERSTANDARD
 70
     0
  0
APPID
  2
ACCMTRANSPARENCY
 70
     0
  0
APPID
  2
ACAD_PSEXT
 70
     0
  0
APPID
  2
GRADIENTCOLOR1ACI
 70
     0
  0
APPID
  2
GRADIENTCOLOR2ACI
 70
     0
  0
APPID
  2
ACAD_MLEADERVER
 70
     0
  0
APPID
  2
ACAD_OBJECT_CHANGE_GUID
 70
     0
  0
APPID
  2
MCAD_NO_VIS
 70
     0
  0
APPID
  2
ACAD_TEMP_GRAPHIC
 70
     0
  0
APPID
  2
ACATTRIBSERVICES
 70
     0
  0
APPID
  2
DESIGNERASSEMBLIES
 70
     0
  0
APPID
  2
ACAD_DSTYLE_DIMJAG
 70
     0
  0
APPID
  2
ACAD_DSTYLE_DIMBREAK
 70
     0
  0
APPID
  2
GENIUS_GENSCREG_15
 70
     0
  0
APPID
  2
GENIUS_GENOBJ-N-SDF_13
 70
     0
  0
APPID
  2
GENIUS_GENODEF_13
 70
     0
  0
APPID
  2
RAK
 70
     0
  0
APPID
  2
ACAUTHENVIRON
 70
     0
  0
APPID
  2
ACDBDYNAMICBLOCKTRUENAME
 70
     0
  0
APPID
  2
ACDBDYNAMICBLOCKGUID
 70
     0
  0
APPID
  2
ACSYNERGY
 70
     0
  0
APPID
  2
SYNERGY_BODY_TBR_ID
 70
     0
  0
APPID
  2
ACAD_VIEW_EDGE_ID
 70
     0
  0
APPID
  2
ACSYNERGYSKETCH
 70
     0
  0
APPID
  2
ACAD_STEPID
 70
     0
  0
APPID
  2
ACAD_MODELDOC_XFORM
 70
     0
  0
APPID
  2
GENIUS_GENDTOL_13
 70
     0
  0
APPID
  2
ACAD_DSTYLE_DIMINSPECT
 70
     0
  0
APPID
  2
ACADANNOMONITORALERTICONDI
 70
     0
  0
APPID
  2
GENIUS_GENDIMSH_14
 70
     0
  0
APPID
  2
ACDBATTR
 70
     0
  0
ENDTAB
  0
TABLE
  2
DIMSTYLE
 70
     1
  0
DIMSTYLE
  2
STANDARD
 70
     0
  3

  4

  5

  6

  7

 40
1.0
 41
0.18
 42
0.0625
 43
0.38
 44
0.18
 45
0.0
 46
0.0
 47
0.0
 48
0.0
140
0.18
141
0.09
142
0.0
143
25.3999999999999986
144
1.0
145
0.0
146
1.0
147
0.09
 71
     0
 72
     0
 73
     1
 74
     1
 75
     0
 76
     0
 77
     0
 78
     0
170
     0
171
     2
172
     0
173
     0
174
     0
175
     0
176
     0
177
     0
178
     0
  0
ENDTAB
  0
ENDSEC
  0
SECTION
  2
BLOCKS
  0
BLOCK
  8
0
  2
$MODEL_SPACE
 70
     0
 10
0.0
 20
0.0
 30
0.0
  3
$MODEL_SPACE
  1

  0
ENDBLK
  5
36
  8
0
  0
BLOCK
 67
     1
  8
0
  2
$PAPER_SPACE
 70
     0
 10
0.0
 20
0.0
 30
0.0
  3
$PAPER_SPACE
  1

  0
ENDBLK
  5
34
 67
     1
  8
0
  0
BLOCK
  8
0
  2
*S0
 70
     1
 10
0.0
 20
0.0
 30
0.0
  3
*S0
  1

  0
ENDBLK
  5
FA2
  8
0
  0
BLOCK
  8
0
  2
A$C58E277D5
 70
     0
 10
0.0
 20
0.0
 30
0.0
  3
A$C58E277D5
  1

  0
LINE
  5
33F0
  8
0
  6
CONTINUOUS
 62
     3
 10
-55.7067558379250087
 20
340.0000000000001137
 30
-0.0000000000000755
 11
55.7067558379250087
 21
340.0000000000001137
 31
-0.0000000000000755
210
0.0
220
1.0
230
-0.0000000000000002
  0
LINE
  5
33F1
  8
0
  6
CONTINUOUS
 62
     3
 10
-49.9577757127756286
 20
0.0
 30
0.0
 11
49.9577757127756286
 21
0.0
 31
0.0
210
0.0
220
1.0
230
-0.0000000000000002
  0
ARC
  5
33F2
  8
0
  6
CONTINUOUS
 62
     3
 10
33.9999999999984794
 20
327.3952485374284151
 30
0.0
 40
25.0000000000015206
210
0.0
220
-0.0000000000000002
230
-1.0
 50
0.0000000000011704
 51
24.9999999999988098
  0
ARC
  5
33F3
  8
0
  6
CONTINUOUS
 62
     3
 10
-33.9999999999984794
 20
327.3952485374284151
 30
0.0
 40
25.0000000000015312
210
0.0
220
-0.0000000000000002
230
-1.0
 50
155.0000000000011937
 51
179.9999999999988063
  0
LINE
  5
33F4
  8
0
  6
CONTINUOUS
 62
     3
 10
59.0
 20
327.3952485374289267
 30
-0.0000000000000727
 11
59.0
 21
312.2332005306815859
 31
-0.0000000000000693
210
0.0
220
1.0
230
-0.0000000000000002
  0
LINE
  5
33F5
  8
0
  6
CONTINUOUS
 62
     3
 10
-59.0
 20
327.3952485374289267
 30
-0.0000000000000727
 11
-59.0
 21
312.2332005306815859
 31
-0.0000000000000693
210
0.0
220
1.0
230
-0.0000000000000002
  0
ARC
  5
33F6
  8
0
  6
CONTINUOUS
 62
     3
 10
33.9999999999990692
 20
312.2332005306818132
 30
0.0
 40
25.0000000000009095
210
0.0
220
-0.0000000000000002
230
-1.0
 50
333.1119523822753195
 51
359.9999999999996021
  0
ARC
  5
33F7
  8
0
  6
CONTINUOUS
 62
     3
 10
-33.9999999999990621
 20
312.2332005306818132
 30
0.0
 40
25.0000000000009415
210
0.0
220
-0.0000000000000002
230
-1.0
 50
180.0000000000003979
 51
206.888047617724709
  0
ARC
  5
33F8
  8
0
  6
CONTINUOUS
 62
     3
 10
66.9999999999983089
 20
295.5000000000003979
 30
0.0
 40
11.9999999999983196
210
0.0
220
-0.0000000000000002
230
-1.0
 50
153.1119523822765984
 51
180.0000000000015064
  0
ARC
  5
33F9
  8
0
  6
CONTINUOUS
 62
     3
 10
-66.9999999999984226
 20
295.5000000000003979
 30
0.0
 40
11.9999999999984297
210
0.0
220
-0.0000000000000002
230
-1.0
 50
359.9999999999984084
 51
26.88804761772343
  0
LINE
  5
33FA
  8
0
  6
CONTINUOUS
 62
     3
 10
55.0
 20
295.5
 30
-0.0000000000000656
 11
55.0
 21
276.9274888769479048
 31
-0.0000000000000615
210
0.0
220
1.0
230
-0.0000000000000002
  0
LINE
  5
33FB
  8
0
  6
CONTINUOUS
 62
     3
 10
-55.0
 20
295.5
 30
-0.0000000000000656
 11
-55.0
 21
276.9274888769479048
 31
-0.0000000000000615
210
0.0
220
1.0
230
-0.0000000000000002
  0
ARC
  5
33FC
  8
0
  6
CONTINUOUS
 62
     3
 10
39.9999999999975628
 20
276.9274888769484164
 30
0.0
 40
15.0000000000024603
210
0.0
220
-0.0000000000000002
230
-1.0
 50
325.6988472432105937
 51
359.9999999999982947
  0
ARC
  5
33FD
  8
0
  6
CONTINUOUS
 62
     3
 10
-39.9999999999975628
 20
276.9274888769484164
 30
0.0
 40
15.0000000000024407
210
0.0
220
-0.0000000000000002
230
-1.0
 50
180.0000000000015916
 51
214.3011527567894063
  0
ARC
  5
33FE
  8
0
  6
CONTINUOUS
 62
     3
 10
58.9999999999997016
 20
263.966007480131907
 30
0.0
 40
7.9999999999997051
210
0.0
220
-0.0000000000000002
230
-1.0
 50
145.6988472432088031
 51
180.0000000000003979
  0
ARC
  5
33FF
  8
0
  6
CONTINUOUS
 62
     3
 10
-58.9999999999997016
 20
263.966007480131907
 30
0.0
 40
7.9999999999997149
210
0.0
220
-0.0000000000000002
230
-1.0
 50
359.9999999999996021
 51
34.3011527567912466
  0
LINE
  5
3400
  8
0
  6
CONTINUOUS
 62
     3
 10
55.7067558379250087
 20
340.0000000000001137
 30
-0.0000000000000755
 11
56.657694675916332
 21
337.9607050809461271
 31
-0.000000000000075
210
0.0
220
1.0
230
-0.0000000000000002
  0
LINE
  5
3401
  8
0
  6
CONTINUOUS
 62
     3
 10
-55.7067558379250087
 20
340.0000000000001137
 30
-0.0000000000000755
 11
-56.657694675916332
 21
337.9607050809461271
 31
-0.000000000000075
210
0.0
220
1.0
230
-0.0000000000000002
  0
LINE
  5
3402
  8
0
  6
CONTINUOUS
 62
     3
 10
-49.9577757127756286
 20
-0.0000000000000009
 30
0.0
 11
-51.0
 21
11.9126781141827696
 31
-0.0000000000000026
210
0.0
220
1.0
230
-0.0000000000000002
  0
LINE
  5
3403
  8
0
  6
CONTINUOUS
 62
     3
 10
49.9577757127756286
 20
-0.0000000000000009
 30
0.0
 11
51.0
 21
11.9126781141827696
 31
-0.0000000000000026
210
0.0
220
1.0
230
-0.0000000000000002
  0
LINE
  5
3404
  8
0
  6
CONTINUOUS
 62
     3
 10
51.0
 20
263.966007480131907
 30
-0.0000000000000586
 11
51.0
 21
234.000000000000199
 31
-0.000000000000052
210
0.0
220
1.0
230
-0.0000000000000002
  0
LINE
  5
3405
  8
0
  6
CONTINUOUS
 62
     3
 10
51.0
 20
130.0000000000001137
 30
-0.0000000000000289
 11
51.0
 21
11.9126781141827696
 31
-0.0000000000000026
210
0.0
220
1.0
230
-0.0000000000000002
  0
LINE
  5
3406
  8
0
  6
CONTINUOUS
 62
     3
 10
-51.0
 20
263.966007480131907
 30
-0.0000000000000586
 11
-51.0
 21
234.000000000000199
 31
-0.000000000000052
210
0.0
220
1.0
230
-0.0000000000000002
  0
LINE
  5
3407
  8
0
  6
CONTINUOUS
 62
     3
 10
-51.0
 20
130.0000000000001137
 30
-0.0000000000000289
 11
-51.0
 21
11.9126781141827696
 31
-0.0000000000000026
210
0.0
220
1.0
230
-0.0000000000000002
  0
LINE
  5
3408
  8
0
  6
CONTINUOUS
 62
     3
 10
76.2000000000000455
 20
130.0000000000001137
 30
-0.0000000000000289
 11
-76.2000000000000455
 21
130.0000000000001137
 31
-0.0000000000000289
210
0.0
220
1.0
230
-0.0000000000000002
  0
LINE
  5
3409
  8
0
  6
CONTINUOUS
 62
     3
 10
76.2000000000000455
 20
230.000000000000199
 30
-0.0000000000000511
 11
-76.2000000000000455
 21
230.000000000000199
 31
-0.0000000000000511
210
0.0
220
1.0
230
-0.0000000000000002
  0
LINE
  5
340A
  8
0
  6
CONTINUOUS
 62
     3
 10
-76.2000000000000455
 20
130.0000000000001137
 30
-0.0000000000000289
 11
-76.2000000000000455
 21
230.000000000000199
 31
-0.0000000000000511
210
0.0
220
1.0
230
-0.0000000000000002
  0
LINE
  5
340B
  8
0
  6
CONTINUOUS
 62
     3
 10
76.2000000000000455
 20
130.0000000000001137
 30
-0.0000000000000289
 11
76.2000000000000455
 21
230.000000000000199
 31
-0.0000000000000511
210
0.0
220
1.0
230
-0.0000000000000002
  0
LINE
  5
340C
  8
0
  6
CONTINUOUS
 62
     3
 10
-71.4999999999997726
 20
234.000000000000199
 30
-0.000000000000052
 11
71.5
 21
234.000000000000199
 31
-0.000000000000052
210
0.0
220
1.0
230
-0.0000000000000002
  0
LINE
  5
340D
  8
0
  6
CONTINUOUS
 62
     3
 10
71.5
 20
234.000000000000199
 30
-0.000000000000052
 11
71.5
 21
230.000000000000199
 31
-0.0000000000000511
210
0.0
220
1.0
230
-0.0000000000000002
  0
LINE
  5
340E
  8
0
  6
CONTINUOUS
 62
     3
 10
-71.4999999999997726
 20
234.000000000000199
 30
-0.000000000000052
 11
-71.4999999999997726
 21
230.000000000000199
 31
-0.0000000000000511
210
0.0
220
1.0
230
-0.0000000000000002
  0
ARC
  5
340F
  8
0
  6
VERDECKT
 62
     1
 10
39.0000000000009805
 20
12.4366094290849905
 30
0.0
 40
9.9999999999990266
210
0.0
220
-0.0000000000000002
230
-1.0
 50
355.0000000000001137
 51
0.0000000000005343
  0
ARC
  5
3410
  8
0
  6
VERDECKT
 62
     1
 10
-38.9999999999972005
 20
12.4366094290852303
 30
0.0
 40
10.0000000000027995
210
0.0
220
-0.0000000000000002
230
-1.0
 50
180.0000000000007958
 51
184.9999999999994031
  0
LINE
  5
3411
  8
0
  6
VERDECKT
 62
     1
 10
-47.9501360376889281
 20
-0.0000000000000009
 30
0.0
 11
-48.9619469809174532
 21
11.5650520016085103
 31
-0.0000000000000026
210
0.0
220
1.0
230
-0.0000000000000002
  0
LINE
  5
3412
  8
0
  6
VERDECKT
 62
     1
 10
47.9501360376889281
 20
-0.0000000000000009
 30
0.0
 11
48.9619469809174532
 21
11.5650520016085103
 31
-0.0000000000000026
210
0.0
220
1.0
230
-0.0000000000000002
  0
LINE
  5
3413
  8
0
  6
VERDECKT
 62
     1
 10
49.0
 20
263.966007480131907
 30
-0.0000000000000586
 11
49.0
 21
12.4366094290850793
 31
-0.0000000000000028
210
0.0
220
1.0
230
-0.0000000000000002
  0
LINE
  5
3414
  8
0
  6
VERDECKT
 62
     1
 10
-49.0
 20
263.966007480131907
 30
-0.0000000000000586
 11
-49.0
 21
12.4366094290850793
 31
-0.0000000000000028
210
0.0
220
1.0
230
-0.0000000000000002
  0
ARC
  5
3415
  8
0
  6
VERDECKT
 62
     1
 10
59.000000000000739
 20
263.9660074801316227
 30
0.0
 40
10.0000000000007407
210
0.0
220
-0.0000000000000002
230
-1.0
 50
145.6988472432084052
 51
179.9999999999986073
  0
ARC
  5
3416
  8
0
  6
VERDECKT
 62
     1
 10
-59.000000000000739
 20
263.9660074801316227
 30
0.0
 40
10.0000000000007407
210
0.0
220
-0.0000000000000002
230
-1.0
 50
0.0
 51
34.3011527567902377
  0
ARC
  5
3417
  8
0
  6
VERDECKT
 62
     1
 10
39.999999999998451
 20
276.9274888769480185
 30
0.0
 40
13.0000000000015294
210
0.0
220
-0.0000000000000002
230
-1.0
 50
325.6988472432112758
 51
359.9999999999992042
  0
ARC
  5
3418
  8
0
  6
VERDECKT
 62
     1
 10
-39.9999999999981881
 20
276.9274888769480754
 30
0.0
 40
13.0000000000017994
210
0.0
220
-0.0000000000000002
230
-1.0
 50
180.0000000000011084
 51
214.3011527567880137
  0
LINE
  5
3419
  8
0
  6
VERDECKT
 62
     1
 10
53.0
 20
295.4997994693184751
 30
-0.0000000000000656
 11
53.0
 21
276.9274888769479048
 31
-0.0000000000000615
210
0.0
220
1.0
230
-0.0000000000000002
  0
LINE
  5
341A
  8
0
  6
VERDECKT
 62
     1
 10
-53.0
 20
295.4997994693184751
 30
-0.0000000000000656
 11
-53.0
 21
276.9274888769479048
 31
-0.0000000000000615
210
0.0
220
1.0
230
-0.0000000000000002
  0
ARC
  5
341B
  8
0
  6
VERDECKT
 62
     1
 10
67.0000000000000853
 20
295.4997994693183045
 30
0.0
 40
14.0000000000000995
210
0.0
220
-0.0000000000000002
230
-1.0
 50
153.1119523822777921
 51
179.9999999999992042
  0
ARC
  5
341C
  8
0
  6
VERDECKT
 62
     1
 10
-67.0000000000002274
 20
295.4997994693183045
 30
0.0
 40
14.0000000000002292
210
0.0
220
-0.0000000000000002
230
-1.0
 50
0.0000000000006997
 51
26.8880476177218988
  0
ARC
  5
341D
  8
0
  6
VERDECKT
 62
     1
 10
34.0000000000012292
 20
312.2329999999994925
 30
0.0
 40
22.9999999999987814
210
0.0
220
-0.0000000000000002
230
-1.0
 50
333.1119523822741257
 51
0.0000000000008524
  0
ARC
  5
341E
  8
0
  6
VERDECKT
 62
     1
 10
-34.0000000000011084
 20
312.2329999999994925
 30
0.0
 40
22.9999999999988916
210
0.0
220
-0.0000000000000002
230
-1.0
 50
179.9999999999990905
 51
206.8880476177257037
  0
LINE
  5
341F
  8
0
  6
VERDECKT
 62
     1
 10
57.0
 20
327.3952485374289267
 30
-0.0000000000000727
 11
57.0
 21
312.2329999999998904
 31
-0.0000000000000693
210
0.0
220
1.0
230
-0.0000000000000002
  0
LINE
  5
3420
  8
0
  6
VERDECKT
 62
     1
 10
-57.0
 20
327.3952485374289267
 30
-0.0000000000000727
 11
-57.0
 21
312.2329999999998904
 31
-0.0000000000000693
210
0.0
220
1.0
230
-0.0000000000000002
  0
ARC
  5
3421
  8
0
  6
VERDECKT
 62
     1
 10
33.9999999999981384
 20
327.395248537428472
 30
0.0
 40
23.0000000000018616
210
0.0
220
-0.0000000000000002
230
-1.0
 50
0.0000000000009923
 51
24.9999999999977405
  0
ARC
  5
3422
  8
0
  6
VERDECKT
 62
     1
 10
-33.9999999999981029
 20
327.395248537428472
 30
0.0
 40
23.0000000000019007
210
0.0
220
-0.0000000000000002
230
-1.0
 50
155.0000000000019895
 51
179.9999999999988916
  0
LINE
  5
3423
  8
0
  6
VERDECKT
 62
     1
 10
53.4999999999999787
 20
340.0000000000001137
 30
-0.0000000000000755
 11
54.8450791018430905
 21
337.1154685574646237
 31
-0.0000000000000749
210
0.0
220
1.0
230
-0.0000000000000002
  0
LINE
  5
3424
  8
0
  6
VERDECKT
 62
     1
 10
-53.4999999999999787
 20
340.0000000000001137
 30
-0.0000000000000755
 11
-54.8450791018430834
 21
337.1154685574646805
 31
-0.0000000000000749
210
0.0
220
1.0
230
-0.0000000000000002
  0
LINE
  5
3425
  8
0
  6
VERDECKT
 62
     1
 10
51.0
 20
234.000000000000199
 30
-0.000000000000052
 11
51.0
 21
130.0000000000001137
 31
-0.0000000000000289
210
0.0
220
1.0
230
-0.0000000000000002
  0
LINE
  5
3426
  8
0
  6
VERDECKT
 62
     1
 10
-51.0
 20
234.000000000000199
 30
-0.000000000000052
 11
-51.0
 21
130.0000000000001137
 31
-0.0000000000000289
210
0.0
220
1.0
230
-0.0000000000000002
  0
LINE
  5
3427
  8
0
  6
VERDECKT
 62
     1
 10
-67.4000000000000909
 20
130.0000000000001137
 30
-0.0000000000000289
 11
-67.4000000000000909
 21
230.000000000000199
 31
-0.0000000000000511
210
0.0
220
1.0
230
-0.0000000000000002
  0
LINE
  5
3428
  8
0
  6
VERDECKT
 62
     1
 10
67.4000000000000909
 20
130.0000000000001137
 30
-0.0000000000000289
 11
67.4000000000000909
 21
230.000000000000199
 31
-0.0000000000000511
210
0.0
220
1.0
230
-0.0000000000000002
  0
LINE
  5
3429
  8
0
  6
VERDECKT
 62
     1
 10
52.0000000000001066
 20
234.000000000000199
 30
-0.000000000000052
 11
52.0000000000001066
 21
230.000000000000199
 31
-0.0000000000000511
210
0.0
220
1.0
230
-0.0000000000000002
  0
LINE
  5
342A
  8
0
  6
VERDECKT
 62
     1
 10
-51.9999999999998792
 20
234.000000000000199
 30
-0.000000000000052
 11
-51.9999999999998792
 21
230.000000000000199
 31
-0.0000000000000511
210
0.0
220
1.0
230
-0.0000000000000002
  0
ENDBLK
  5
342C
  8
0
  0
BLOCK
  8
0
  2
A$C04417435
 70
     0
 10
0.0
 20
0.0
 30
0.0
  3
A$C04417435
  1

  0
CIRCLE
  5
3430
  8
0
  6
CONTINUOUS
 62
     3
 10
0.0
 20
0.0
 30
0.0
 40
47.9501360376889281
  0
CIRCLE
  5
3431
  8
0
  6
CONTINUOUS
 62
     3
 10
0.0000000000000586
 20
0.0
 30
0.0
 40
49.0
  0
CIRCLE
  5
3432
  8
0
  6
CONTINUOUS
 62
     3
 10
0.0000000000000727
 20
0.0
 30
0.0
 40
59.0
  0
CIRCLE
  5
3433
  8
0
  6
CONTINUOUS
 62
     3
 10
0.0000000000000656
 20
0.0
 30
0.0
 40
53.0
  0
CIRCLE
  5
3434
  8
0
  6
CONTINUOUS
 62
     3
 10
0.0000000000000755
 20
0.0
 30
0.0
 40
53.5
  0
CIRCLE
  5
3435
  8
0
  6
CONTINUOUS
 62
     3
 10
0.0000000000000755
 20
0.0
 30
0.0
 40
55.7067558379250087
  0
CIRCLE
  5
3436
  8
0
  6
CONTINUOUS
 62
     3
 10
0.0000000000000511
 20
0.0
 30
0.0
 40
76.2000000000000455
  0
CIRCLE
  5
3437
  8
0
  6
CONTINUOUS
 62
     3
 10
0.0000000000001656
 20
0.0
 30
0.0
 40
71.4999999999998863
  0
CIRCLE
  5
3438
  8
0
  6
VERDECKT
 62
     1
 10
0.0000000000000656
 20
0.0
 30
0.0
 40
55.0
  0
CIRCLE
  5
3439
  8
0
  6
VERDECKT
 62
     1
 10
0.0000000000000586
 20
0.0
 30
0.0
 40
51.0
  0
CIRCLE
  5
343A
  8
0
  6
VERDECKT
 62
     1
 10
0.0000000000000727
 20
0.0
 30
0.0
 40
57.0
  0
CIRCLE
  5
343B
  8
0
  6
VERDECKT
 62
     1
 10
0.0
 20
0.0
 30
0.0
 40
49.9577757127756286
  0
CIRCLE
  5
343C
  8
0
  6
VERDECKT
 62
     1
 10
0.0000000000000511
 20
0.0
 30
0.0
 40
67.4000000000000909
  0
CIRCLE
  5
343D
  8
0
  6
VERDECKT
 62
     1
 10
0.0000000000001656
 20
0.0
 30
0.0
 40
52.0
  0
ENDBLK
  5
343F
  8
0
  0
ENDSEC
  0
SECTION
  2
ENTITIES
  0
TEXT
  5
8F
  8
VOLL
 10
78.076754716981128
 20
31.025947764705851
 30
0.0
 40
1.8
  1

  7
GREEKS
  0
INSERT
  5
FA4
  8
ADSK_ASSOC_ENTITY_BACKUPS
  2
*S0
 10
0.0
 20
0.0
 30
0.0
  0
INSERT
  5
342D
  8
STEMPEL
  2
A$C58E277D5
 10
0.0
 20
0.0
 30
0.0
  0
INSERT
  5
3440
  8
STEMPEL
  2
A$C04417435
 10
0.0
 20
-176.1999999999999886
 30
0.0
  0
VIEWPORT
  5
702
 67
     1
  8
0
 10
99.9595808982848837
 20
142.0247198271484024
 30
0.0
 40
557.5441164704363928
 41
298.4396363082536254
 68
     1
 69
     1
1001
ACAD
1000
MVIEW
1002
{
1070
    16
1010
0.0
1020
0.0
1030
0.0
1010
0.0
1020
0.0
1030
1.0
1040
0.0
1040
298.4396363082536254
1040
99.9595808982848837
1040
142.0247198271484024
1040
50.0
1040
0.0
1040
0.0
1070
     0
1070
  1500
1070
     1
1070
     1
1070
     0
1070
     0
1070
     0
1070
     0
1040
0.0
1040
0.0
1040
0.0
1040
10.0
1040
10.0
1040
10.0
1040
10.0
1070
     0
1002
{
1002
}
1002
}
1001
GENIUS_GENOBJ-N-SDF_13
1002
{
1000
OWNER
1000
GEN
1002
}
1001
GENIUS_GENODEF_13
1002
{
1000
HIER
1070
     0
1002
}
1002
{
1000
MANEDIT
1070
     0
1002
}
1002
{
1000
NOSEL
1070
     0
1002
}
1002
{
1000
BEHIND
1070
     0
1002
}
1002
{
1000
OTHER
1070
     0
1002
}
1002
{
1000
REACTOR
1002
}
1001
GENIUS_GENSCREG_15
1000
PF
1040
1.0
1000
DF
1040
1.0
1000
MIN
1011
-190.1930551421023097
1021
0.0
1031
0.0
1021
14.0106834167205001
1031
0.0
1000
MAX
1011
396.0426666644560783
1021
0.0
1031
0.0
1021
271.940735843265827
1031
0.0
1000
FLAGS
1070
     4
  0
ENDSEC
  0
EOF
