  0
SECTION
  2
HEADER
  9
$ACADVER
  1
AC1009
  9
$INSBASE
 10
0.0
 20
0.0
 30
0.0
  9
$EXTMIN
 10
-63.5147541233047832
 20
-227.002157778132414
 30
-0.0000000000001007
  9
$EXTMAX
 10
63.5279395535212572
 20
325.0446179169750849
 30
0.0000000000000214
  9
$LIMMIN
 10
0.0
 20
0.0
  9
$LIMMAX
 10
419.9999999999998863
 20
594.0
  9
$ORTHOMODE
 70
     1
  9
$REGENMODE
 70
     1
  9
$FILLMODE
 70
     1
  9
$QTEXTMODE
 70
     0
  9
$MIRRTEXT
 70
     1
  9
$DRAGMODE
 70
     2
  9
$LTSCALE
 40
20.0
  9
$OSMODE
 70
  2559
  9
$ATTMODE
 70
     1
  9
$TEXTSIZE
 40
3.5
  9
$TRACEWID
 40
0.5
  9
$TEXTSTYLE
  7
STANDARD
  9
$CLAYER
  8
STEMPEL
  9
$CELTYPE
  6
BYLAYER
  9
$CECOLOR
 62
   256
  9
$DIMSCALE
 40
1.0
  9
$DIMASZ
 40
3.5
  9
$DIMEXO
 40
1.0
  9
$DIMDLI
 40
7.0
  9
$DIMRND
 40
0.0
  9
$DIMDLE
 40
0.0
  9
$DIMEXE
 40
1.0
  9
$DIMTP
 40
0.0
  9
$DIMTM
 40
0.0
  9
$DIMTXT
 40
3.5
  9
$DIMCEN
 40
1.5
  9
$DIMTSZ
 40
0.0
  9
$DIMTOL
 70
     0
  9
$DIMLIM
 70
     0
  9
$DIMTIH
 70
     0
  9
$DIMTOH
 70
     0
  9
$DIMSE1
 70
     0
  9
$DIMSE2
 70
     0
  9
$DIMTAD
 70
     1
  9
$DIMZIN
 70
     8
  9
$DIMBLK
  1

  9
$DIMASO
 70
     1
  9
$DIMSHO
 70
     0
  9
$DIMPOST
  1

  9
$DIMAPOST
  1

  9
$DIMALT
 70
     0
  9
$DIMALTD
 70
     2
  9
$DIMALTF
 40
25.3999999999999986
  9
$DIMLFAC
 40
1.0
  9
$DIMTOFL
 70
     1
  9
$DIMTVP
 40
0.0
  9
$DIMTIX
 70
     0
  9
$DIMSOXD
 70
     0
  9
$DIMSAH
 70
     0
  9
$DIMBLK1
  1

  9
$DIMBLK2
  1

  9
$DIMSTYLE
  2
STANDARD
  9
$DIMCLRD
 70
     0
  9
$DIMCLRE
 70
     0
  9
$DIMCLRT
 70
     1
  9
$DIMTFAC
 40
0.5142857142857143
  9
$DIMGAP
 40
1.5
  9
$LUNITS
 70
     2
  9
$LUPREC
 70
     2
  9
$SKETCHINC
 40
1.0
  9
$FILLETRAD
 40
10.0
  9
$AUNITS
 70
     0
  9
$AUPREC
 70
     0
  9
$MENU
  1
ACAD
  9
$ELEVATION
 40
0.0
  9
$PELEVATION
 40
0.0
  9
$THICKNESS
 40
0.0
  9
$LIMCHECK
 70
     0
  9
$BLIPMODE
 70
     0
  9
$CHAMFERA
 40
0.0
  9
$CHAMFERB
 40
0.0
  9
$SKPOLY
 70
     0
  9
$TDCREATE
 40
2455397.8646990740671754
  9
$TDUPDATE
 40
2458380.6224652770906687
  9
$TDINDWG
 40
0.4154726736
  9
$TDUSRTIMER
 40
0.4154726736
  9
$USRTIMER
 70
     1
  9
$ANGBASE
 50
0.0
  9
$ANGDIR
 70
     0
  9
$PDMODE
 70
     0
  9
$PDSIZE
 40
0.0
  9
$PLINEWID
 40
0.0
  9
$COORDS
 70
     1
  9
$SPLFRAME
 70
     0
  9
$SPLINETYPE
 70
     6
  9
$SPLINESEGS
 70
     8
  9
$ATTDIA
 70
     1
  9
$ATTREQ
 70
     1
  9
$HANDLING
 70
     1
  9
$HANDSEED
  5
31B4
  9
$SURFTAB1
 70
     6
  9
$SURFTAB2
 70
     6
  9
$SURFTYPE
 70
     6
  9
$SURFU
 70
     6
  9
$SURFV
 70
     6
  9
$UCSNAME
  2

  9
$UCSORG
 10
0.0
 20
0.0
 30
0.0
  9
$UCSXDIR
 10
1.0
 20
0.0
 30
0.0
  9
$UCSYDIR
 10
0.0
 20
1.0
 30
0.0
  9
$PUCSNAME
  2

  9
$PUCSORG
 10
0.0
 20
0.0
 30
0.0
  9
$PUCSXDIR
 10
1.0
 20
0.0
 30
0.0
  9
$PUCSYDIR
 10
0.0
 20
1.0
 30
0.0
  9
$USERI1
 70
     0
  9
$USERI2
 70
     0
  9
$USERI3
 70
     0
  9
$USERI4
 70
     0
  9
$USERI5
 70
     0
  9
$USERR1
 40
0.0
  9
$USERR2
 40
0.0
  9
$USERR3
 40
0.0
  9
$USERR4
 40
0.0
  9
$USERR5
 40
0.0
  9
$WORLDVIEW
 70
     1
  9
$SHADEDGE
 70
     3
  9
$SHADEDIF
 70
    70
  9
$TILEMODE
 70
     1
  9
$MAXACTVP
 70
    16
  9
$PLIMCHECK
 70
     0
  9
$PEXTMIN
 10
1.0000000000000000E+20
 20
1.0000000000000000E+20
 30
1.0000000000000000E+20
  9
$PEXTMAX
 10
-1.0000000000000000E+20
 20
-1.0000000000000000E+20
 30
-1.0000000000000000E+20
  9
$PLIMMIN
 10
-5.027082920074462
 20
-6.4382776093749987
  9
$PLIMMAX
 10
204.9462447166442871
 20
290.4877172636719251
  9
$UNITMODE
 70
     0
  9
$VISRETAIN
 70
     0
  9
$PLINEGEN
 70
     0
  9
$PSLTSCALE
 70
     0
  0
ENDSEC
  0
SECTION
  2
TABLES
  0
TABLE
  2
VPORT
 70
     1
  0
VPORT
  2
*ACTIVE
 70
     0
 10
0.0
 20
0.0
 11
1.0
 21
1.0
 12
-350.7490530368448276
 22
-113.4787699305785935
 13
0.0
 23
0.0
 14
1.0
 24
1.0
 15
10.0
 25
10.0
 16
-0.0000000000005116
 26
0.0
 36
2288.7435009083778823
 17
350.755645751953125
 27
162.5
 37
0.0000000000000404
 40
554.8609478736722167
 41
1.868197278911564
 42
50.0
 43
0.0
 44
0.0
 50
0.0
 51
0.0
 71
     0
 72
  1500
 73
     1
 74
     0
 75
     0
 76
     0
 77
     0
 78
     0
  0
ENDTAB
  0
TABLE
  2
LTYPE
 70
     7
  0
LTYPE
  2
CONTINUOUS
 70
     0
  3
Solid line
 72
    65
 73
     0
 40
0.0
  0
LTYPE
  2
PHANTOM2
 70
     0
  3
Phantom (.5x) ___ _ _ ___ _ _ ___ _ _ ___ _ _
 72
    65
 73
     6
 40
1.25
 49
0.625
 49
-0.125
 49
0.125
 49
-0.125
 49
0.125
 49
-0.125
  0
LTYPE
  2
AUSGEZOGEN
 70
     0
  3
Ausgezogene Linie
 72
    65
 73
     0
 40
0.0
  0
LTYPE
  2
VERDECKT
 70
     0
  3
_ _ _ _ _ _ _ _ _ _ _ _ _ _ _ _ _ _ _ _ _ _ _
 72
    65
 73
     2
 40
0.375
 49
0.25
 49
-0.125
  0
ENDTAB
  0
TABLE
  2
LAYER
 70
    17
  0
LAYER
  2
0
 70
     0
 62
     7
  6
CONTINUOUS
  0
LAYER
  2
VOLL
 70
     0
 62
     1
  6
CONTINUOUS
  0
LAYER
  2
STEMPEL
 70
     0
 62
     3
  6
CONTINUOUS
  0
LAYER
  2
DEFPOINTS
 70
     0
 62
     7
  6
CONTINUOUS
  0
LAYER
  2
ADSK_ASSOC_ENTITY_BACKUPS
 70
     0
 62
     7
  6
CONTINUOUS
  0
ENDTAB
  0
TABLE
  2
STYLE
 70
     2
  0
STYLE
  2
STANDARD
 70
     0
 40
0.0
 41
0.8
 50
0.0
 71
     0
 42
3.5
  3
simplex.shx
  4

  0
STYLE
  2
GREEKS
 70
     0
 40
0.0
 41
0.8
 50
0.0
 71
     0
 42
2.5
  3
SIMPLEX.shx
  4

  0
ENDTAB
  0
TABLE
  2
VIEW
 70
     2
  0
ENDTAB
  0
TABLE
  2
UCS
 70
     0
  0
ENDTAB
  0
TABLE
  2
APPID
 70
    34
  0
APPID
  2
ACAD
 70
     0
  0
APPID
  2
ACAD_EXEMPT_FROM_CAD_STANDARDS
 70
     0
  0
APPID
  2
ACAD_NAV_VCDISPLAY
 70
     0
  0
APPID
  2
ACAECLAYERSTANDARD
 70
     0
  0
APPID
  2
ACCMTRANSPARENCY
 70
     0
  0
APPID
  2
ACAD_PSEXT
 70
     0
  0
APPID
  2
GRADIENTCOLOR1ACI
 70
     0
  0
APPID
  2
GRADIENTCOLOR2ACI
 70
     0
  0
APPID
  2
ACAD_MLEADERVER
 70
     0
  0
APPID
  2
ACAD_OBJECT_CHANGE_GUID
 70
     0
  0
APPID
  2
MCAD_NO_VIS
 70
     0
  0
APPID
  2
ACAD_TEMP_GRAPHIC
 70
     0
  0
APPID
  2
ACATTRIBSERVICES
 70
     0
  0
APPID
  2
DESIGNERASSEMBLIES
 70
     0
  0
APPID
  2
ACAD_DSTYLE_DIMJAG
 70
     0
  0
APPID
  2
ACAD_DSTYLE_DIMBREAK
 70
     0
  0
APPID
  2
GENIUS_GENSCREG_15
 70
     0
  0
APPID
  2
GENIUS_GENOBJ-N-SDF_13
 70
     0
  0
APPID
  2
GENIUS_GENODEF_13
 70
     0
  0
APPID
  2
RAK
 70
     0
  0
APPID
  2
ACAUTHENVIRON
 70
     0
  0
APPID
  2
ACDBDYNAMICBLOCKTRUENAME
 70
     0
  0
APPID
  2
ACDBDYNAMICBLOCKGUID
 70
     0
  0
APPID
  2
ACSYNERGY
 70
     0
  0
APPID
  2
SYNERGY_BODY_TBR_ID
 70
     0
  0
APPID
  2
ACAD_VIEW_EDGE_ID
 70
     0
  0
APPID
  2
ACSYNERGYSKETCH
 70
     0
  0
APPID
  2
ACAD_STEPID
 70
     0
  0
APPID
  2
ACAD_MODELDOC_XFORM
 70
     0
  0
APPID
  2
GENIUS_GENDTOL_13
 70
     0
  0
APPID
  2
ACAD_DSTYLE_DIMINSPECT
 70
     0
  0
APPID
  2
ACADANNOMONITORALERTICONDI
 70
     0
  0
APPID
  2
GENIUS_GENDIMSH_14
 70
     0
  0
APPID
  2
ACDBATTR
 70
     0
  0
ENDTAB
  0
TABLE
  2
DIMSTYLE
 70
     2
  0
DIMSTYLE
  2
STANDARD
 70
     0
  3

  4

  5

  6

  7

 40
1.0
 41
0.18
 42
0.0625
 43
0.38
 44
0.18
 45
0.0
 46
0.0
 47
0.0
 48
0.0
140
0.18
141
0.09
142
0.0
143
25.3999999999999986
144
1.0
145
0.0
146
1.0
147
0.09
 71
     0
 72
     0
 73
     1
 74
     1
 75
     0
 76
     0
 77
     0
 78
     0
170
     0
171
     2
172
     0
173
     0
174
     0
175
     0
176
     0
177
     0
178
     0
  0
ENDTAB
  0
ENDSEC
  0
SECTION
  2
BLOCKS
  0
BLOCK
  8
0
  2
$MODEL_SPACE
 70
     0
 10
0.0
 20
0.0
 30
0.0
  3
$MODEL_SPACE
  1

  0
ENDBLK
  5
36
  8
0
  0
BLOCK
 67
     1
  8
0
  2
$PAPER_SPACE
 70
     0
 10
0.0
 20
0.0
 30
0.0
  3
$PAPER_SPACE
  1

  0
ENDBLK
  5
34
 67
     1
  8
0
  0
BLOCK
  8
0
  2
*S0
 70
     1
 10
0.0
 20
0.0
 30
0.0
  3
*S0
  1

  0
ENDBLK
  5
FA2
  8
0
  0
BLOCK
  8
0
  2
A$C6D8A1851
 70
     0
 10
0.0
 20
0.0
 30
0.0
  3
A$C6D8A1851
  1

  0
LINE
  5
310E
  8
0
  6
CONTINUOUS
 62
     3
 10
-57.5000000000002274
 20
219.0000000000001137
 30
-0.0000000000000634
 11
57.4999999999997726
 21
219.0000000000001137
 31
-0.0000000000000623
210
0.0000000000000002
220
1.0
230
-0.0000000000000002
  0
LINE
  5
310F
  8
0
  6
CONTINUOUS
 62
     3
 10
57.4999999999997726
 20
219.0000000000001137
 30
-0.0000000000000623
 11
57.4999999999997726
 21
215.0000000000001137
 31
-0.0000000000000614
210
0.0000000000000002
220
1.0
230
-0.0000000000000002
  0
LINE
  5
3110
  8
0
  6
CONTINUOUS
 62
     3
 10
-57.5000000000002274
 20
219.0000000000001137
 30
-0.0000000000000634
 11
-57.5000000000002274
 21
215.0000000000001137
 31
-0.0000000000000625
210
0.0000000000000002
220
1.0
230
-0.0000000000000002
  0
LINE
  5
3111
  8
0
  6
CONTINUOUS
 62
     3
 10
-63.5000000000002203
 20
215.0000000000001137
 30
-0.000000000000061
 11
63.4999999999997726
 21
215.0000000000001137
 31
-0.0000000000000629
210
0.0000000000000002
220
1.0
230
-0.0000000000000002
  0
LINE
  5
3112
  8
0
  6
CONTINUOUS
 62
     3
 10
-63.5000000000002203
 20
115.0
 30
-0.0000000000000388
 11
63.4999999999997726
 21
115.0
 31
-0.0000000000000407
210
0.0000000000000002
220
1.0
230
-0.0000000000000002
  0
LINE
  5
3113
  8
0
  6
CONTINUOUS
 62
     3
 10
63.4999999999997726
 20
215.0000000000001137
 30
-0.0000000000000629
 11
63.4999999999997726
 21
115.0
 31
-0.0000000000000407
210
0.0000000000000002
220
1.0
230
-0.0000000000000002
  0
LINE
  5
3114
  8
0
  6
CONTINUOUS
 62
     3
 10
-63.5000000000002203
 20
215.0000000000001137
 30
-0.000000000000061
 11
-63.5000000000002203
 21
115.0
 31
-0.0000000000000388
210
0.0000000000000002
220
1.0
230
-0.0000000000000002
  0
LINE
  5
3115
  8
0
  6
CONTINUOUS
 62
     3
 10
-47.7654046703398834
 20
325.0000000000001137
 30
-0.0000000000000892
 11
47.7654046703396489
 21
325.0
 31
-0.0000000000000835
210
0.0000000000000002
220
1.0
230
-0.0000000000000002
  0
LINE
  5
3116
  8
0
  6
CONTINUOUS
 62
     3
 10
-43.6312251048096869
 20
-0.0000000000000284
 30
0.0000000000000104
 11
43.6312251048096869
 21
0.0000000000000284
 31
-0.0000000000000104
210
0.0000000000000002
220
1.0
230
-0.0000000000000002
  0
LINE
  5
3117
  8
0
  6
CONTINUOUS
 62
     3
 10
47.7654046703396489
 20
325.0000000000001137
 30
-0.0000000000000835
 11
48.7951715611017107
 21
322.7916577762491102
 31
-0.000000000000083
210
0.0000000000000002
220
1.0
230
-0.0000000000000002
  0
LINE
  5
3118
  8
0
  6
CONTINUOUS
 62
     3
 10
-47.7654046703398834
 20
325.0000000000001137
 30
-0.0000000000000892
 11
-48.795171561101931
 21
322.7916577762491102
 31
-0.0000000000000887
210
0.0000000000000002
220
1.0
230
-0.0000000000000002
  0
ARC
  5
3119
  8
0
  6
CONTINUOUS
 62
     3
 10
26.5000000000019291
 20
312.395248537429211
 30
-0.0000000000000063
 40
24.5999999999979799
210
0.0
220
-0.0000000000000002
230
-1.0
 50
0.0
 51
24.999999999997879
  0
ARC
  5
311A
  8
0
  6
CONTINUOUS
 62
     3
 10
-26.5000000000017089
 20
312.395248537429211
 30
0.0000000000000063
 40
24.5999999999979799
210
0.0
220
-0.0000000000000002
230
-1.0
 50
155.0000000000021032
 51
180.0
  0
LINE
  5
311B
  8
0
  6
CONTINUOUS
 62
     3
 10
51.0999999999996817
 20
312.3952485374289267
 30
-0.0000000000000815
 11
51.0999999999996817
 21
305.2998649610191819
 31
-0.00000000000008
210
0.0000000000000002
220
1.0
230
-0.0000000000000002
  0
LINE
  5
311C
  8
0
  6
CONTINUOUS
 62
     3
 10
-51.0999999999999091
 20
312.3952485374289836
 30
-0.0000000000000856
 11
-51.0999999999999091
 21
305.2998649610191819
 31
-0.000000000000084
210
0.0000000000000002
220
1.0
230
-0.0000000000000002
  0
ARC
  5
311D
  8
0
  6
CONTINUOUS
 62
     3
 10
26.1019784290770112
 20
305.3679223879562983
 30
-0.0000000000000062
 40
24.9981142143500108
210
0.0
220
-0.0000000000000002
230
-1.0
 50
334.8764766535934996
 51
359.8440119077915256
  0
ARC
  5
311E
  8
0
  6
CONTINUOUS
 62
     3
 10
-26.1019784290767802
 20
305.3679223879562983
 30
0.0000000000000062
 40
24.9981142143500108
210
0.0
220
-0.0000000000000002
230
-1.0
 50
180.1559880922083892
 51
205.1235233464065004
  0
ARC
  5
311F
  8
0
  6
CONTINUOUS
 62
     3
 10
59.5999999999996817
 20
289.6598669368049741
 30
0.0000000000000142
 40
11.9999999999997602
210
0.0
220
-0.0000000000000002
230
-1.0
 50
154.8779398133690108
 51
180.0
  0
ARC
  5
3120
  8
0
  6
CONTINUOUS
 62
     3
 10
-59.5999999999994472
 20
289.6598669368049741
 30
0.0000000000000142
 40
11.9999999999997708
210
0.0
220
-0.0000000000000002
230
-1.0
 50
0.0
 51
25.1220601866309501
  0
LINE
  5
3121
  8
0
  6
CONTINUOUS
 62
     3
 10
47.5999999999996817
 20
289.6598669368048036
 30
-0.0000000000000757
 11
47.5999999999996817
 21
270.38872641741699
 31
-0.0000000000000714
210
0.0000000000000002
220
1.0
230
-0.0000000000000002
  0
LINE
  5
3122
  8
0
  6
CONTINUOUS
 62
     3
 10
-47.5999999999999019
 20
289.6598669368048036
 30
-0.0000000000000814
 11
-47.5999999999999019
 21
270.38872641741699
 31
-0.0000000000000771
210
0.0000000000000002
220
1.0
230
-0.0000000000000002
  0
ARC
  5
3123
  8
0
  6
CONTINUOUS
 62
     3
 10
35.5999999999998025
 20
270.3887264174172174
 30
-0.0000000000000085
 40
12.0000000000001101
210
0.0
220
-0.0000000000000002
230
-1.0
 50
327.6719358778391893
 51
0.0
  0
ARC
  5
3124
  8
0
  6
CONTINUOUS
 62
     3
 10
-35.599999999999568
 20
270.3887264174172174
 30
0.0000000000000085
 40
12.0000000000001101
210
0.0
220
-0.0000000000000002
230
-1.0
 50
180.0
 51
212.3280641221608107
  0
ARC
  5
3125
  8
0
  6
CONTINUOUS
 62
     3
 10
52.4999999999997726
 20
259.6934003354315905
 30
0.0000000000000159
 40
7.9999999999998881
210
0.0
220
-0.0000000000000002
230
-1.0
 50
147.6719358778377966
 51
180.0000000000015916
  0
ARC
  5
3126
  8
0
  6
CONTINUOUS
 62
     3
 10
-52.4999999999995381
 20
259.6934003354315905
 30
0.0000000000000125
 40
7.9999999999998863
210
0.0
220
-0.0000000000000002
230
-1.0
 50
359.9999999999984084
 51
32.3280641221622105
  0
LINE
  5
3127
  8
0
  6
CONTINUOUS
 62
     3
 10
44.4999999999996589
 20
259.69340033543142
 30
-0.0000000000000683
 11
44.4999999999996589
 21
219.0000000000001137
 31
-0.0000000000000592
210
0.0000000000000002
220
1.0
230
-0.0000000000000002
  0
LINE
  5
3128
  8
0
  6
CONTINUOUS
 62
     3
 10
44.4999999999996589
 20
115.0
 30
-0.0000000000000361
 11
44.4999999999996589
 21
9.9301424913467997
 31
-0.0000000000000128
210
0.0000000000000002
220
1.0
230
-0.0000000000000002
  0
LINE
  5
3129
  8
0
  6
CONTINUOUS
 62
     3
 10
-44.4999999999996589
 20
259.69340033543142
 30
-0.0000000000000471
 11
-44.4999999999996589
 21
219.0000000000001137
 31
-0.000000000000038
210
0.0000000000000002
220
1.0
230
-0.0000000000000002
  0
LINE
  5
312A
  8
0
  6
CONTINUOUS
 62
     3
 10
-44.4999999999996589
 20
115.0
 30
-0.0000000000000149
 11
-44.4999999999996589
 21
9.9301424913467713
 31
0.0000000000000084
210
0.0000000000000002
220
1.0
230
-0.0000000000000002
  0
LINE
  5
312B
  8
0
  6
CONTINUOUS
 62
     3
 10
-43.6312251048096869
 20
-0.0000000000000284
 30
0.0000000000000104
 11
-44.4999999999996589
 21
9.9301424913467713
 31
0.0000000000000082
210
0.0000000000000002
220
1.0
230
-0.0000000000000002
  0
LINE
  5
312C
  8
0
  6
CONTINUOUS
 62
     3
 10
43.6312251048096869
 20
0.0
 30
-0.0000000000000104
 11
44.4999999999996589
 21
9.9301424913467997
 31
-0.0000000000000126
210
0.0000000000000002
220
1.0
230
-0.0000000000000002
  0
LINE
  5
312D
  8
0
  6
VERDECKT
 62
     1
 10
44.9999999999997726
 20
219.0000000000001137
 30
-0.0000000000000593
 11
44.9999999999997726
 21
215.0
 31
-0.0000000000000585
210
0.0000000000000002
220
1.0
230
-0.0000000000000002
  0
LINE
  5
312E
  8
0
  6
VERDECKT
 62
     1
 10
-45.0000000000002274
 20
219.0000000000001137
 30
-0.0000000000000663
 11
-45.0000000000002274
 21
215.0
 31
-0.0000000000000654
210
0.0000000000000002
220
1.0
230
-0.0000000000000002
  0
LINE
  5
312F
  8
0
  6
VERDECKT
 62
     1
 10
54.699999999999811
 20
215.0000000000001137
 30
-0.0000000000000608
 11
54.699999999999811
 21
115.0
 31
-0.0000000000000386
210
0.0000000000000002
220
1.0
230
-0.0000000000000002
  0
LINE
  5
3130
  8
0
  6
VERDECKT
 62
     1
 10
-54.7000000000002728
 20
215.0000000000001137
 30
-0.0000000000000631
 11
-54.7000000000002728
 21
115.0
 31
-0.0000000000000409
210
0.0000000000000002
220
1.0
230
-0.0000000000000002
  0
ARC
  5
3131
  8
0
  6
VERDECKT
 62
     1
 10
32.9000000000162416
 20
10.4366094290851308
 30
-0.0000000000000078
 40
9.9999999999835136
210
0.0
220
-0.0000000000000002
230
-1.0
 50
354.9999999999951115
 51
0.0000000000032569
  0
ARC
  5
3132
  8
0
  6
VERDECKT
 62
     1
 10
-32.9000000000143018
 20
10.4366094290852196
 30
0.0000000000000078
 40
9.9999999999854481
210
0.0
220
-0.0000000000000002
230
-1.0
 50
179.9999999999967031
 51
185.0000000000048885
  0
LINE
  5
3133
  8
0
  6
VERDECKT
 62
     1
 10
-42.0251133647403776
 20
-0.0000000000000284
 30
0.00000000000001
 11
-42.8619469809171889
 21
9.5650520016091871
 31
0.0000000000000079
210
0.0000000000000002
220
1.0
230
-0.0000000000000002
  0
LINE
  5
3134
  8
0
  6
VERDECKT
 62
     1
 10
42.0251133647403776
 20
0.0
 30
-0.00000000000001
 11
42.8619469809171889
 21
9.5650520016091871
 31
-0.0000000000000121
210
0.0000000000000002
220
1.0
230
-0.0000000000000002
  0
LINE
  5
3135
  8
0
  6
VERDECKT
 62
     1
 10
42.8999999999997499
 20
259.69340033543142
 30
-0.0000000000000679
 11
42.8999999999997499
 21
10.43660942908582
 31
-0.0000000000000125
210
0.0000000000000002
220
1.0
230
-0.0000000000000002
  0
LINE
  5
3136
  8
0
  6
VERDECKT
 62
     1
 10
-42.8999999999997499
 20
259.69340033543142
 30
-0.0000000000000474
 11
-42.8999999999997499
 21
10.4366094290857898
 31
0.0000000000000079
210
0.0000000000000002
220
1.0
230
-0.0000000000000002
  0
ARC
  5
3137
  8
0
  6
VERDECKT
 62
     1
 10
26.4999999999966995
 20
312.3952485374284151
 30
-0.0000000000000063
 40
23.0000000000031797
210
0.0
220
-0.0000000000000002
230
-1.0
 50
0.0000000000016284
 51
24.9999999999949196
  0
ARC
  5
3138
  8
0
  6
VERDECKT
 62
     1
 10
-26.4999999999964793
 20
312.3952485374284151
 30
0.0000000000000063
 40
23.0000000000031797
210
0.0
220
-0.0000000000000002
230
-1.0
 50
155.0000000000050875
 51
179.9999999999984084
  0
LINE
  5
3139
  8
0
  6
VERDECKT
 62
     1
 10
45.9999999999996518
 20
325.0
 30
-0.0000000000000831
 11
47.3450791018432184
 21
322.1154685574638847
 31
-0.0000000000000825
210
0.0000000000000002
220
1.0
230
-0.0000000000000002
  0
LINE
  5
313A
  8
0
  6
VERDECKT
 62
     1
 10
-45.9999999999998792
 20
325.0000000000001137
 30
-0.0000000000000896
 11
-47.3450791018434529
 21
322.1154685574639984
 31
-0.000000000000089
210
0.0000000000000002
220
1.0
230
-0.0000000000000002
  0
LINE
  5
313B
  8
0
  6
VERDECKT
 62
     1
 10
44.4999999999996589
 20
219.0000000000001137
 30
-0.0000000000000592
 11
44.4999999999996589
 21
115.0
 31
-0.0000000000000361
210
0.0000000000000002
220
1.0
230
-0.0000000000000002
  0
LINE
  5
313C
  8
0
  6
VERDECKT
 62
     1
 10
-44.4999999999996589
 20
219.0000000000001137
 30
-0.000000000000038
 11
-44.4999999999996589
 21
115.0
 31
-0.0000000000000149
210
0.0000000000000002
220
1.0
230
-0.0000000000000002
  0
ARC
  5
313D
  8
0
  6
VERDECKT
 62
     1
 10
52.5000000000012506
 20
259.6934003354310221
 30
0.0000000000000159
 40
9.6000000000013852
210
0.0
220
-0.0000000000000002
230
-1.0
 50
147.6719358778404967
 51
179.9999999999984084
  0
ARC
  5
313E
  8
0
  6
VERDECKT
 62
     1
 10
-52.5000000000011298
 20
259.6934003354310221
 30
0.0000000000000125
 40
9.6000000000015007
210
0.0
220
-0.0000000000000002
230
-1.0
 50
0.0000000000016284
 51
32.3280641221594465
  0
ARC
  5
313F
  8
0
  6
VERDECKT
 62
     1
 10
35.5999999999987722
 20
270.3887264174176721
 30
-0.0000000000000085
 40
10.4000000000013504
210
0.0
220
-0.0000000000000002
230
-1.0
 50
327.671935877837825
 51
359.9999999999951115
  0
ARC
  5
3140
  8
0
  6
VERDECKT
 62
     1
 10
-35.5999999999985519
 20
270.3887264174177858
 30
0.0000000000000085
 40
10.4000000000013397
210
0.0
220
-0.0000000000000002
230
-1.0
 50
180.0000000000048885
 51
212.3280641221622034
  0
LINE
  5
3141
  8
0
  6
VERDECKT
 62
     1
 10
45.9999999999997726
 20
289.6598669368048036
 30
-0.0000000000000753
 11
45.9999999999997726
 21
270.38872641741699
 31
-0.000000000000071
210
0.0000000000000002
220
1.0
230
-0.0000000000000002
  0
LINE
  5
3142
  8
0
  6
VERDECKT
 62
     1
 10
-46.0
 20
289.6598669368048036
 30
-0.0000000000000818
 11
-46.0
 21
270.38872641741699
 31
-0.0000000000000775
210
0.0000000000000002
220
1.0
230
-0.0000000000000002
  0
ARC
  5
3143
  8
0
  6
VERDECKT
 62
     1
 10
59.6000000000010388
 20
289.6598669368044057
 30
0.0000000000000142
 40
13.6000000000011596
210
0.0
220
-0.0000000000000002
230
-1.0
 50
154.8779398133690108
 51
179.9999999999984084
  0
ARC
  5
3144
  8
0
  6
VERDECKT
 62
     1
 10
-59.6000000000008185
 20
289.6598669368044057
 30
0.0000000000000142
 40
13.6000000000011596
210
0.0
220
-0.0000000000000002
230
-1.0
 50
0.0000000000016284
 51
25.1220601866309501
  0
ARC
  5
3145
  8
0
  6
VERDECKT
 62
     1
 10
26.1018503616313602
 20
305.3679661431904151
 30
-0.0000000000000062
 40
23.3982487436666489
210
0.0
220
-0.0000000000000002
230
-1.0
 50
334.8764127392013847
 51
359.833238979976386
  0
ARC
  5
3146
  8
0
  6
VERDECKT
 62
     1
 10
-26.1018503616311399
 20
305.3679661431904151
 30
0.0000000000000062
 40
23.3982487436666595
210
0.0
220
-0.0000000000000002
230
-1.0
 50
180.1667610200235004
 51
205.1235872607985868
  0
LINE
  5
3147
  8
0
  6
VERDECKT
 62
     1
 10
49.4999999999996589
 20
312.3952485374289267
 30
-0.0000000000000812
 11
49.4999999999996589
 21
305.2998649610188977
 31
-0.0000000000000796
210
0.0000000000000002
220
1.0
230
-0.0000000000000002
  0
LINE
  5
3148
  8
0
  6
VERDECKT
 62
     1
 10
-49.4999999999998792
 20
312.3952485374289836
 30
-0.000000000000086
 11
-49.4999999999998792
 21
305.2998649610188977
 31
-0.0000000000000844
210
0.0000000000000002
220
1.0
230
-0.0000000000000002
  0
ENDBLK
  5
30F7
  8
0
  0
BLOCK
  8
0
  2
A$C40231FF9
 70
     0
 10
0.0
 20
0.0
 30
0.0
  3
A$C40231FF9
  1

  0
CIRCLE
  5
3150
  8
0
  6
CONTINUOUS
 62
     3
 10
0.0
 20
0.0
 30
0.0
 40
57.5
  0
CIRCLE
  5
3151
  8
0
  6
CONTINUOUS
 62
     3
 10
0.0
 20
0.0
 30
0.0
 40
63.5000000000000426
  0
CIRCLE
  5
3152
  8
0
  6
CONTINUOUS
 62
     3
 10
0.0000000000002274
 20
0.0
 30
0.0
 40
42.0251133647404913
  0
CIRCLE
  5
3153
  8
0
  6
CONTINUOUS
 62
     3
 10
0.0000000000001137
 20
0.0
 30
0.0
 40
42.8999999999997286
  0
CIRCLE
  5
3154
  8
0
  6
CONTINUOUS
 62
     3
 10
0.0000000000001137
 20
0.0
 30
0.0
 40
45.9999999999997797
  0
CIRCLE
  5
3155
  8
0
  6
CONTINUOUS
 62
     3
 10
0.0000000000001137
 20
0.0
 30
0.0
 40
47.7654046703397697
  0
CIRCLE
  5
3156
  8
0
  6
CONTINUOUS
 62
     3
 10
0.0000000000001137
 20
0.0
 30
0.0
 40
51.0999999999997883
  0
CIRCLE
  5
3157
  8
0
  6
VERDECKT
 62
     1
 10
0.0
 20
0.0
 30
0.0
 40
45.0
  0
CIRCLE
  5
3158
  8
0
  6
VERDECKT
 62
     1
 10
0.0
 20
0.0
 30
0.0
 40
54.700000000000081
  0
CIRCLE
  5
3159
  8
0
  6
VERDECKT
 62
     1
 10
0.0000000000001137
 20
0.0
 30
0.0
 40
49.4999999999997726
  0
CIRCLE
  5
315A
  8
0
  6
VERDECKT
 62
     1
 10
0.0000000000001137
 20
0.0
 30
0.0
 40
47.5999999999997883
  0
CIRCLE
  5
315B
  8
0
  6
VERDECKT
 62
     1
 10
0.0000000000001137
 20
0.0
 30
0.0
 40
44.4999999999997584
  0
CIRCLE
  5
315C
  8
0
  6
VERDECKT
 62
     1
 10
0.0000000000002274
 20
0.0
 30
0.0
 40
43.6312251048096869
  0
ENDBLK
  5
3109
  8
0
  0
ENDSEC
  0
SECTION
  2
ENTITIES
  0
TEXT
  5
8F
  8
VOLL
 10
78.076754716981128
 20
31.025947764705851
 30
0.0
 40
1.8
  1

  7
GREEKS
  0
INSERT
  5
FA4
  8
ADSK_ASSOC_ENTITY_BACKUPS
  2
*S0
 10
0.0
 20
0.0
 30
0.0
  0
INSERT
  5
30F8
  8
STEMPEL
  2
A$C6D8A1851
 10
0.0
 20
0.0
 30
0.0
  0
INSERT
  5
310A
  8
STEMPEL
  2
A$C40231FF9
 10
0.0000000000000414
 20
-163.5
 30
0.0
  0
VIEWPORT
  5
702
 67
     1
  8
0
 10
99.9595808982848837
 20
142.0247198271484024
 30
0.0
 40
557.5441164704363928
 41
298.4396363082536254
 68
     1
 69
     1
1001
ACAD
1000
MVIEW
1002
{
1070
    16
1010
0.0
1020
0.0
1030
0.0
1010
0.0
1020
0.0
1030
1.0
1040
0.0
1040
298.4396363082536254
1040
99.9595808982848837
1040
142.0247198271484024
1040
50.0
1040
0.0
1040
0.0
1070
     0
1070
  1500
1070
     1
1070
     1
1070
     0
1070
     0
1070
     0
1070
     0
1040
0.0
1040
0.0
1040
0.0
1040
10.0
1040
10.0
1040
10.0
1040
10.0
1070
     0
1002
{
1002
}
1002
}
1001
GENIUS_GENOBJ-N-SDF_13
1002
{
1000
OWNER
1000
GEN
1002
}
1001
GENIUS_GENODEF_13
1002
{
1000
HIER
1070
     0
1002
}
1002
{
1000
MANEDIT
1070
     0
1002
}
1002
{
1000
NOSEL
1070
     0
1002
}
1002
{
1000
BEHIND
1070
     0
1002
}
1002
{
1000
OTHER
1070
     0
1002
}
1002
{
1000
REACTOR
1002
}
1001
GENIUS_GENSCREG_15
1000
PF
1040
1.0
1000
DF
1040
1.0
1000
MIN
1011
-266.9298404277604959
1021
0.0
1031
0.0
1021
-39.8451257203885802
1031
0.0
1000
MAX
1011
540.0551112008795371
1021
0.0
1031
0.0
1021
315.2094421581796837
1031
0.0
1000
FLAGS
1070
     4
  0
ENDSEC
  0
EOF
