  0
SECTION
  2
HEADER
  9
$ACADVER
  1
AC1009
  9
$INSBASE
 10
0.0
 20
0.0
 30
0.0
  9
$EXTMIN
 10
-54.0289288982412472
 20
-208.0451024132420912
 30
-0.0000017880349853
  9
$EXTMAX
 10
54.0303983059304826
 20
320.0187113864528783
 30
0.0000000745533252
  9
$LIMMIN
 10
0.0
 20
0.0
  9
$LIMMAX
 10
419.9999999999998863
 20
594.0
  9
$ORTHOMODE
 70
     1
  9
$REGENMODE
 70
     1
  9
$FILLMODE
 70
     1
  9
$QTEXTMODE
 70
     0
  9
$MIRRTEXT
 70
     1
  9
$DRAGMODE
 70
     2
  9
$LTSCALE
 40
20.0
  9
$OSMODE
 70
  2559
  9
$ATTMODE
 70
     1
  9
$TEXTSIZE
 40
3.5
  9
$TRACEWID
 40
0.5
  9
$TEXTSTYLE
  7
STANDARD
  9
$CLAYER
  8
STEMPEL
  9
$CELTYPE
  6
BYLAYER
  9
$CECOLOR
 62
   256
  9
$DIMSCALE
 40
1.0
  9
$DIMASZ
 40
3.5
  9
$DIMEXO
 40
1.0
  9
$DIMDLI
 40
7.0
  9
$DIMRND
 40
0.0
  9
$DIMDLE
 40
0.0
  9
$DIMEXE
 40
1.0
  9
$DIMTP
 40
0.0
  9
$DIMTM
 40
0.0
  9
$DIMTXT
 40
3.5
  9
$DIMCEN
 40
1.5
  9
$DIMTSZ
 40
0.0
  9
$DIMTOL
 70
     0
  9
$DIMLIM
 70
     0
  9
$DIMTIH
 70
     0
  9
$DIMTOH
 70
     0
  9
$DIMSE1
 70
     0
  9
$DIMSE2
 70
     0
  9
$DIMTAD
 70
     1
  9
$DIMZIN
 70
     8
  9
$DIMBLK
  1

  9
$DIMASO
 70
     1
  9
$DIMSHO
 70
     0
  9
$DIMPOST
  1

  9
$DIMAPOST
  1

  9
$DIMALT
 70
     0
  9
$DIMALTD
 70
     2
  9
$DIMALTF
 40
25.3999999999999986
  9
$DIMLFAC
 40
1.0
  9
$DIMTOFL
 70
     1
  9
$DIMTVP
 40
0.0
  9
$DIMTIX
 70
     0
  9
$DIMSOXD
 70
     0
  9
$DIMSAH
 70
     0
  9
$DIMBLK1
  1

  9
$DIMBLK2
  1

  9
$DIMSTYLE
  2
STANDARD
  9
$DIMCLRD
 70
     0
  9
$DIMCLRE
 70
     0
  9
$DIMCLRT
 70
     1
  9
$DIMTFAC
 40
0.5142857142857143
  9
$DIMGAP
 40
1.5
  9
$LUNITS
 70
     2
  9
$LUPREC
 70
     2
  9
$SKETCHINC
 40
1.0
  9
$FILLETRAD
 40
10.0
  9
$AUNITS
 70
     0
  9
$AUPREC
 70
     0
  9
$MENU
  1
ACAD
  9
$ELEVATION
 40
0.0
  9
$PELEVATION
 40
0.0
  9
$THICKNESS
 40
0.0
  9
$LIMCHECK
 70
     0
  9
$BLIPMODE
 70
     0
  9
$CHAMFERA
 40
0.0
  9
$CHAMFERB
 40
0.0
  9
$SKPOLY
 70
     0
  9
$TDCREATE
 40
2455397.8646990740671754
  9
$TDUPDATE
 40
2458380.6201273151673377
  9
$TDINDWG
 40
0.3871202431
  9
$TDUSRTIMER
 40
0.3871202431
  9
$USRTIMER
 70
     1
  9
$ANGBASE
 50
0.0
  9
$ANGDIR
 70
     0
  9
$PDMODE
 70
     0
  9
$PDSIZE
 40
0.0
  9
$PLINEWID
 40
0.0
  9
$COORDS
 70
     1
  9
$SPLFRAME
 70
     0
  9
$SPLINETYPE
 70
     6
  9
$SPLINESEGS
 70
     8
  9
$ATTDIA
 70
     1
  9
$ATTREQ
 70
     1
  9
$HANDLING
 70
     1
  9
$HANDSEED
  5
2F09
  9
$SURFTAB1
 70
     6
  9
$SURFTAB2
 70
     6
  9
$SURFTYPE
 70
     6
  9
$SURFU
 70
     6
  9
$SURFV
 70
     6
  9
$UCSNAME
  2

  9
$UCSORG
 10
0.0
 20
0.0
 30
0.0
  9
$UCSXDIR
 10
1.0
 20
0.0
 30
0.0
  9
$UCSYDIR
 10
0.0
 20
1.0
 30
0.0
  9
$PUCSNAME
  2

  9
$PUCSORG
 10
0.0
 20
0.0
 30
0.0
  9
$PUCSXDIR
 10
1.0
 20
0.0
 30
0.0
  9
$PUCSYDIR
 10
0.0
 20
1.0
 30
0.0
  9
$USERI1
 70
     0
  9
$USERI2
 70
     0
  9
$USERI3
 70
     0
  9
$USERI4
 70
     0
  9
$USERI5
 70
     0
  9
$USERR1
 40
0.0
  9
$USERR2
 40
0.0
  9
$USERR3
 40
0.0
  9
$USERR4
 40
0.0
  9
$USERR5
 40
0.0
  9
$WORLDVIEW
 70
     1
  9
$SHADEDGE
 70
     3
  9
$SHADEDIF
 70
    70
  9
$TILEMODE
 70
     1
  9
$MAXACTVP
 70
    16
  9
$PLIMCHECK
 70
     0
  9
$PEXTMIN
 10
1.0000000000000000E+20
 20
1.0000000000000000E+20
 30
1.0000000000000000E+20
  9
$PEXTMAX
 10
-1.0000000000000000E+20
 20
-1.0000000000000000E+20
 30
-1.0000000000000000E+20
  9
$PLIMMIN
 10
-5.027082920074462
 20
-6.4382776093749987
  9
$PLIMMAX
 10
204.9462447166442871
 20
290.4877172636719251
  9
$UNITMODE
 70
     0
  9
$VISRETAIN
 70
     0
  9
$PLINEGEN
 70
     0
  9
$PSLTSCALE
 70
     0
  0
ENDSEC
  0
SECTION
  2
TABLES
  0
TABLE
  2
VPORT
 70
     1
  0
VPORT
  2
*ACTIVE
 70
     0
 10
0.0
 20
0.0
 11
1.0
 21
1.0
 12
0.0007347038446142
 22
-77.0143895136387755
 13
0.0
 23
0.0
 14
1.0
 24
1.0
 15
10.0
 25
10.0
 16
-0.0000000000002223
 26
0.0
 36
1001.1064807453919911
 17
0.0
 27
133.0011940002441122
 37
-0.0000000000000355
 40
530.7557278887334178
 41
1.868197278911564
 42
50.0
 43
0.0
 44
0.0
 50
0.0
 51
0.0
 71
     0
 72
  1500
 73
     1
 74
     0
 75
     0
 76
     0
 77
     0
 78
     0
  0
ENDTAB
  0
TABLE
  2
LTYPE
 70
     4
  0
LTYPE
  2
CONTINUOUS
 70
     0
  3
Solid line
 72
    65
 73
     0
 40
0.0
  0
LTYPE
  2
PHANTOM2
 70
     0
  3
Phantom (.5x) ___ _ _ ___ _ _ ___ _ _ ___ _ _
 72
    65
 73
     6
 40
1.25
 49
0.625
 49
-0.125
 49
0.125
 49
-0.125
 49
0.125
 49
-0.125
  0
LTYPE
  2
AUSGEZOGEN
 70
     0
  3
Ausgezogene Linie
 72
    65
 73
     0
 40
0.0
  0
LTYPE
  2
VERDECKT
 70
     0
  3
_ _ _ _ _ _ _ _ _ _ _ _ _ _ _ _ _ _ _ _ _ _ _
 72
    65
 73
     2
 40
0.375
 49
0.25
 49
-0.125
  0
ENDTAB
  0
TABLE
  2
LAYER
 70
     5
  0
LAYER
  2
0
 70
     0
 62
     7
  6
CONTINUOUS
  0
LAYER
  2
VOLL
 70
     0
 62
     1
  6
CONTINUOUS
  0
LAYER
  2
STEMPEL
 70
     0
 62
     3
  6
CONTINUOUS
  0
LAYER
  2
DEFPOINTS
 70
     0
 62
     7
  6
CONTINUOUS
  0
LAYER
  2
ADSK_ASSOC_ENTITY_BACKUPS
 70
     1
 62
    -7
  6
CONTINUOUS
  0
ENDTAB
  0
TABLE
  2
STYLE
 70
     2
  0
STYLE
  2
STANDARD
 70
     0
 40
0.0
 41
0.8
 50
0.0
 71
     0
 42
3.5
  3
simplex.shx
  4

  0
STYLE
  2
GREEKS
 70
     0
 40
0.0
 41
0.8
 50
0.0
 71
     0
 42
2.5
  3
SIMPLEX.shx
  4

  0
ENDTAB
  0
TABLE
  2
VIEW
 70
     0
  0
ENDTAB
  0
TABLE
  2
UCS
 70
     0
  0
ENDTAB
  0
TABLE
  2
APPID
 70
    34
  0
APPID
  2
ACAD
 70
     0
  0
APPID
  2
ACAD_EXEMPT_FROM_CAD_STANDARDS
 70
     0
  0
APPID
  2
ACAD_NAV_VCDISPLAY
 70
     0
  0
APPID
  2
ACAECLAYERSTANDARD
 70
     0
  0
APPID
  2
ACCMTRANSPARENCY
 70
     0
  0
APPID
  2
ACAD_PSEXT
 70
     0
  0
APPID
  2
GRADIENTCOLOR1ACI
 70
     0
  0
APPID
  2
GRADIENTCOLOR2ACI
 70
     0
  0
APPID
  2
ACAD_MLEADERVER
 70
     0
  0
APPID
  2
ACAD_OBJECT_CHANGE_GUID
 70
     0
  0
APPID
  2
MCAD_NO_VIS
 70
     0
  0
APPID
  2
ACAD_TEMP_GRAPHIC
 70
     0
  0
APPID
  2
ACATTRIBSERVICES
 70
     0
  0
APPID
  2
DESIGNERASSEMBLIES
 70
     0
  0
APPID
  2
ACAD_DSTYLE_DIMJAG
 70
     0
  0
APPID
  2
ACAD_DSTYLE_DIMBREAK
 70
     0
  0
APPID
  2
GENIUS_GENSCREG_15
 70
     0
  0
APPID
  2
GENIUS_GENOBJ-N-SDF_13
 70
     0
  0
APPID
  2
GENIUS_GENODEF_13
 70
     0
  0
APPID
  2
RAK
 70
     0
  0
APPID
  2
ACAUTHENVIRON
 70
     0
  0
APPID
  2
ACDBDYNAMICBLOCKTRUENAME
 70
     0
  0
APPID
  2
ACDBDYNAMICBLOCKGUID
 70
     0
  0
APPID
  2
ACSYNERGY
 70
     0
  0
APPID
  2
SYNERGY_BODY_TBR_ID
 70
     0
  0
APPID
  2
ACAD_VIEW_EDGE_ID
 70
     0
  0
APPID
  2
ACSYNERGYSKETCH
 70
     0
  0
APPID
  2
ACAD_STEPID
 70
     0
  0
APPID
  2
ACAD_MODELDOC_XFORM
 70
     0
  0
APPID
  2
GENIUS_GENDTOL_13
 70
     0
  0
APPID
  2
ACAD_DSTYLE_DIMINSPECT
 70
     0
  0
APPID
  2
ACADANNOMONITORALERTICONDI
 70
     0
  0
APPID
  2
GENIUS_GENDIMSH_14
 70
     0
  0
APPID
  2
ACDBATTR
 70
     0
  0
ENDTAB
  0
TABLE
  2
DIMSTYLE
 70
     1
  0
DIMSTYLE
  2
STANDARD
 70
     0
  3

  4

  5

  6

  7

 40
1.0
 41
0.18
 42
0.0625
 43
0.38
 44
0.18
 45
0.0
 46
0.0
 47
0.0
 48
0.0
140
0.18
141
0.09
142
0.0
143
25.3999999999999986
144
1.0
145
0.0
146
1.0
147
0.09
 71
     0
 72
     0
 73
     1
 74
     1
 75
     0
 76
     0
 77
     0
 78
     0
170
     0
171
     2
172
     0
173
     0
174
     0
175
     0
176
     0
177
     0
178
     0
  0
ENDTAB
  0
ENDSEC
  0
SECTION
  2
BLOCKS
  0
BLOCK
  8
0
  2
$MODEL_SPACE
 70
     0
 10
0.0
 20
0.0
 30
0.0
  3
$MODEL_SPACE
  1

  0
ENDBLK
  5
36
  8
0
  0
BLOCK
 67
     1
  8
0
  2
$PAPER_SPACE
 70
     0
 10
0.0
 20
0.0
 30
0.0
  3
$PAPER_SPACE
  1

  0
ENDBLK
  5
34
 67
     1
  8
0
  0
BLOCK
  8
0
  2
*S0
 70
     1
 10
0.0
 20
0.0
 30
0.0
  3
*S0
  1

  0
ENDBLK
  5
FA2
  8
0
  0
BLOCK
  8
0
  2
A$C0709042E
 70
     0
 10
0.0
 20
0.0
 30
0.0
  3
A$C0709042E
  1

  0
LINE
  5
2E45
  8
0
  6
CONTINUOUS
 62
     3
 10
-54.0
 20
210.0
 30
-0.0000000000000466
 11
54.0
 21
210.0
 31
-0.0000000000000466
210
0.0
220
1.0
230
-0.0000000000000002
  0
LINE
  5
2E46
  8
0
  6
CONTINUOUS
 62
     3
 10
-54.0
 20
110.0
 30
-0.0000000000000244
 11
54.0
 21
110.0
 31
-0.0000000000000244
210
0.0
220
1.0
230
-0.0000000000000002
  0
LINE
  5
2E47
  8
0
  6
CONTINUOUS
 62
     3
 10
54.0
 20
210.0
 30
-0.0000000000000466
 11
54.0
 21
110.0
 31
-0.0000000000000244
210
0.0
220
1.0
230
-0.0000000000000002
  0
LINE
  5
2E48
  8
0
  6
CONTINUOUS
 62
     3
 10
-54.0
 20
210.0
 30
-0.0000000000000466
 11
-54.0
 21
110.0
 31
-0.0000000000000244
210
0.0
220
1.0
230
-0.0000000000000002
  0
LINE
  5
2E49
  8
0
  6
CONTINUOUS
 62
     3
 10
-47.9999999999998934
 20
214.0000000000001137
 30
-0.0000000000000475
 11
48.0000000000001066
 21
214.0000000000001137
 31
-0.0000000000000475
210
0.0
220
1.0
230
-0.0000000000000002
  0
LINE
  5
2E4A
  8
0
  6
CONTINUOUS
 62
     3
 10
48.0000000000001066
 20
214.0000000000001137
 30
-0.0000000000000475
 11
48.0000000000001066
 21
210.0
 31
-0.0000000000000466
210
0.0
220
1.0
230
-0.0000000000000002
  0
LINE
  5
2E4B
  8
0
  6
CONTINUOUS
 62
     3
 10
-47.9999999999998934
 20
214.0000000000001137
 30
-0.0000000000000475
 11
-47.9999999999998934
 21
210.0
 31
-0.0000000000000466
210
0.0
220
1.0
230
-0.0000000000000002
  0
LINE
  5
2E4C
  8
0
  6
CONTINUOUS
 62
     3
 10
-35.6312251048100279
 20
0.0
 30
0.0
 11
35.6312251048100279
 21
0.0
 31
0.0
210
0.0
220
1.0
230
-0.0000000000000002
  0
LINE
  5
2E4D
  8
0
  6
CONTINUOUS
 62
     3
 10
-39.7653973282752986
 20
320.0
 30
-0.0000000000000711
 11
39.7653973282752986
 21
320.0
 31
-0.0000000000000711
210
0.0
220
1.0
230
-0.0000000000000002
  0
LINE
  5
2E4E
  8
0
  6
CONTINUOUS
 62
     3
 10
42.0848322128003289
 20
310.3218010267062255
 30
-0.0000000000000689
 11
42.0999999999999588
 21
304.6317199518027792
 31
-0.0000000000000676
210
0.0
220
1.0
230
-0.0000000000000002
  0
LINE
  5
2E4F
  8
0
  6
CONTINUOUS
 62
     3
 10
-42.0848322128003289
 20
310.3218010267062255
 30
-0.0000000000000689
 11
-42.0999999999999588
 21
304.6317199518027792
 31
-0.0000000000000676
210
0.0
220
1.0
230
-0.0000000000000002
  0
ARC
  5
2E50
  8
0
  6
CONTINUOUS
 62
     3
 10
17.1000000000117787
 20
304.6999999999977717
 30
0.0
 40
25.0000932431139802
210
0.0
220
-0.0000000000000002
230
-1.0
 50
338.8168456069611238
 51
359.8435140456386989
  0
ARC
  5
2E51
  8
0
  6
CONTINUOUS
 62
     3
 10
-17.1000000000117787
 20
304.6999999999977717
 30
0.0
 40
25.0000932431139802
210
0.0
220
-0.0000000000000002
230
-1.0
 50
180.1564859543611874
 51
201.1831543930389046
  0
ARC
  5
2E52
  8
0
  6
CONTINUOUS
 62
     3
 10
51.5999999999985519
 20
291.3300000000003251
 30
0.0
 40
11.9999999999985292
210
0.0
220
-0.0000000000000002
230
-1.0
 50
158.8168456069595891
 51
180.0000000000011084
  0
ARC
  5
2E53
  8
0
  6
CONTINUOUS
 62
     3
 10
-51.5999999999985519
 20
291.3300000000003251
 30
0.0
 40
11.9999999999985203
210
0.0
220
-0.0000000000000002
230
-1.0
 50
359.99999999999892
 51
21.1831543930403505
  0
LINE
  5
2E54
  8
0
  6
CONTINUOUS
 62
     3
 10
39.6000000000000227
 20
291.3299999999999841
 30
-0.0000000000000647
 11
39.6000000000000227
 21
270.3887264174171037
 31
-0.00000000000006
210
0.0
220
1.0
230
-0.0000000000000002
  0
LINE
  5
2E55
  8
0
  6
CONTINUOUS
 62
     3
 10
-39.6000000000000227
 20
291.3299999999999841
 30
-0.0000000000000647
 11
-39.6000000000000227
 21
270.3887264174171037
 31
-0.00000000000006
210
0.0
220
1.0
230
-0.0000000000000002
  0
ARC
  5
2E56
  8
0
  6
CONTINUOUS
 62
     3
 10
27.5999999999992198
 20
270.3887264174173879
 30
0.0
 40
12.00000000000081
210
0.0
220
-0.0000000000000002
230
-1.0
 50
327.6719358778386777
 51
359.99999999999892
  0
ARC
  5
2E57
  8
0
  6
CONTINUOUS
 62
     3
 10
-27.5999999999992198
 20
270.3887264174173879
 30
0.0
 40
12.00000000000081
210
0.0
220
-0.0000000000000002
230
-1.0
 50
180.0000000000009948
 51
212.3280641221612086
  0
ARC
  5
2E58
  8
0
  6
CONTINUOUS
 62
     3
 10
44.4999999999998508
 20
259.6934003354315905
 30
0.0
 40
7.9999999999998082
210
0.0
220
-0.0000000000000002
230
-1.0
 50
147.6719358778381093
 51
180.0000000000019043
  0
ARC
  5
2E59
  8
0
  6
CONTINUOUS
 62
     3
 10
-44.5000000000000284
 20
259.6934003354315905
 30
0.0
 40
8.0000000000000213
210
0.0
220
-0.0000000000000002
230
-1.0
 50
359.9999999999992042
 51
32.3280641221622673
  0
LINE
  5
2E5A
  8
0
  6
CONTINUOUS
 62
     3
 10
36.5
 20
259.69340033543142
 30
-0.0000000000000577
 11
36.5
 21
214.0000000000001137
 31
-0.0000000000000475
210
0.0
220
1.0
230
-0.0000000000000002
  0
LINE
  5
2E5B
  8
0
  6
CONTINUOUS
 62
     3
 10
36.5
 20
110.0
 30
-0.0000000000000244
 11
36.5
 21
9.9301424913467731
 31
-0.0000000000000022
210
0.0
220
1.0
230
-0.0000000000000002
  0
LINE
  5
2E5C
  8
0
  6
CONTINUOUS
 62
     3
 10
-36.5
 20
259.69340033543142
 30
-0.0000000000000577
 11
-36.5
 21
214.0000000000001137
 31
-0.0000000000000475
210
0.0
220
1.0
230
-0.0000000000000002
  0
LINE
  5
2E5D
  8
0
  6
CONTINUOUS
 62
     3
 10
-36.5
 20
110.0
 30
-0.0000000000000244
 11
-36.5
 21
9.9301424913467731
 31
-0.0000000000000022
210
0.0
220
1.0
230
-0.0000000000000002
  0
LINE
  5
2E5E
  8
0
  6
CONTINUOUS
 62
     3
 10
-35.6312251048100279
 20
0.0
 30
0.0
 11
-36.5
 21
9.9301424913467731
 31
-0.0000000000000022
210
0.0
220
1.0
230
-0.0000000000000002
  0
LINE
  5
2E5F
  8
0
  6
CONTINUOUS
 62
     3
 10
35.6312251048100279
 20
0.0
 30
0.0
 11
36.5
 21
9.9301424913467731
 31
-0.0000000000000022
210
0.0
220
1.0
230
-0.0000000000000002
  0
ARC
  5
2E60
  8
0
  6
CONTINUOUS
 62
     3
 10
20.4930655035607714
 20
310.264244848085923
 30
0.0
 40
21.5918434215313297
210
0.0
220
-0.0000000000000002
230
-1.0
 50
0.1527303602982691
 51
26.8014207398315598
  0
ARC
  5
2E61
  8
0
  6
CONTINUOUS
 62
     3
 10
-20.4930655035609917
 20
310.2642448480859798
 30
0.0
 40
21.5918434215311095
210
0.0
220
-0.0000000000000002
230
-1.0
 50
153.1985792601680885
 51
179.8472696397016932
  0
LINE
  5
2E62
  8
0
  6
VERDECKT
 62
     1
 10
45.2000000000000384
 20
210.0
 30
-0.0000000000000466
 11
45.25
 21
110.0
 31
-0.0000000000000244
210
0.0
220
1.0
230
-0.0000000000000002
  0
LINE
  5
2E63
  8
0
  6
VERDECKT
 62
     1
 10
-45.2000000000000384
 20
210.0
 30
-0.0000000000000466
 11
-45.25
 21
110.0
 31
-0.0000000000000244
210
0.0
220
1.0
230
-0.0000000000000002
  0
LINE
  5
2E64
  8
0
  6
VERDECKT
 62
     1
 10
37.0000000000001208
 20
214.0000000000001137
 30
-0.0000000000000475
 11
37.0000000000001208
 21
210.0
 31
-0.0000000000000466
210
0.0
220
1.0
230
-0.0000000000000002
  0
LINE
  5
2E65
  8
0
  6
VERDECKT
 62
     1
 10
-36.9999999999998934
 20
214.0000000000001137
 30
-0.0000000000000475
 11
-36.9999999999998934
 21
210.0
 31
-0.0000000000000466
210
0.0
220
1.0
230
-0.0000000000000002
  0
ARC
  5
2E66
  8
0
  6
VERDECKT
 62
     1
 10
24.9000000000025601
 20
10.4366094290857898
 30
0.0
 40
9.9999999999974243
210
0.0
220
-0.0000000000000002
230
-1.0
 50
354.9999999999977831
 51
0.0000000000005216
  0
ARC
  5
2E67
  8
0
  6
VERDECKT
 62
     1
 10
-24.9000000000025317
 20
10.4366094290857792
 30
0.0
 40
9.9999999999974492
210
0.0
220
-0.0000000000000002
230
-1.0
 50
179.9999999999994884
 51
185.0000000000021032
  0
LINE
  5
2E68
  8
0
  6
VERDECKT
 62
     1
 10
-34.0251133647404416
 20
0.0000000000000053
 30
0.0
 11
-34.8619469809174092
 21
9.5650520016090503
 31
-0.0000000000000021
210
0.0
220
1.0
230
-0.0000000000000002
  0
LINE
  5
2E69
  8
0
  6
VERDECKT
 62
     1
 10
34.0251133647404416
 20
0.0000000000000053
 30
0.0
 11
34.8619469809174092
 21
9.5650520016090503
 31
-0.0000000000000021
210
0.0
220
1.0
230
-0.0000000000000002
  0
LINE
  5
2E6A
  8
0
  6
VERDECKT
 62
     1
 10
34.8999999999999773
 20
259.69340033543142
 30
-0.0000000000000577
 11
34.8999999999999773
 21
10.4366094290858804
 31
-0.0000000000000023
210
0.0
220
1.0
230
-0.0000000000000002
  0
LINE
  5
2E6B
  8
0
  6
VERDECKT
 62
     1
 10
-34.8999999999999773
 20
259.69340033543142
 30
-0.0000000000000577
 11
-34.8999999999999773
 21
10.4366094290858804
 31
-0.0000000000000023
210
0.0
220
1.0
230
-0.0000000000000002
  0
LINE
  5
2E6C
  8
0
  6
VERDECKT
 62
     1
 10
36.5
 20
214.0000000000001137
 30
-0.0000000000000475
 11
36.5
 21
110.0
 31
-0.0000000000000244
210
0.0
220
1.0
230
-0.0000000000000002
  0
LINE
  5
2E6D
  8
0
  6
VERDECKT
 62
     1
 10
-36.5
 20
214.0000000000001137
 30
-0.0000000000000475
 11
-36.5
 21
110.0
 31
-0.0000000000000244
210
0.0
220
1.0
230
-0.0000000000000002
  0
ARC
  5
2E6E
  8
0
  6
VERDECKT
 62
     1
 10
44.5000000000002771
 20
259.69340033543142
 30
0.0
 40
9.6000000000003141
210
0.0
220
-0.0000000000000002
230
-1.0
 50
147.6719358778362903
 51
179.9999999999996021
  0
ARC
  5
2E6F
  8
0
  6
VERDECKT
 62
     1
 10
-44.5000000000002771
 20
259.69340033543142
 30
0.0
 40
9.6000000000003052
210
0.0
220
-0.0000000000000002
230
-1.0
 50
0.0000000000003435
 51
32.3280641221637026
  0
ARC
  5
2E70
  8
0
  6
VERDECKT
 62
     1
 10
27.6000000000026517
 20
270.3887264174161942
 30
0.0
 40
10.3999999999973394
210
0.0
220
-0.0000000000000002
230
-1.0
 50
327.6719358778350966
 51
0.0000000000043892
  0
ARC
  5
2E71
  8
0
  6
VERDECKT
 62
     1
 10
-27.6000000000026517
 20
270.3887264174161942
 30
0.0
 40
10.3999999999973607
210
0.0
220
-0.0000000000000002
230
-1.0
 50
179.9999999999955946
 51
212.3280641221649034
  0
LINE
  5
2E72
  8
0
  6
VERDECKT
 62
     1
 10
38.0
 20
291.3299999999999841
 30
-0.0000000000000647
 11
38.0
 21
270.38872641741699
 31
-0.00000000000006
210
0.0
220
1.0
230
-0.0000000000000002
  0
LINE
  5
2E73
  8
0
  6
VERDECKT
 62
     1
 10
-38.0
 20
291.3300000000000978
 30
-0.0000000000000647
 11
-38.0
 21
270.38872641741699
 31
-0.00000000000006
210
0.0
220
1.0
230
-0.0000000000000002
  0
ARC
  5
2E74
  8
0
  6
VERDECKT
 62
     1
 10
51.6000000000004633
 20
291.3300000000002115
 30
0.0
 40
13.6000000000004597
210
0.0
220
-0.0000000000000002
230
-1.0
 50
158.816845606964705
 51
180.0000000000009095
  0
ARC
  5
2E75
  8
0
  6
VERDECKT
 62
     1
 10
-51.600000000000442
 20
291.3300000000002115
 30
0.0
 40
13.6000000000004402
210
0.0
220
-0.0000000000000002
230
-1.0
 50
0.0
 51
21.1831543930357498
  0
ARC
  5
2E76
  8
0
  6
VERDECKT
 62
     1
 10
17.1000000000021011
 20
304.6999999999998749
 30
0.0
 40
23.4000932431236492
210
0.0
220
-0.0000000000000002
230
-1.0
 50
338.816845606963625
 51
359.8382525687197813
  0
ARC
  5
2E77
  8
0
  6
VERDECKT
 62
     1
 10
-17.1000000000018311
 20
304.6999999999998749
 30
0.0
 40
23.4000932431239193
210
0.0
220
-0.0000000000000002
230
-1.0
 50
180.161747431280304
 51
201.1831543930364035
  0
LINE
  5
2E78
  8
0
  6
VERDECKT
 62
     1
 10
40.4999999999999929
 20
309.4510775928814041
 30
-0.0000000000000687
 11
40.4999999999999929
 21
304.6339410340747236
 31
-0.0000000000000676
210
0.0
220
1.0
230
-0.0000000000000002
  0
LINE
  5
2E79
  8
0
  6
VERDECKT
 62
     1
 10
-40.4999999999999929
 20
309.4510775928814041
 30
-0.0000000000000687
 11
-40.4999999999999929
 21
304.6339410340747236
 31
-0.0000000000000676
210
0.0
220
1.0
230
-0.0000000000000002
  0
ARC
  5
2E7A
  8
0
  6
VERDECKT
 62
     1
 10
17.100000000000751
 20
309.4510775928815747
 30
0.0
 40
23.3999999999992383
210
0.0
220
-0.0000000000000002
230
-1.0
 50
359.9999999999992042
 51
25.0000000000001315
  0
ARC
  5
2E7B
  8
0
  6
VERDECKT
 62
     1
 10
-17.1000000000004597
 20
309.4510775928815178
 30
0.0
 40
23.3999999999995509
210
0.0
220
-0.0000000000000002
230
-1.0
 50
154.9999999999998863
 51
180.0000000000003979
  0
LINE
  5
2E7C
  8
0
  6
VERDECKT
 62
     1
 10
38.0000000000001705
 20
320.0
 30
-0.0000000000000711
 11
38.3076022166576919
 21
319.3403449176137201
 31
-0.0000000000000709
210
0.0
220
1.0
230
-0.0000000000000002
  0
LINE
  5
2E7D
  8
0
  6
VERDECKT
 62
     1
 10
-38.0000000000001705
 20
320.0
 30
-0.0000000000000711
 11
-38.3076022166576919
 21
319.3403449176137201
 31
-0.0000000000000709
210
0.0
220
1.0
230
-0.0000000000000002
  0
ENDBLK
  5
2E7F
  8
0
  0
BLOCK
  8
0
  2
A$C4BAA369D
 70
     0
 10
0.0
 20
0.0
 30
0.0
  3
A$C4BAA369D
  1

  0
CIRCLE
  5
2E83
  8
0
  6
CONTINUOUS
 62
     3
 10
0.0000000000000466
 20
0.0
 30
0.0
 40
54.0
  0
CIRCLE
  5
2E84
  8
0
  6
CONTINUOUS
 62
     3
 10
0.0000000000001612
 20
0.0
 30
0.0
 40
48.0
  0
CIRCLE
  5
2E85
  8
0
  6
CONTINUOUS
 62
     3
 10
0.0
 20
0.0
 30
0.0
 40
34.0251133647404913
  0
CIRCLE
  5
2E86
  8
0
  6
CONTINUOUS
 62
     3
 10
0.0000000000000577
 20
0.0
 30
0.0
 40
34.8999999999999773
  0
CIRCLE
  5
2E87
  8
0
  6
CONTINUOUS
 62
     3
 10
0.0000000000000676
 20
0.0
 30
0.0
 40
42.1000000000000227
  0
CIRCLE
  5
2E88
  8
0
  6
CONTINUOUS
 62
     3
 10
0.0000000000000711
 20
0.0
 30
0.0
 40
38.0000000000001066
  0
CIRCLE
  5
2E89
  8
0
  6
CONTINUOUS
 62
     3
 10
0.0000000000000711
 20
0.0
 30
0.0
 40
39.7653973282752986
  0
CIRCLE
  5
2E8A
  8
0
  6
VERDECKT
 62
     1
 10
0.0000000000000466
 20
0.0
 30
0.0
 40
45.2000000000000384
  0
CIRCLE
  5
2E8B
  8
0
  6
VERDECKT
 62
     1
 10
0.0000000000000244
 20
0.0
 30
0.0
 40
45.25
  0
CIRCLE
  5
2E8C
  8
0
  6
VERDECKT
 62
     1
 10
0.0000000000001612
 20
0.0
 30
0.0
 40
37.0
  0
CIRCLE
  5
2E8D
  8
0
  6
VERDECKT
 62
     1
 10
0.0000000000000647
 20
0.0
 30
0.0
 40
39.6000000000000227
  0
CIRCLE
  5
2E8E
  8
0
  6
VERDECKT
 62
     1
 10
0.0000000000000577
 20
0.0
 30
0.0
 40
36.5
  0
CIRCLE
  5
2E8F
  8
0
  6
VERDECKT
 62
     1
 10
0.0
 20
0.0
 30
0.0
 40
35.6312251048100279
  0
CIRCLE
  5
2E90
  8
0
  6
VERDECKT
 62
     1
 10
0.0000000000000687
 20
0.0
 30
0.0
 40
40.4999999999999929
  0
ENDBLK
  5
2E92
  8
0
  0
ENDSEC
  0
SECTION
  2
ENTITIES
  0
TEXT
  5
8F
  8
VOLL
 10
78.076754716981128
 20
31.025947764705851
 30
0.0
 40
1.8
  1

  7
GREEKS
  0
INSERT
  5
FA4
  8
ADSK_ASSOC_ENTITY_BACKUPS
  2
*S0
 10
0.0
 20
0.0
 30
0.0
  0
INSERT
  5
2E80
  8
STEMPEL
  2
A$C0709042E
 10
0.0
 20
0.0
 30
0.0
  0
INSERT
  5
2E93
  8
STEMPEL
  2
A$C4BAA369D
 10
0.0
 20
-154.0
 30
0.0
  0
VIEWPORT
  5
702
 67
     1
  8
0
 10
99.9595808982848837
 20
142.0247198271484024
 30
0.0
 40
557.5441164704363928
 41
298.4396363082536254
 68
     1
 69
     1
1001
ACAD
1000
MVIEW
1002
{
1070
    16
1010
0.0
1020
0.0
1030
0.0
1010
0.0
1020
0.0
1030
1.0
1040
0.0
1040
298.4396363082536254
1040
99.9595808982848837
1040
142.0247198271484024
1040
50.0
1040
0.0
1040
0.0
1070
     0
1070
  1500
1070
     1
1070
     1
1070
     0
1070
     0
1070
     0
1070
     0
1040
0.0
1040
0.0
1040
0.0
1040
10.0
1040
10.0
1040
10.0
1040
10.0
1070
     0
1002
{
1002
}
1002
}
1001
GENIUS_GENOBJ-N-SDF_13
1002
{
1000
OWNER
1000
GEN
1002
}
1001
GENIUS_GENODEF_13
1002
{
1000
HIER
1070
     0
1002
}
1002
{
1000
MANEDIT
1070
     0
1002
}
1002
{
1000
NOSEL
1070
     0
1002
}
1002
{
1000
BEHIND
1070
     0
1002
}
1002
{
1000
OTHER
1070
     0
1002
}
1002
{
1000
REACTOR
1002
}
1001
GENIUS_GENSCREG_15
1000
PF
1040
1.0
1000
DF
1040
1.0
1000
MIN
1011
-244.3511635859300952
1021
0.0
1031
0.0
1021
-14.16593448908759
1031
0.0
1000
MAX
1011
495.8963716177726724
1021
0.0
1031
0.0
1021
311.5257258132409106
1031
0.0
1000
FLAGS
1070
     4
  0
ENDSEC
  0
EOF
