  0
SECTION
  2
HEADER
  9
$ACADVER
  1
AC1009
  9
$INSBASE
 10
0.0
 20
0.0
 30
0.0
  9
$EXTMIN
 10
-44.4783460480762187
 20
-188.9071131174954985
 30
-0.0000016762826993
  9
$EXTMAX
 10
44.4655220562923432
 20
300.0140969065780041
 30
0.0000000698938419
  9
$LIMMIN
 10
0.0
 20
0.0
  9
$LIMMAX
 10
419.9999999999998863
 20
594.0
  9
$ORTHOMODE
 70
     1
  9
$REGENMODE
 70
     1
  9
$FILLMODE
 70
     1
  9
$QTEXTMODE
 70
     0
  9
$MIRRTEXT
 70
     1
  9
$DRAGMODE
 70
     2
  9
$LTSCALE
 40
20.0
  9
$OSMODE
 70
  2559
  9
$ATTMODE
 70
     1
  9
$TEXTSIZE
 40
3.5
  9
$TRACEWID
 40
0.5
  9
$TEXTSTYLE
  7
STANDARD
  9
$CLAYER
  8
STEMPEL
  9
$CELTYPE
  6
BYLAYER
  9
$CECOLOR
 62
   256
  9
$DIMSCALE
 40
1.0
  9
$DIMASZ
 40
3.5
  9
$DIMEXO
 40
1.0
  9
$DIMDLI
 40
7.0
  9
$DIMRND
 40
0.0
  9
$DIMDLE
 40
0.0
  9
$DIMEXE
 40
1.0
  9
$DIMTP
 40
0.0
  9
$DIMTM
 40
0.0
  9
$DIMTXT
 40
3.5
  9
$DIMCEN
 40
1.5
  9
$DIMTSZ
 40
0.0
  9
$DIMTOL
 70
     0
  9
$DIMLIM
 70
     0
  9
$DIMTIH
 70
     0
  9
$DIMTOH
 70
     0
  9
$DIMSE1
 70
     0
  9
$DIMSE2
 70
     0
  9
$DIMTAD
 70
     1
  9
$DIMZIN
 70
     8
  9
$DIMBLK
  1

  9
$DIMASO
 70
     1
  9
$DIMSHO
 70
     0
  9
$DIMPOST
  1

  9
$DIMAPOST
  1

  9
$DIMALT
 70
     0
  9
$DIMALTD
 70
     2
  9
$DIMALTF
 40
25.3999999999999986
  9
$DIMLFAC
 40
1.0
  9
$DIMTOFL
 70
     1
  9
$DIMTVP
 40
0.0
  9
$DIMTIX
 70
     0
  9
$DIMSOXD
 70
     0
  9
$DIMSAH
 70
     0
  9
$DIMBLK1
  1

  9
$DIMBLK2
  1

  9
$DIMSTYLE
  2
STANDARD
  9
$DIMCLRD
 70
     0
  9
$DIMCLRE
 70
     0
  9
$DIMCLRT
 70
     1
  9
$DIMTFAC
 40
0.5142857142857143
  9
$DIMGAP
 40
1.5
  9
$LUNITS
 70
     2
  9
$LUPREC
 70
     2
  9
$SKETCHINC
 40
1.0
  9
$FILLETRAD
 40
10.0
  9
$AUNITS
 70
     0
  9
$AUPREC
 70
     0
  9
$MENU
  1
ACAD
  9
$ELEVATION
 40
0.0
  9
$PELEVATION
 40
0.0
  9
$THICKNESS
 40
0.0
  9
$LIMCHECK
 70
     0
  9
$BLIPMODE
 70
     0
  9
$CHAMFERA
 40
0.0
  9
$CHAMFERB
 40
0.0
  9
$SKPOLY
 70
     0
  9
$TDCREATE
 40
2455397.8646990740671754
  9
$TDUPDATE
 40
2458380.6149884262122214
  9
$TDINDWG
 40
0.3431400579
  9
$TDUSRTIMER
 40
0.3431400579
  9
$USRTIMER
 70
     1
  9
$ANGBASE
 50
0.0
  9
$ANGDIR
 70
     0
  9
$PDMODE
 70
     0
  9
$PDSIZE
 40
0.0
  9
$PLINEWID
 40
0.0
  9
$COORDS
 70
     1
  9
$SPLFRAME
 70
     0
  9
$SPLINETYPE
 70
     6
  9
$SPLINESEGS
 70
     8
  9
$ATTDIA
 70
     1
  9
$ATTREQ
 70
     1
  9
$HANDLING
 70
     1
  9
$HANDSEED
  5
2FC2
  9
$SURFTAB1
 70
     6
  9
$SURFTAB2
 70
     6
  9
$SURFTYPE
 70
     6
  9
$SURFU
 70
     6
  9
$SURFV
 70
     6
  9
$UCSNAME
  2

  9
$UCSORG
 10
0.0
 20
0.0
 30
0.0
  9
$UCSXDIR
 10
1.0
 20
0.0
 30
0.0
  9
$UCSYDIR
 10
0.0
 20
1.0
 30
0.0
  9
$PUCSNAME
  2

  9
$PUCSORG
 10
0.0
 20
0.0
 30
0.0
  9
$PUCSXDIR
 10
1.0
 20
0.0
 30
0.0
  9
$PUCSYDIR
 10
0.0
 20
1.0
 30
0.0
  9
$USERI1
 70
     0
  9
$USERI2
 70
     0
  9
$USERI3
 70
     0
  9
$USERI4
 70
     0
  9
$USERI5
 70
     0
  9
$USERR1
 40
0.0
  9
$USERR2
 40
0.0
  9
$USERR3
 40
0.0
  9
$USERR4
 40
0.0
  9
$USERR5
 40
0.0
  9
$WORLDVIEW
 70
     1
  9
$SHADEDGE
 70
     3
  9
$SHADEDIF
 70
    70
  9
$TILEMODE
 70
     1
  9
$MAXACTVP
 70
    16
  9
$PLIMCHECK
 70
     0
  9
$PEXTMIN
 10
1.0000000000000000E+20
 20
1.0000000000000000E+20
 30
1.0000000000000000E+20
  9
$PEXTMAX
 10
-1.0000000000000000E+20
 20
-1.0000000000000000E+20
 30
-1.0000000000000000E+20
  9
$PLIMMIN
 10
-5.027082920074462
 20
-6.4382776093749987
  9
$PLIMMAX
 10
204.9462447166442871
 20
290.4877172636719251
  9
$UNITMODE
 70
     0
  9
$VISRETAIN
 70
     0
  9
$PLINEGEN
 70
     0
  9
$PSLTSCALE
 70
     0
  0
ENDSEC
  0
SECTION
  2
TABLES
  0
TABLE
  2
VPORT
 70
     1
  0
VPORT
  2
*ACTIVE
 70
     0
 10
0.0
 20
0.0
 11
1.0
 21
1.0
 12
-0.0064119958919946
 22
-72.2215077239890206
 13
0.0
 23
0.0
 14
1.0
 24
1.0
 15
10.0
 25
10.0
 16
-0.0000000000002031
 26
0.0
 36
914.8472197434697364
 17
0.0
 27
127.7749996185302024
 37
-0.0000000000000333
 40
491.4135866257255998
 41
1.868197278911564
 42
50.0
 43
0.0
 44
0.0
 50
0.0
 51
0.0
 71
     0
 72
  1500
 73
     1
 74
     0
 75
     0
 76
     0
 77
     0
 78
     0
  0
ENDTAB
  0
TABLE
  2
LTYPE
 70
     4
  0
LTYPE
  2
CONTINUOUS
 70
     0
  3
Solid line
 72
    65
 73
     0
 40
0.0
  0
LTYPE
  2
PHANTOM2
 70
     0
  3
Phantom (.5x) ___ _ _ ___ _ _ ___ _ _ ___ _ _
 72
    65
 73
     6
 40
1.25
 49
0.625
 49
-0.125
 49
0.125
 49
-0.125
 49
0.125
 49
-0.125
  0
LTYPE
  2
AUSGEZOGEN
 70
     0
  3
Ausgezogene Linie
 72
    65
 73
     0
 40
0.0
  0
LTYPE
  2
VERDECKT
 70
     0
  3
_ _ _ _ _ _ _ _ _ _ _ _ _ _ _ _ _ _ _ _ _ _ _
 72
    65
 73
     2
 40
0.375
 49
0.25
 49
-0.125
  0
ENDTAB
  0
TABLE
  2
LAYER
 70
     5
  0
LAYER
  2
0
 70
     0
 62
     7
  6
CONTINUOUS
  0
LAYER
  2
VOLL
 70
     0
 62
     1
  6
CONTINUOUS
  0
LAYER
  2
STEMPEL
 70
     0
 62
     3
  6
CONTINUOUS
  0
LAYER
  2
DEFPOINTS
 70
     0
 62
     7
  6
CONTINUOUS
  0
LAYER
  2
ADSK_ASSOC_ENTITY_BACKUPS
 70
     1
 62
    -7
  6
CONTINUOUS
  0
ENDTAB
  0
TABLE
  2
STYLE
 70
     2
  0
STYLE
  2
STANDARD
 70
     0
 40
0.0
 41
0.8
 50
0.0
 71
     0
 42
3.5
  3
simplex.shx
  4

  0
STYLE
  2
GREEKS
 70
     0
 40
0.0
 41
0.8
 50
0.0
 71
     0
 42
2.5
  3
SIMPLEX.shx
  4

  0
ENDTAB
  0
TABLE
  2
VIEW
 70
     0
  0
ENDTAB
  0
TABLE
  2
UCS
 70
     0
  0
ENDTAB
  0
TABLE
  2
APPID
 70
    34
  0
APPID
  2
ACAD
 70
     0
  0
APPID
  2
ACAD_EXEMPT_FROM_CAD_STANDARDS
 70
     0
  0
APPID
  2
ACAD_NAV_VCDISPLAY
 70
     0
  0
APPID
  2
ACAECLAYERSTANDARD
 70
     0
  0
APPID
  2
ACCMTRANSPARENCY
 70
     0
  0
APPID
  2
ACAD_PSEXT
 70
     0
  0
APPID
  2
GRADIENTCOLOR1ACI
 70
     0
  0
APPID
  2
GRADIENTCOLOR2ACI
 70
     0
  0
APPID
  2
ACAD_MLEADERVER
 70
     0
  0
APPID
  2
ACAD_OBJECT_CHANGE_GUID
 70
     0
  0
APPID
  2
MCAD_NO_VIS
 70
     0
  0
APPID
  2
ACAD_TEMP_GRAPHIC
 70
     0
  0
APPID
  2
ACATTRIBSERVICES
 70
     0
  0
APPID
  2
DESIGNERASSEMBLIES
 70
     0
  0
APPID
  2
ACAD_DSTYLE_DIMJAG
 70
     0
  0
APPID
  2
ACAD_DSTYLE_DIMBREAK
 70
     0
  0
APPID
  2
GENIUS_GENSCREG_15
 70
     0
  0
APPID
  2
GENIUS_GENOBJ-N-SDF_13
 70
     0
  0
APPID
  2
GENIUS_GENODEF_13
 70
     0
  0
APPID
  2
RAK
 70
     0
  0
APPID
  2
ACAUTHENVIRON
 70
     0
  0
APPID
  2
ACDBDYNAMICBLOCKTRUENAME
 70
     0
  0
APPID
  2
ACDBDYNAMICBLOCKGUID
 70
     0
  0
APPID
  2
ACSYNERGY
 70
     0
  0
APPID
  2
SYNERGY_BODY_TBR_ID
 70
     0
  0
APPID
  2
ACAD_VIEW_EDGE_ID
 70
     0
  0
APPID
  2
ACSYNERGYSKETCH
 70
     0
  0
APPID
  2
ACAD_STEPID
 70
     0
  0
APPID
  2
ACAD_MODELDOC_XFORM
 70
     0
  0
APPID
  2
GENIUS_GENDTOL_13
 70
     0
  0
APPID
  2
ACAD_DSTYLE_DIMINSPECT
 70
     0
  0
APPID
  2
ACADANNOMONITORALERTICONDI
 70
     0
  0
APPID
  2
GENIUS_GENDIMSH_14
 70
     0
  0
APPID
  2
ACDBATTR
 70
     0
  0
ENDTAB
  0
TABLE
  2
DIMSTYLE
 70
     1
  0
DIMSTYLE
  2
STANDARD
 70
     0
  3

  4

  5

  6

  7

 40
1.0
 41
0.18
 42
0.0625
 43
0.38
 44
0.18
 45
0.0
 46
0.0
 47
0.0
 48
0.0
140
0.18
141
0.09
142
0.0
143
25.3999999999999986
144
1.0
145
0.0
146
1.0
147
0.09
 71
     0
 72
     0
 73
     1
 74
     1
 75
     0
 76
     0
 77
     0
 78
     0
170
     0
171
     2
172
     0
173
     0
174
     0
175
     0
176
     0
177
     0
178
     0
  0
ENDTAB
  0
ENDSEC
  0
SECTION
  2
BLOCKS
  0
BLOCK
  8
0
  2
$MODEL_SPACE
 70
     0
 10
0.0
 20
0.0
 30
0.0
  3
$MODEL_SPACE
  1

  0
ENDBLK
  5
36
  8
0
  0
BLOCK
 67
     1
  8
0
  2
$PAPER_SPACE
 70
     0
 10
0.0
 20
0.0
 30
0.0
  3
$PAPER_SPACE
  1

  0
ENDBLK
  5
34
 67
     1
  8
0
  0
BLOCK
  8
0
  2
*S0
 70
     1
 10
0.0
 20
0.0
 30
0.0
  3
*S0
  1

  0
ENDBLK
  5
FA2
  8
0
  0
BLOCK
  8
0
  2
A$C46F32A5B
 70
     0
 10
0.0
 20
0.0
 30
0.0
  3
A$C46F32A5B
  1

  0
LINE
  5
2EFA
  8
0
  6
CONTINUOUS
 62
     3
 10
-37.9999999999999432
 20
194.0
 30
-0.0000000000000431
 11
38.0
 21
194.0
 31
-0.0000000000000431
210
0.0
220
1.0
230
-0.0000000000000002
  0
LINE
  5
2EFB
  8
0
  6
CONTINUOUS
 62
     3
 10
38.0
 20
194.0
 30
-0.0000000000000431
 11
38.0
 21
190.0
 31
-0.0000000000000422
210
0.0
220
1.0
230
-0.0000000000000002
  0
LINE
  5
2EFC
  8
0
  6
CONTINUOUS
 62
     3
 10
-37.9999999999999432
 20
194.0
 30
-0.0000000000000431
 11
-37.9999999999999432
 21
190.0
 31
-0.0000000000000422
210
0.0
220
1.0
230
-0.0000000000000002
  0
LINE
  5
2EFD
  8
0
  6
CONTINUOUS
 62
     3
 10
-29.4070448491913794
 20
300.0
 30
-0.0000000000000666
 11
29.4070448491913794
 21
300.0
 31
-0.0000000000000666
210
0.0
220
1.0
230
-0.0000000000000002
  0
LINE
  5
2EFE
  8
0
  6
CONTINUOUS
 62
     3
 10
-25.8058204481076316
 20
0.0
 30
0.0
 11
25.8058204481076316
 21
0.0
 31
0.0
210
0.0
220
1.0
230
-0.0000000000000002
  0
LINE
  5
2EFF
  8
0
  6
CONTINUOUS
 62
     3
 10
29.4070448491914114
 20
300.0
 30
-0.0000000000000666
 11
29.47300184721486
 21
299.8585547612827895
 31
-0.0000000000000666
210
0.0
220
1.0
230
-0.0000000000000002
  0
LINE
  5
2F00
  8
0
  6
CONTINUOUS
 62
     3
 10
-29.4070448491914114
 20
300.0
 30
-0.0000000000000666
 11
-29.47300184721486
 21
299.8585547612827895
 31
-0.0000000000000666
210
0.0
220
1.0
230
-0.0000000000000002
  0
ARC
  5
2F01
  8
0
  6
CONTINUOUS
 62
     3
 10
11.7999999999941991
 20
291.617498657337876
 30
0.0
 40
19.5000000000059792
210
0.0
220
-0.0000000000000002
230
-1.0
 50
359.9999999999994884
 51
24.9999999999959606
  0
ARC
  5
2F02
  8
0
  6
CONTINUOUS
 62
     3
 10
-11.7999999999941991
 20
291.617498657337876
 30
0.0
 40
19.5000000000059686
210
0.0
220
-0.0000000000000002
230
-1.0
 50
155.0000000000040075
 51
180.0000000000003979
  0
LINE
  5
2F03
  8
0
  6
CONTINUOUS
 62
     3
 10
31.3000000000001783
 20
291.6174986573377055
 30
-0.0000000000000648
 11
31.3000000000001783
 21
287.1219642979373816
 31
-0.0000000000000638
210
0.0
220
1.0
230
-0.0000000000000002
  0
LINE
  5
2F04
  8
0
  6
CONTINUOUS
 62
     3
 10
-31.3000000000001783
 20
291.6174986573377055
 30
-0.0000000000000648
 11
-31.3000000000001783
 21
287.1219642979373816
 31
-0.0000000000000638
210
0.0
220
1.0
230
-0.0000000000000002
  0
ARC
  5
2F05
  8
0
  6
CONTINUOUS
 62
     3
 10
6.2999999999939611
 20
287.1620000000020809
 30
0.0
 40
25.0000320571344687
210
0.0
220
-0.0000000000000002
230
-1.0
 50
340.5369005553114903
 51
359.908245008111578
  0
ARC
  5
2F06
  8
0
  6
CONTINUOUS
 62
     3
 10
-6.2999999999937186
 20
287.1620000000020809
 30
0.0
 40
25.000032057134721
210
0.0
220
-0.0000000000000002
230
-1.0
 50
180.0917549918883935
 51
199.463099444688396
  0
ARC
  5
2F07
  8
0
  6
CONTINUOUS
 62
     3
 10
39.2999999999966434
 20
275.5000000000006253
 30
0.0
 40
9.9999999999966942
210
0.0
220
-0.0000000000000002
230
-1.0
 50
160.5369005553079091
 51
180.0000000000034959
  0
ARC
  5
2F08
  8
0
  6
CONTINUOUS
 62
     3
 10
-39.2999999999966434
 20
275.5000000000006253
 30
0.0
 40
9.9999999999966818
210
0.0
220
-0.0000000000000002
230
-1.0
 50
0.0
 51
19.4630994446957288
  0
LINE
  5
2F09
  8
0
  6
CONTINUOUS
 62
     3
 10
29.3000000000000718
 20
275.5
 30
-0.0000000000000612
 11
29.3000000000000718
 21
267.4083269131958787
 31
-0.0000000000000594
210
0.0
220
1.0
230
-0.0000000000000002
  0
LINE
  5
2F0A
  8
0
  6
CONTINUOUS
 62
     3
 10
-29.3000000000000718
 20
275.5
 30
-0.0000000000000612
 11
-29.3000000000000718
 21
267.4083269131958787
 31
-0.0000000000000594
210
0.0
220
1.0
230
-0.0000000000000002
  0
ARC
  5
2F0B
  8
0
  6
CONTINUOUS
 62
     3
 10
17.3000000000056211
 20
267.4083269131946281
 30
0.0
 40
11.9999999999945803
210
0.0
220
-0.0000000000000002
230
-1.0
 50
329.3165828910169921
 51
0.0000000000062466
  0
ARC
  5
2F0C
  8
0
  6
CONTINUOUS
 62
     3
 10
-17.3000000000056104
 20
267.4083269131946281
 30
0.0
 40
11.9999999999945697
210
0.0
220
-0.0000000000000002
230
-1.0
 50
179.9999999999936904
 51
210.6834171089828942
  0
ARC
  5
2F0D
  8
0
  6
CONTINUOUS
 62
     3
 10
34.4999999999986287
 20
257.2024462554575734
 30
0.0
 40
7.9999999999986118
210
0.0
220
-0.0000000000000002
230
-1.0
 50
149.3165828910190953
 51
179.9999999999986926
  0
ARC
  5
2F0E
  8
0
  6
CONTINUOUS
 62
     3
 10
-34.4999999999987423
 20
257.2024462554575734
 30
0.0
 40
7.9999999999987352
210
0.0
220
-0.0000000000000002
230
-1.0
 50
0.0000000000016284
 51
30.6834171089813594
  0
LINE
  5
2F0F
  8
0
  6
CONTINUOUS
 62
     3
 10
-25.8058204481076316
 20
-0.0000000000000004
 30
0.0
 11
-26.5
 21
7.9345085856373334
 31
-0.0000000000000018
210
0.0
220
1.0
230
-0.0000000000000002
  0
LINE
  5
2F10
  8
0
  6
CONTINUOUS
 62
     3
 10
25.8058204481076316
 20
-0.0000000000000004
 30
0.0
 11
26.5
 21
7.9345085856373334
 31
-0.0000000000000018
210
0.0
220
1.0
230
-0.0000000000000002
  0
LINE
  5
2F11
  8
0
  6
CONTINUOUS
 62
     3
 10
26.5
 20
257.2024462554578008
 30
-0.0000000000000571
 11
26.5
 21
194.0
 31
-0.0000000000000431
210
0.0
220
1.0
230
-0.0000000000000002
  0
LINE
  5
2F12
  8
0
  6
CONTINUOUS
 62
     3
 10
26.5
 20
90.0000000000000142
 30
-0.00000000000002
 11
26.5
 21
7.9345085856373334
 31
-0.0000000000000018
210
0.0
220
1.0
230
-0.0000000000000002
  0
LINE
  5
2F13
  8
0
  6
CONTINUOUS
 62
     3
 10
-26.5
 20
257.2024462554578008
 30
-0.0000000000000571
 11
-26.5
 21
194.0
 31
-0.0000000000000431
210
0.0
220
1.0
230
-0.0000000000000002
  0
LINE
  5
2F14
  8
0
  6
CONTINUOUS
 62
     3
 10
-26.5
 20
90.0000000000000142
 30
-0.00000000000002
 11
-26.5
 21
7.9345085856373334
 31
-0.0000000000000018
210
0.0
220
1.0
230
-0.0000000000000002
  0
LINE
  5
2F15
  8
0
  6
CONTINUOUS
 62
     3
 10
-44.4500000000000384
 20
90.0000000000000142
 30
-0.00000000000002
 11
44.4500000000000384
 21
90.0000000000000142
 31
-0.00000000000002
210
0.0
220
1.0
230
-0.0000000000000002
  0
LINE
  5
2F16
  8
0
  6
CONTINUOUS
 62
     3
 10
-44.4500000000000384
 20
190.0
 30
-0.0000000000000422
 11
44.4500000000000384
 21
190.0
 31
-0.0000000000000422
210
0.0
220
1.0
230
-0.0000000000000002
  0
LINE
  5
2F17
  8
0
  6
CONTINUOUS
 62
     3
 10
44.4500000000000384
 20
190.0
 30
-0.0000000000000422
 11
44.4500000000000384
 21
90.0000000000000142
 31
-0.00000000000002
210
0.0
220
1.0
230
-0.0000000000000002
  0
LINE
  5
2F18
  8
0
  6
CONTINUOUS
 62
     3
 10
-44.4500000000000384
 20
190.0
 30
-0.0000000000000422
 11
-44.4500000000000384
 21
90.0000000000000142
 31
-0.00000000000002
210
0.0
220
1.0
230
-0.0000000000000002
  0
LINE
  5
2F19
  8
0
  6
VERDECKT
 62
     1
 10
27.0
 20
194.0
 30
-0.0000000000000431
 11
27.0
 21
190.0
 31
-0.0000000000000422
210
0.0
220
1.0
230
-0.0000000000000002
  0
LINE
  5
2F1A
  8
0
  6
VERDECKT
 62
     1
 10
-26.9999999999999396
 20
194.0
 30
-0.0000000000000431
 11
-26.9999999999999396
 21
190.0
 31
-0.0000000000000422
210
0.0
220
1.0
230
-0.0000000000000002
  0
ARC
  5
2F1B
  8
0
  6
VERDECKT
 62
     1
 10
19.8000000000191783
 20
291.4853443781647115
 30
0.0
 40
9.9999999999809983
210
0.0
220
-0.0000000000000002
230
-1.0
 50
359.9999999999984084
 51
1.8283622682348519
  0
ARC
  5
2F1C
  8
0
  6
VERDECKT
 62
     1
 10
-19.8000000000191889
 20
291.4853443781647115
 30
0.0
 40
9.9999999999809912
210
0.0
220
-0.0000000000000002
230
-1.0
 50
178.1716377317650881
 51
180.0000000000015064
  0
LINE
  5
2F1D
  8
0
  6
VERDECKT
 62
     1
 10
29.8000000000001783
 20
291.4853443781644273
 30
-0.0000000000000647
 11
29.8000000000001783
 21
287.1231839459247226
 31
-0.0000000000000638
210
0.0
220
1.0
230
-0.0000000000000002
  0
LINE
  5
2F1E
  8
0
  6
VERDECKT
 62
     1
 10
-29.8000000000001783
 20
291.4853443781644273
 30
-0.0000000000000647
 11
-29.8000000000001783
 21
287.1231839459247226
 31
-0.0000000000000638
210
0.0
220
1.0
230
-0.0000000000000002
  0
ARC
  5
2F1F
  8
0
  6
VERDECKT
 62
     1
 10
9.8213113157427543
 20
291.1668068968659782
 30
0.0
 40
19.9837715310557407
210
0.0
220
-0.0000000000000002
230
-1.0
 50
1.8283622682332179
 51
24.9999999999739195
  0
ARC
  5
2F20
  8
0
  6
VERDECKT
 62
     1
 10
-9.8213113157427543
 20
291.1668068968659782
 30
0.0
 40
19.9837715310557513
210
0.0
220
-0.0000000000000002
230
-1.0
 50
155.0000000000260911
 51
178.1716377317667082
  0
ARC
  5
2F21
  8
0
  6
VERDECKT
 62
     1
 10
14.9999999999992095
 20
8.4366094290848288
 30
0.0
 40
10.0000000000007798
210
0.0
220
-0.0000000000000002
230
-1.0
 50
355.0000000000013074
 51
359.9999999999997726
  0
ARC
  5
2F22
  8
0
  6
VERDECKT
 62
     1
 10
-14.9999999999992504
 20
8.436609429084827
 30
0.0
 40
10.0000000000007496
210
0.0
220
-0.0000000000000002
230
-1.0
 50
180.0000000000001137
 51
184.9999999999986926
  0
LINE
  5
2F23
  8
0
  6
VERDECKT
 62
     1
 10
-24.3000906917927715
 20
0.0000000000000009
 30
0.0
 11
-24.961946980917471
 21
7.5650520016083913
 31
-0.0000000000000017
210
0.0
220
1.0
230
-0.0000000000000002
  0
LINE
  5
2F24
  8
0
  6
VERDECKT
 62
     1
 10
24.3000906917927715
 20
0.0000000000000009
 30
0.0
 11
24.961946980917471
 21
7.5650520016083913
 31
-0.0000000000000017
210
0.0
220
1.0
230
-0.0000000000000002
  0
LINE
  5
2F25
  8
0
  6
VERDECKT
 62
     1
 10
25.0
 20
257.2024462554578008
 30
-0.0000000000000571
 11
25.0
 21
8.4366094290847986
 31
-0.0000000000000019
210
0.0
220
1.0
230
-0.0000000000000002
  0
LINE
  5
2F26
  8
0
  6
VERDECKT
 62
     1
 10
-25.0
 20
257.2024462554578008
 30
-0.0000000000000571
 11
-25.0
 21
8.4366094290847986
 31
-0.0000000000000019
210
0.0
220
1.0
230
-0.0000000000000002
  0
ARC
  5
2F27
  8
0
  6
VERDECKT
 62
     1
 10
34.5000000000021814
 20
257.2024462554566071
 30
0.0
 40
9.5000000000021956
210
0.0
220
-0.0000000000000002
230
-1.0
 50
149.3165828910242965
 51
179.9999999999924114
  0
ARC
  5
2F28
  8
0
  6
VERDECKT
 62
     1
 10
-34.5000000000021814
 20
257.2024462554566071
 30
0.0
 40
9.500000000002192
210
0.0
220
-0.0000000000000002
230
-1.0
 50
0.0000000000075443
 51
30.6834171089756005
  0
ARC
  5
2F29
  8
0
  6
VERDECKT
 62
     1
 10
17.30000000000258
 20
267.4083269131953102
 30
0.0
 40
10.4999999999976108
210
0.0
220
-0.0000000000000002
230
-1.0
 50
329.3165828910218238
 51
0.0000000000034223
  0
ARC
  5
2F2A
  8
0
  6
VERDECKT
 62
     1
 10
-17.30000000000258
 20
267.4083269131953102
 30
0.0
 40
10.4999999999976001
210
0.0
220
-0.0000000000000002
230
-1.0
 50
179.9999999999965894
 51
210.6834171089782046
  0
LINE
  5
2F2B
  8
0
  6
VERDECKT
 62
     1
 10
27.8000000000000718
 20
275.5
 30
-0.0000000000000612
 11
27.8000000000000718
 21
267.4083269131958787
 31
-0.0000000000000594
210
0.0
220
1.0
230
-0.0000000000000002
  0
LINE
  5
2F2C
  8
0
  6
VERDECKT
 62
     1
 10
-27.8000000000000718
 20
275.5
 30
-0.0000000000000612
 11
-27.8000000000000718
 21
267.4083269131958787
 31
-0.0000000000000594
210
0.0
220
1.0
230
-0.0000000000000002
  0
ARC
  5
2F2D
  8
0
  6
VERDECKT
 62
     1
 10
39.1902979641084102
 20
275.5188138902860828
 30
0.0
 40
11.3903135019910895
210
0.0
220
-0.0000000000000002
230
-1.0
 50
160.4422625104870974
 51
180.0946380448249897
  0
ARC
  5
2F2E
  8
0
  6
VERDECKT
 62
     1
 10
-39.1902979641084102
 20
275.5188138902860828
 30
0.0
 40
11.3903135019910895
210
0.0
220
-0.0000000000000002
230
-1.0
 50
359.9053619551748966
 51
19.5577374895129203
  0
ARC
  5
2F2F
  8
0
  6
VERDECKT
 62
     1
 10
6.5252161781085221
 20
287.1231839459247226
 30
0.0
 40
23.2747838218916598
210
0.0
220
-0.0000000000000002
230
-1.0
 50
340.4422625104847953
 51
359.9999999999997726
  0
ARC
  5
2F30
  8
0
  6
VERDECKT
 62
     1
 10
-6.5252161781087601
 20
287.1231839459247226
 30
0.0
 40
23.2747838218914183
210
0.0
220
-0.0000000000000002
230
-1.0
 50
180.0
 51
199.5577374895152047
  0
LINE
  5
2F31
  8
0
  6
VERDECKT
 62
     1
 10
27.7519779707479017
 20
300.0
 30
-0.0000000000000666
 11
27.9327590687037706
 21
299.6123136843359021
 31
-0.0000000000000665
210
0.0
220
1.0
230
-0.0000000000000002
  0
LINE
  5
2F32
  8
0
  6
VERDECKT
 62
     1
 10
-27.7519779707479017
 20
300.0
 30
-0.0000000000000666
 11
-27.9327590687037706
 21
299.6123136843359021
 31
-0.0000000000000665
210
0.0
220
1.0
230
-0.0000000000000002
  0
LINE
  5
2F33
  8
0
  6
VERDECKT
 62
     1
 10
26.5
 20
194.0
 30
-0.0000000000000431
 11
26.5
 21
90.0000000000000142
 31
-0.00000000000002
210
0.0
220
1.0
230
-0.0000000000000002
  0
LINE
  5
2F34
  8
0
  6
VERDECKT
 62
     1
 10
-26.5
 20
194.0
 30
-0.0000000000000431
 11
-26.5
 21
90.0000000000000142
 31
-0.00000000000002
210
0.0
220
1.0
230
-0.0000000000000002
  0
LINE
  5
2F35
  8
0
  6
VERDECKT
 62
     1
 10
35.6500000000000909
 20
190.0
 30
-0.0000000000000422
 11
35.6500000000000909
 21
90.0000000000000142
 31
-0.00000000000002
210
0.0
220
1.0
230
-0.0000000000000002
  0
LINE
  5
2F36
  8
0
  6
VERDECKT
 62
     1
 10
-35.6500000000000909
 20
190.0
 30
-0.0000000000000422
 11
-35.6500000000000909
 21
90.0000000000000142
 31
-0.00000000000002
210
0.0
220
1.0
230
-0.0000000000000002
  0
ENDBLK
  5
2F38
  8
0
  0
BLOCK
  8
0
  2
A$C59EB1123
 70
     0
 10
0.0
 20
0.0
 30
0.0
  3
A$C59EB1123
  1

  0
CIRCLE
  5
2F3C
  8
0
  6
CONTINUOUS
 62
     3
 10
0.0000000000000715
 20
0.0
 30
0.0
 40
37.9999999999999716
  0
CIRCLE
  5
2F3D
  8
0
  6
CONTINUOUS
 62
     3
 10
0.0
 20
0.0
 30
0.0
 40
24.3000906917927715
  0
CIRCLE
  5
2F3E
  8
0
  6
CONTINUOUS
 62
     3
 10
0.0000000000000571
 20
0.0
 30
0.0
 40
25.0
  0
CIRCLE
  5
2F3F
  8
0
  6
CONTINUOUS
 62
     3
 10
0.0000000000000666
 20
0.0
 30
0.0
 40
27.75197797074782
  0
CIRCLE
  5
2F40
  8
0
  6
CONTINUOUS
 62
     3
 10
0.0000000000000666
 20
0.0
 30
0.0
 40
29.4070448491913794
  0
CIRCLE
  5
2F41
  8
0
  6
CONTINUOUS
 62
     3
 10
0.0000000000000648
 20
0.0
 30
0.0
 40
31.3000000000001783
  0
CIRCLE
  5
2F42
  8
0
  6
CONTINUOUS
 62
     3
 10
0.0000000000000422
 20
0.0
 30
0.0
 40
44.4500000000000384
  0
CIRCLE
  5
2F43
  8
0
  6
VERDECKT
 62
     1
 10
0.0000000000000715
 20
0.0
 30
0.0
 40
26.9999999999999716
  0
CIRCLE
  5
2F44
  8
0
  6
VERDECKT
 62
     1
 10
0.0000000000000647
 20
0.0
 30
0.0
 40
29.8000000000001783
  0
CIRCLE
  5
2F45
  8
0
  6
VERDECKT
 62
     1
 10
0.0000000000000612
 20
0.0
 30
0.0
 40
27.7999999999999616
  0
CIRCLE
  5
2F46
  8
0
  6
VERDECKT
 62
     1
 10
0.0000000000000612
 20
0.0
 30
0.0
 40
29.2999999999999616
  0
CIRCLE
  5
2F47
  8
0
  6
VERDECKT
 62
     1
 10
0.0000000000000571
 20
0.0
 30
0.0
 40
26.5
  0
CIRCLE
  5
2F48
  8
0
  6
VERDECKT
 62
     1
 10
0.0
 20
0.0
 30
0.0
 40
25.8058204481076316
  0
CIRCLE
  5
2F49
  8
0
  6
VERDECKT
 62
     1
 10
0.0000000000000612
 20
0.0
 30
0.0
 40
27.7999844621173082
  0
CIRCLE
  5
2F4A
  8
0
  6
VERDECKT
 62
     1
 10
0.0000000000000422
 20
0.0
 30
0.0
 40
35.6499999999999773
  0
ENDBLK
  5
2F4C
  8
0
  0
ENDSEC
  0
SECTION
  2
ENTITIES
  0
TEXT
  5
8F
  8
VOLL
 10
78.076754716981128
 20
31.025947764705851
 30
0.0
 40
1.8
  1

  7
GREEKS
  0
INSERT
  5
FA4
  8
ADSK_ASSOC_ENTITY_BACKUPS
  2
*S0
 10
0.0
 20
0.0
 30
0.0
  0
INSERT
  5
2F39
  8
STEMPEL
  2
A$C46F32A5B
 10
0.0
 20
0.0
 30
0.0
  0
INSERT
  5
2F4D
  8
STEMPEL
  2
A$C59EB1123
 10
0.0
 20
-144.4499999999999886
 30
0.0
  0
VIEWPORT
  5
702
 67
     1
  8
0
 10
99.9595808982848837
 20
142.0247198271484024
 30
0.0
 40
557.5441164704363928
 41
298.4396363082536254
 68
     1
 69
     1
1001
ACAD
1000
MVIEW
1002
{
1070
    16
1010
0.0
1020
0.0
1030
0.0
1010
0.0
1020
0.0
1030
1.0
1040
0.0
1040
298.4396363082536254
1040
99.9595808982848837
1040
142.0247198271484024
1040
50.0
1040
0.0
1040
0.0
1070
     0
1070
  1500
1070
     1
1070
     1
1070
     0
1070
     0
1070
     0
1070
     0
1040
0.0
1040
0.0
1040
0.0
1040
10.0
1040
10.0
1040
10.0
1040
10.0
1070
     0
1002
{
1002
}
1002
}
1001
GENIUS_GENOBJ-N-SDF_13
1002
{
1000
OWNER
1000
GEN
1002
}
1001
GENIUS_GENODEF_13
1002
{
1000
HIER
1070
     0
1002
}
1002
{
1000
MANEDIT
1070
     0
1002
}
1002
{
1000
NOSEL
1070
     0
1002
}
1002
{
1000
BEHIND
1070
     0
1002
}
1002
{
1000
OTHER
1070
     0
1002
}
1002
{
1000
REACTOR
1002
}
1001
GENIUS_GENSCREG_15
1000
PF
1040
1.0
1000
DF
1040
1.0
1000
MIN
1011
-293.8168704837045766
1021
0.0
1031
0.0
1021
-63.4283948119910406
1031
0.0
1000
MAX
1011
675.6201917323813859
1021
0.0
1031
0.0
1021
363.1013149625688925
1031
0.0
1000
FLAGS
1070
     4
  0
ENDSEC
  0
EOF
