  0
SECTION
  2
HEADER
  9
$ACADVER
  1
AC1009
  9
$INSBASE
 10
0.0
 20
0.0
 30
0.0
  9
$EXTMIN
 10
-44.4500000000000384
 20
-188.9000000000000909
 30
-0.0000000000000023
  9
$EXTMAX
 10
44.450000000000081
 20
285.0
 30
0.0000000000000254
  9
$LIMMIN
 10
0.0
 20
0.0
  9
$LIMMAX
 10
419.9999999999998863
 20
594.0
  9
$ORTHOMODE
 70
     1
  9
$REGENMODE
 70
     1
  9
$FILLMODE
 70
     1
  9
$QTEXTMODE
 70
     0
  9
$MIRRTEXT
 70
     1
  9
$DRAGMODE
 70
     2
  9
$LTSCALE
 40
20.0
  9
$OSMODE
 70
  2559
  9
$ATTMODE
 70
     1
  9
$TEXTSIZE
 40
3.5
  9
$TRACEWID
 40
0.5
  9
$TEXTSTYLE
  7
STANDARD
  9
$CLAYER
  8
STEMPEL
  9
$CELTYPE
  6
BYLAYER
  9
$CECOLOR
 62
   256
  9
$DIMSCALE
 40
1.0
  9
$DIMASZ
 40
3.5
  9
$DIMEXO
 40
1.0
  9
$DIMDLI
 40
7.0
  9
$DIMRND
 40
0.0
  9
$DIMDLE
 40
0.0
  9
$DIMEXE
 40
1.0
  9
$DIMTP
 40
0.0
  9
$DIMTM
 40
0.0
  9
$DIMTXT
 40
3.5
  9
$DIMCEN
 40
1.5
  9
$DIMTSZ
 40
0.0
  9
$DIMTOL
 70
     0
  9
$DIMLIM
 70
     0
  9
$DIMTIH
 70
     0
  9
$DIMTOH
 70
     0
  9
$DIMSE1
 70
     0
  9
$DIMSE2
 70
     0
  9
$DIMTAD
 70
     1
  9
$DIMZIN
 70
     8
  9
$DIMBLK
  1

  9
$DIMASO
 70
     1
  9
$DIMSHO
 70
     0
  9
$DIMPOST
  1

  9
$DIMAPOST
  1

  9
$DIMALT
 70
     0
  9
$DIMALTD
 70
     2
  9
$DIMALTF
 40
25.3999999999999986
  9
$DIMLFAC
 40
1.0
  9
$DIMTOFL
 70
     1
  9
$DIMTVP
 40
0.0
  9
$DIMTIX
 70
     0
  9
$DIMSOXD
 70
     0
  9
$DIMSAH
 70
     0
  9
$DIMBLK1
  1

  9
$DIMBLK2
  1

  9
$DIMSTYLE
  2
STANDARD
  9
$DIMCLRD
 70
     0
  9
$DIMCLRE
 70
     0
  9
$DIMCLRT
 70
     1
  9
$DIMTFAC
 40
0.5142857142857143
  9
$DIMGAP
 40
1.5
  9
$LUNITS
 70
     2
  9
$LUPREC
 70
     2
  9
$SKETCHINC
 40
1.0
  9
$FILLETRAD
 40
10.0
  9
$AUNITS
 70
     0
  9
$AUPREC
 70
     0
  9
$MENU
  1
ACAD
  9
$ELEVATION
 40
0.0
  9
$PELEVATION
 40
0.0
  9
$THICKNESS
 40
0.0
  9
$LIMCHECK
 70
     0
  9
$BLIPMODE
 70
     0
  9
$CHAMFERA
 40
0.0
  9
$CHAMFERB
 40
0.0
  9
$SKPOLY
 70
     0
  9
$TDCREATE
 40
2455397.8646990740671754
  9
$TDUPDATE
 40
2458380.6072106477804482
  9
$TDINDWG
 40
0.3178601852
  9
$TDUSRTIMER
 40
0.3178601852
  9
$USRTIMER
 70
     1
  9
$ANGBASE
 50
0.0
  9
$ANGDIR
 70
     0
  9
$PDMODE
 70
     0
  9
$PDSIZE
 40
0.0
  9
$PLINEWID
 40
0.0
  9
$COORDS
 70
     1
  9
$SPLFRAME
 70
     0
  9
$SPLINETYPE
 70
     6
  9
$SPLINESEGS
 70
     8
  9
$ATTDIA
 70
     1
  9
$ATTREQ
 70
     1
  9
$HANDLING
 70
     1
  9
$HANDSEED
  5
2C7F
  9
$SURFTAB1
 70
     6
  9
$SURFTAB2
 70
     6
  9
$SURFTYPE
 70
     6
  9
$SURFU
 70
     6
  9
$SURFV
 70
     6
  9
$UCSNAME
  2

  9
$UCSORG
 10
0.0
 20
0.0
 30
0.0
  9
$UCSXDIR
 10
1.0
 20
0.0
 30
0.0
  9
$UCSYDIR
 10
0.0
 20
1.0
 30
0.0
  9
$PUCSNAME
  2

  9
$PUCSORG
 10
0.0
 20
0.0
 30
0.0
  9
$PUCSXDIR
 10
1.0
 20
0.0
 30
0.0
  9
$PUCSYDIR
 10
0.0
 20
1.0
 30
0.0
  9
$USERI1
 70
     0
  9
$USERI2
 70
     0
  9
$USERI3
 70
     0
  9
$USERI4
 70
     0
  9
$USERI5
 70
     0
  9
$USERR1
 40
0.0
  9
$USERR2
 40
0.0
  9
$USERR3
 40
0.0
  9
$USERR4
 40
0.0
  9
$USERR5
 40
0.0
  9
$WORLDVIEW
 70
     1
  9
$SHADEDGE
 70
     3
  9
$SHADEDIF
 70
    70
  9
$TILEMODE
 70
     1
  9
$MAXACTVP
 70
    16
  9
$PLIMCHECK
 70
     0
  9
$PEXTMIN
 10
1.0000000000000000E+20
 20
1.0000000000000000E+20
 30
1.0000000000000000E+20
  9
$PEXTMAX
 10
-1.0000000000000000E+20
 20
-1.0000000000000000E+20
 30
-1.0000000000000000E+20
  9
$PLIMMIN
 10
-5.027082920074462
 20
-6.4382776093749987
  9
$PLIMMAX
 10
204.9462447166442871
 20
290.4877172636719251
  9
$UNITMODE
 70
     0
  9
$VISRETAIN
 70
     0
  9
$PLINEGEN
 70
     0
  9
$PSLTSCALE
 70
     0
  0
ENDSEC
  0
SECTION
  2
TABLES
  0
TABLE
  2
VPORT
 70
     1
  0
VPORT
  2
*ACTIVE
 70
     0
 10
0.0
 20
0.0
 11
1.0
 21
1.0
 12
-0.0000000000000568
 22
-72.2374107360840867
 13
0.0
 23
0.0
 14
1.0
 24
1.0
 15
10.0
 25
10.0
 16
0.0000000000001948
 26
0.0
 36
877.4871084060729345
 17
0.0
 27
120.2874107360838991
 37
-0.0000000000000189
 40
476.315802888700091
 41
1.868197278911564
 42
50.0
 43
0.0
 44
0.0
 50
0.0
 51
0.0
 71
     0
 72
  1500
 73
     1
 74
     0
 75
     0
 76
     0
 77
     0
 78
     0
  0
ENDTAB
  0
TABLE
  2
LTYPE
 70
     7
  0
LTYPE
  2
CONTINUOUS
 70
     0
  3
Solid line
 72
    65
 73
     0
 40
0.0
  0
LTYPE
  2
PHANTOM2
 70
     0
  3
Phantom (.5x) ___ _ _ ___ _ _ ___ _ _ ___ _ _
 72
    65
 73
     6
 40
1.25
 49
0.625
 49
-0.125
 49
0.125
 49
-0.125
 49
0.125
 49
-0.125
  0
LTYPE
  2
AUSGEZOGEN
 70
     0
  3
Ausgezogene Linie
 72
    65
 73
     0
 40
0.0
  0
LTYPE
  2
VERDECKT
 70
     0
  3
_ _ _ _ _ _ _ _ _ _ _ _ _ _ _ _ _ _ _ _ _ _ _
 72
    65
 73
     2
 40
0.375
 49
0.25
 49
-0.125
  0
ENDTAB
  0
TABLE
  2
LAYER
 70
    17
  0
LAYER
  2
0
 70
     0
 62
     7
  6
CONTINUOUS
  0
LAYER
  2
VOLL
 70
     0
 62
     1
  6
CONTINUOUS
  0
LAYER
  2
BEM
 70
     0
 62
     7
  6
CONTINUOUS
  0
LAYER
  2
STEMPEL
 70
     0
 62
     3
  6
CONTINUOUS
  0
LAYER
  2
DEFPOINTS
 70
     0
 62
     7
  6
CONTINUOUS
  0
LAYER
  2
ADSK_ASSOC_ENTITY_BACKUPS
 70
     1
 62
    -7
  6
CONTINUOUS
  0
ENDTAB
  0
TABLE
  2
STYLE
 70
     2
  0
STYLE
  2
STANDARD
 70
     0
 40
0.0
 41
0.8
 50
0.0
 71
     0
 42
3.5
  3
simplex.shx
  4

  0
STYLE
  2
GREEKS
 70
     0
 40
0.0
 41
0.8
 50
0.0
 71
     0
 42
2.5
  3
SIMPLEX.shx
  4

  0
ENDTAB
  0
TABLE
  2
VIEW
 70
     2
  0
ENDTAB
  0
TABLE
  2
UCS
 70
     0
  0
ENDTAB
  0
TABLE
  2
APPID
 70
    34
  0
APPID
  2
ACAD
 70
     0
  0
APPID
  2
ACAD_EXEMPT_FROM_CAD_STANDARDS
 70
     0
  0
APPID
  2
ACAD_NAV_VCDISPLAY
 70
     0
  0
APPID
  2
ACAECLAYERSTANDARD
 70
     0
  0
APPID
  2
ACCMTRANSPARENCY
 70
     0
  0
APPID
  2
ACAD_PSEXT
 70
     0
  0
APPID
  2
GRADIENTCOLOR1ACI
 70
     0
  0
APPID
  2
GRADIENTCOLOR2ACI
 70
     0
  0
APPID
  2
ACAD_MLEADERVER
 70
     0
  0
APPID
  2
ACAD_OBJECT_CHANGE_GUID
 70
     0
  0
APPID
  2
MCAD_NO_VIS
 70
     0
  0
APPID
  2
ACAD_TEMP_GRAPHIC
 70
     0
  0
APPID
  2
ACATTRIBSERVICES
 70
     0
  0
APPID
  2
DESIGNERASSEMBLIES
 70
     0
  0
APPID
  2
ACAD_DSTYLE_DIMJAG
 70
     0
  0
APPID
  2
ACAD_DSTYLE_DIMBREAK
 70
     0
  0
APPID
  2
GENIUS_GENSCREG_15
 70
     0
  0
APPID
  2
GENIUS_GENOBJ-N-SDF_13
 70
     0
  0
APPID
  2
GENIUS_GENODEF_13
 70
     0
  0
APPID
  2
RAK
 70
     0
  0
APPID
  2
ACAUTHENVIRON
 70
     0
  0
APPID
  2
ACDBDYNAMICBLOCKTRUENAME
 70
     0
  0
APPID
  2
ACDBDYNAMICBLOCKGUID
 70
     0
  0
APPID
  2
ACSYNERGY
 70
     0
  0
APPID
  2
SYNERGY_BODY_TBR_ID
 70
     0
  0
APPID
  2
ACAD_VIEW_EDGE_ID
 70
     0
  0
APPID
  2
ACSYNERGYSKETCH
 70
     0
  0
APPID
  2
ACAD_STEPID
 70
     0
  0
APPID
  2
ACAD_MODELDOC_XFORM
 70
     0
  0
APPID
  2
GENIUS_GENDTOL_13
 70
     0
  0
APPID
  2
ACAD_DSTYLE_DIMINSPECT
 70
     0
  0
APPID
  2
ACADANNOMONITORALERTICONDI
 70
     0
  0
APPID
  2
GENIUS_GENDIMSH_14
 70
     0
  0
APPID
  2
ACDBATTR
 70
     0
  0
ENDTAB
  0
TABLE
  2
DIMSTYLE
 70
     2
  0
DIMSTYLE
  2
STANDARD
 70
     0
  3

  4

  5

  6

  7

 40
1.0
 41
0.18
 42
0.0625
 43
0.38
 44
0.18
 45
0.0
 46
0.0
 47
0.0
 48
0.0
140
0.18
141
0.09
142
0.0
143
25.3999999999999986
144
1.0
145
0.0
146
1.0
147
0.09
 71
     0
 72
     0
 73
     1
 74
     1
 75
     0
 76
     0
 77
     0
 78
     0
170
     0
171
     2
172
     0
173
     0
174
     0
175
     0
176
     0
177
     0
178
     0
  0
ENDTAB
  0
ENDSEC
  0
SECTION
  2
BLOCKS
  0
BLOCK
  8
0
  2
$MODEL_SPACE
 70
     0
 10
0.0
 20
0.0
 30
0.0
  3
$MODEL_SPACE
  1

  0
ENDBLK
  5
36
  8
0
  0
BLOCK
 67
     1
  8
0
  2
$PAPER_SPACE
 70
     0
 10
0.0
 20
0.0
 30
0.0
  3
$PAPER_SPACE
  1

  0
ENDBLK
  5
34
 67
     1
  8
0
  0
BLOCK
  8
0
  2
*S0
 70
     1
 10
0.0
 20
0.0
 30
0.0
  3
*S0
  1

  0
ENDBLK
  5
FA2
  8
0
  0
BLOCK
  8
0
  2
A$C311B60D9
 70
     0
 10
0.0
 20
0.0
 30
0.0
  3
A$C311B60D9
  1

  0
LINE
  5
2B61
  8
0
  6
CONTINUOUS
 62
     3
 10
-44.4500000000000384
 20
75.0000000000000568
 30
0.0000000000000014
 11
44.4500000000000384
 21
75.0000000000000568
 31
0.0000000000000014
210
0.0
220
1.0
230
0.0000000000000008
  0
LINE
  5
2B62
  8
0
  6
CONTINUOUS
 62
     3
 10
-44.4500000000000384
 20
175.0
 30
0.0000000000000223
 11
44.4500000000000384
 21
175.0
 31
0.0000000000000223
210
0.0
220
1.0
230
0.0000000000000008
  0
LINE
  5
2B63
  8
0
  6
CONTINUOUS
 62
     3
 10
44.4500000000000384
 20
175.0
 30
0.0000000000000223
 11
44.4500000000000384
 21
75.0000000000000568
 31
0.0000000000000168
210
0.0
220
1.0
230
0.0000000000000008
  0
LINE
  5
2B64
  8
0
  6
CONTINUOUS
 62
     3
 10
-44.4500000000000384
 20
175.0
 30
0.0000000000000223
 11
-44.4500000000000384
 21
75.0000000000000568
 31
0.0000000000000168
210
0.0
220
1.0
230
0.0000000000000008
  0
LINE
  5
2B65
  8
0
  6
CONTINUOUS
 62
     3
 10
-38.0000000000001066
 20
179.0
 30
0.0000000000000254
 11
38.0000000000001066
 21
179.0
 31
0.0000000000000254
210
0.0
220
1.0
230
0.0000000000000008
  0
LINE
  5
2B66
  8
0
  6
CONTINUOUS
 62
     3
 10
38.0
 20
179.0
 30
0.0000000000000254
 11
38.0
 21
175.0
 31
0.0000000000000252
210
0.0
220
1.0
230
0.0000000000000008
  0
LINE
  5
2B67
  8
0
  6
CONTINUOUS
 62
     3
 10
-38.0
 20
179.0
 30
0.0000000000000254
 11
-38.0
 21
175.0
 31
0.0000000000000252
210
0.0
220
1.0
230
0.0000000000000008
  0
LINE
  5
2B68
  8
0
  6
CONTINUOUS
 62
     3
 10
-20.3933091116335916
 20
0.0
 30
0.0
 11
20.3933091116335916
 21
0.0
 31
0.0
210
0.0
220
1.0
230
0.0000000000000008
  0
LINE
  5
2B69
  8
0
  6
CONTINUOUS
 62
     3
 10
-24.1476030003185613
 20
285.0
 30
0.0000000000000225
 11
24.1476030003185613
 21
285.0
 31
0.0000000000000225
210
0.0
220
1.0
230
0.0000000000000008
  0
LINE
  5
2B6A
  8
0
  6
CONTINUOUS
 62
     3
 10
25.4998448162652984
 20
278.5293811158530843
 30
0.0000000000000175
 11
25.4998448162652984
 21
273.3669999999996776
 31
0.0000000000000172
210
0.0
220
1.0
230
0.0000000000000008
  0
LINE
  5
2B6B
  8
0
  6
CONTINUOUS
 62
     3
 10
-25.4998448162652984
 20
278.5293811158530843
 30
0.0000000000000175
 11
-25.4998448162652984
 21
273.3669999999996776
 31
0.0000000000000172
210
0.0
220
1.0
230
0.0000000000000008
  0
ARC
  5
2B6C
  8
0
  6
CONTINUOUS
 62
     3
 10
5.499999999997498
 20
273.3670000000003029
 30
0.0000000000000015
 40
19.9998448162677889
210
0.0
220
0.0000000000000001
230
-1.0
 50
341.8060294016171952
 51
359.9999999999984084
  0
ARC
  5
2B6D
  8
0
  6
CONTINUOUS
 62
     3
 10
-5.499999999997498
 20
273.3670000000003029
 30
0.0000000000000015
 40
19.9998448162677889
210
0.0
220
0.0000000000000001
230
-1.0
 50
180.0000000000015916
 51
198.1939705983828048
  0
ARC
  5
2B6E
  8
0
  6
CONTINUOUS
 62
     3
 10
34.0000000000003411
 20
263.9999999999998863
 30
0.0000000000000082
 40
10.0000000000003393
210
0.0
220
0.0000000000000001
230
-1.0
 50
161.8060294016171952
 51
180.0
  0
ARC
  5
2B6F
  8
0
  6
CONTINUOUS
 62
     3
 10
-34.0000000000003411
 20
263.9999999999998863
 30
0.0000000000000082
 40
10.0000000000003393
210
0.0
220
0.0000000000000001
230
-1.0
 50
0.0
 51
18.1939705983828084
  0
LINE
  5
2B70
  8
0
  6
CONTINUOUS
 62
     3
 10
24.0
 20
264.0
 30
0.0000000000000062
 11
24.0
 21
259.8218253804964206
 31
0.000000000000006
210
0.0
220
1.0
230
0.0000000000000008
  0
LINE
  5
2B71
  8
0
  6
CONTINUOUS
 62
     3
 10
-24.0
 20
264.0
 30
0.0000000000000062
 11
-24.0
 21
259.8218253804964206
 31
0.000000000000006
210
0.0
220
1.0
230
0.0000000000000008
  0
ARC
  5
2B72
  8
0
  6
CONTINUOUS
 62
     3
 10
13.9999999999998899
 20
259.8218253804964206
 30
0.0000000000000113
 40
10.0000000000001101
210
0.0
220
0.0000000000000001
230
-1.0
 50
324.3409123038611028
 51
0.0
  0
ARC
  5
2B73
  8
0
  6
CONTINUOUS
 62
     3
 10
-13.9999999999998899
 20
259.8218253804964206
 30
0.0000000000000113
 40
10.0000000000001101
210
0.0
220
0.0000000000000001
230
-1.0
 50
180.0
 51
215.6590876961388972
  0
ARC
  5
2B74
  8
0
  6
CONTINUOUS
 62
     3
 10
26.9999999999990905
 20
250.4944463274077862
 30
-0.0000000000000104
 40
5.9999999999990958
210
0.0
220
0.0000000000000001
230
-1.0
 50
144.3409123038597954
 51
180.0000000000015916
  0
ARC
  5
2B75
  8
0
  6
CONTINUOUS
 62
     3
 10
-26.9999999999990905
 20
250.4944463274077862
 30
-0.0000000000000104
 40
5.9999999999990896
210
0.0
220
0.0000000000000001
230
-1.0
 50
359.9999999999968168
 51
35.6590876961402188
  0
LINE
  5
2B76
  8
0
  6
CONTINUOUS
 62
     3
 10
21.0
 20
250.4944463274075872
 30
0.0000000000000241
 11
21.0
 21
179.0
 31
0.0000000000000202
210
0.0
220
1.0
230
0.0000000000000008
  0
LINE
  5
2B77
  8
0
  6
CONTINUOUS
 62
     3
 10
21.0
 20
75.0000000000000568
 30
0.0000000000000014
 11
21.0
 21
6.9345085856374453
 31
-0.0000000000000023
210
0.0
220
1.0
230
0.0000000000000008
  0
LINE
  5
2B78
  8
0
  6
CONTINUOUS
 62
     3
 10
-21.0
 20
250.4944463274075872
 30
0.0000000000000241
 11
-21.0
 21
179.0
 31
0.0000000000000202
210
0.0
220
1.0
230
0.0000000000000008
  0
LINE
  5
2B79
  8
0
  6
CONTINUOUS
 62
     3
 10
-21.0
 20
75.0000000000000568
 30
0.0000000000000014
 11
-21.0
 21
6.9345085856374453
 31
-0.0000000000000023
210
0.0
220
1.0
230
0.0000000000000008
  0
LINE
  5
2B7A
  8
0
  6
CONTINUOUS
 62
     3
 10
-20.3933091116335916
 20
0.0
 30
0.0
 11
-21.0
 21
6.9345085856374453
 31
0.0000000000000004
210
0.0
220
1.0
230
0.0000000000000008
  0
LINE
  5
2B7B
  8
0
  6
CONTINUOUS
 62
     3
 10
20.3933091116335916
 20
0.0
 30
0.0
 11
21.0
 21
6.9345085856374453
 31
0.0000000000000004
210
0.0
220
1.0
230
0.0000000000000008
  0
ARC
  5
2B7C
  8
0
  6
CONTINUOUS
 62
     3
 10
9.3424289763831894
 20
278.5293811158539938
 30
-0.0000000000000023
 40
16.1574158398822192
210
0.0
220
0.0000000000000001
230
-1.0
 50
359.9999999999968168
 51
23.6077903705759589
  0
ARC
  5
2B7D
  8
0
  6
CONTINUOUS
 62
     3
 10
-9.3424289763831894
 20
278.5293811158539938
 30
-0.0000000000000023
 40
16.1574158398822192
210
0.0
220
0.0000000000000001
230
-1.0
 50
156.3922096294240021
 51
180.0000000000032117
  0
LINE
  5
2B7E
  8
0
  6
VERDECKT
 62
     1
 10
35.6500000000000909
 20
175.0
 30
0.0000000000000223
 11
35.6500000000000909
 21
75.0000000000000568
 31
0.0000000000000168
210
0.0
220
1.0
230
0.0000000000000008
  0
LINE
  5
2B7F
  8
0
  6
VERDECKT
 62
     1
 10
-35.6500000000000909
 20
175.0
 30
0.0000000000000223
 11
-35.6500000000000909
 21
75.0000000000000568
 31
0.0000000000000168
210
0.0
220
1.0
230
0.0000000000000008
  0
LINE
  5
2B80
  8
0
  6
VERDECKT
 62
     1
 10
21.5
 20
179.0000000000001137
 30
0.0000000000000254
 11
21.5
 21
175.0
 31
0.0000000000000252
210
0.0
220
1.0
230
0.0000000000000008
  0
LINE
  5
2B81
  8
0
  6
VERDECKT
 62
     1
 10
-21.5
 20
179.0000000000001137
 30
0.0000000000000254
 11
-21.5
 21
175.0
 31
0.0000000000000252
210
0.0
220
1.0
230
0.0000000000000008
  0
ARC
  5
2B82
  8
0
  6
VERDECKT
 62
     1
 10
9.5000000000187583
 20
7.4366094290847959
 30
-0.0000000000000054
 40
9.9999999999812417
210
0.0
220
0.0000000000000001
230
-1.0
 50
354.9999999999951115
 51
0.0000000000032569
  0
ARC
  5
2B83
  8
0
  6
VERDECKT
 62
     1
 10
-9.5000000000187583
 20
7.4366094290847959
 30
-0.0000000000000054
 40
9.9999999999812381
210
0.0
220
0.0000000000000001
230
-1.0
 50
179.9999999999967031
 51
185.0000000000048885
  0
LINE
  5
2B84
  8
0
  6
VERDECKT
 62
     1
 10
-18.8875793553186213
 20
0.0
 30
0.0
 11
-19.461946980917439
 21
6.5650520016089331
 31
0.0000000000000004
210
0.0
220
1.0
230
0.0000000000000008
  0
LINE
  5
2B85
  8
0
  6
VERDECKT
 62
     1
 10
18.8875793553186213
 20
0.0
 30
0.0
 11
19.461946980917439
 21
6.5650520016089331
 31
0.0000000000000004
210
0.0
220
1.0
230
0.0000000000000008
  0
LINE
  5
2B86
  8
0
  6
VERDECKT
 62
     1
 10
19.5
 20
250.4944463274075872
 30
0.0000000000000241
 11
19.5
 21
7.4366094290853653
 31
0.0000000000000108
210
0.0
220
1.0
230
0.0000000000000008
  0
LINE
  5
2B87
  8
0
  6
VERDECKT
 62
     1
 10
-19.5
 20
250.4944463274075872
 30
0.0000000000000241
 11
-19.5
 21
7.4366094290853653
 31
0.0000000000000108
210
0.0
220
1.0
230
0.0000000000000008
  0
LINE
  5
2B88
  8
0
  6
VERDECKT
 62
     1
 10
21.0
 20
179.0
 30
0.0000000000000254
 11
21.0
 21
75.0000000000000568
 31
0.0000000000000197
210
0.0
220
1.0
230
0.0000000000000008
  0
LINE
  5
2B89
  8
0
  6
VERDECKT
 62
     1
 10
-21.0
 20
179.0
 30
0.0000000000000254
 11
-21.0
 21
75.0000000000000568
 31
0.0000000000000197
210
0.0
220
1.0
230
0.0000000000000008
  0
ARC
  5
2B8A
  8
0
  6
VERDECKT
 62
     1
 10
26.9999999999996589
 20
250.4944463274075019
 30
-0.0000000000000104
 40
7.4999999999997611
210
0.0
220
0.0000000000000001
230
-1.0
 50
144.3409123038597954
 51
180.0
  0
ARC
  5
2B8B
  8
0
  6
VERDECKT
 62
     1
 10
-26.9999999999996589
 20
250.4944463274075019
 30
-0.0000000000000104
 40
7.4999999999997717
210
0.0
220
0.0000000000000001
230
-1.0
 50
0.0
 51
35.6590876961402188
  0
ARC
  5
2B8C
  8
0
  6
VERDECKT
 62
     1
 10
14.0000000000013607
 20
259.821825380495909
 30
0.0000000000000113
 40
8.4999999999986233
210
0.0
220
0.0000000000000001
230
-1.0
 50
324.3409123038597954
 51
0.0000000000032569
  0
ARC
  5
2B8D
  8
0
  6
VERDECKT
 62
     1
 10
-14.0000000000013607
 20
259.821825380495909
 30
0.0000000000000113
 40
8.4999999999986358
210
0.0
220
0.0000000000000001
230
-1.0
 50
179.9999999999967031
 51
215.6590876961402046
  0
LINE
  5
2B8E
  8
0
  6
VERDECKT
 62
     1
 10
22.4999999999998899
 20
263.9999999999989768
 30
0.0000000000000062
 11
22.4999999999998899
 21
259.8218253804964206
 31
0.000000000000006
210
0.0
220
1.0
230
0.0000000000000008
  0
LINE
  5
2B8F
  8
0
  6
VERDECKT
 62
     1
 10
-22.4999999999998899
 20
263.9999999999989768
 30
0.0000000000000062
 11
-22.4999999999998899
 21
259.8218253804964206
 31
0.000000000000006
210
0.0
220
1.0
230
0.0000000000000008
  0
ARC
  5
2B90
  8
0
  6
VERDECKT
 62
     1
 10
33.9999999999983018
 20
263.9999999999993747
 30
0.0000000000000082
 40
11.4999999999985203
210
0.0
220
0.0000000000000001
230
-1.0
 50
161.8060294016109992
 51
180.0000000000015916
  0
ARC
  5
2B91
  8
0
  6
VERDECKT
 62
     1
 10
-33.9999999999983018
 20
263.9999999999993747
 30
0.0000000000000082
 40
11.4999999999985203
210
0.0
220
0.0000000000000001
230
-1.0
 50
359.9999999999968168
 51
18.1939705983890008
  0
ARC
  5
2B92
  8
0
  6
VERDECKT
 62
     1
 10
5.5000000000162572
 20
273.3669999999972902
 30
0.0000000000000015
 40
18.4998448162490412
210
0.0
220
0.0000000000000001
230
-1.0
 50
341.8060294016074181
 51
0.0000000000081422
  0
ARC
  5
2B93
  8
0
  6
VERDECKT
 62
     1
 10
-5.5000000000162572
 20
273.3669999999972902
 30
0.0000000000000015
 40
18.4998448162490412
210
0.0
220
0.0000000000000001
230
-1.0
 50
179.9999999999917861
 51
198.1939705983926103
  0
LINE
  5
2B94
  8
0
  6
VERDECKT
 62
     1
 10
-23.9998448162652984
 20
273.3669999999997913
 30
0.0000000000000135
 11
-23.9999999721235291
 21
278.4569051880137067
 31
0.0000000000000138
210
0.0
220
1.0
230
0.0000000000000008
  0
LINE
  5
2B95
  8
0
  6
VERDECKT
 62
     1
 10
23.9998448162652984
 20
273.3669999999997913
 30
0.0000000000000135
 11
23.9999999721235291
 21
278.4569051880137067
 31
0.0000000000000138
210
0.0
220
1.0
230
0.0000000000000008
  0
ARC
  5
2B96
  8
0
  6
VERDECKT
 62
     1
 10
8.9980081951691773
 20
278.4573624945500114
 30
-0.0000000000000022
 40
15.0019917839243995
210
0.0
220
0.0000000000000001
230
-1.0
 50
359.9982534496186872
 51
25.8564504416019894
  0
ARC
  5
2B97
  8
0
  6
VERDECKT
 62
     1
 10
-8.9980081951691773
 20
278.4573624945500114
 30
-0.0000000000000022
 40
15.0019917839243995
210
0.0
220
0.0000000000000001
230
-1.0
 50
154.1435495583980071
 51
180.0017465503811991
  0
ENDBLK
  5
2B5A
  8
0
  0
BLOCK
  8
0
  2
A$C2F4E6EB3
 70
     0
 10
0.0
 20
0.0
 30
0.0
  3
A$C2F4E6EB3
  1

  0
CIRCLE
  5
2B9E
  8
0
  6
CONTINUOUS
 62
     3
 10
0.0000000000000389
 20
0.0
 30
0.0
 40
44.4500000000000384
  0
CIRCLE
  5
2B9F
  8
0
  6
CONTINUOUS
 62
     3
 10
0.0000000000000397
 20
0.0
 30
0.0
 40
38.0000000000001066
  0
CIRCLE
  5
2BA0
  8
0
  6
CONTINUOUS
 62
     3
 10
0.0
 20
0.0
 30
0.0
 40
18.8875793553186213
  0
CIRCLE
  5
2BA1
  8
0
  6
CONTINUOUS
 62
     3
 10
0.0000000000000556
 20
0.0
 30
0.0
 40
19.4999999999998792
  0
CIRCLE
  5
2BA2
  8
0
  6
CONTINUOUS
 62
     3
 10
0.0000000000000618
 20
0.0
 30
0.0
 40
25.4998448162654086
  0
CIRCLE
  5
2BA3
  8
0
  6
CONTINUOUS
 62
     3
 10
0.0000000000000633
 20
0.0
 30
0.0
 40
22.4981434521662287
  0
CIRCLE
  5
2BA4
  8
0
  6
CONTINUOUS
 62
     3
 10
0.0000000000000633
 20
0.0
 30
0.0
 40
24.1476030003185613
  0
CIRCLE
  5
2BA5
  8
0
  6
VERDECKT
 62
     1
 10
0.0000000000000389
 20
0.0
 30
0.0
 40
35.6499999999999773
  0
CIRCLE
  5
2BA6
  8
0
  6
VERDECKT
 62
     1
 10
0.0000000000000397
 20
0.0
 30
0.0
 40
21.5
  0
CIRCLE
  5
2BA7
  8
0
  6
VERDECKT
 62
     1
 10
0.0000000000000556
 20
0.0
 30
0.0
 40
21.0
  0
CIRCLE
  5
2BA8
  8
0
  6
VERDECKT
 62
     1
 10
0.0
 20
0.0
 30
0.0
 40
20.3933091116335916
  0
CIRCLE
  5
2BA9
  8
0
  6
VERDECKT
 62
     1
 10
0.0000000000000586
 20
0.0
 30
0.0
 40
22.4999999999997691
  0
CIRCLE
  5
2BAA
  8
0
  6
VERDECKT
 62
     1
 10
0.0000000000000618
 20
0.0
 30
0.0
 40
23.9999999790935803
  0
ENDBLK
  5
2BAC
  8
0
  0
ENDSEC
  0
SECTION
  2
ENTITIES
  0
TEXT
  5
8F
  8
VOLL
 10
78.076754716981128
 20
31.025947764705851
 30
0.0
 40
1.8
  1

  7
GREEKS
  0
INSERT
  5
FA4
  8
ADSK_ASSOC_ENTITY_BACKUPS
  2
*S0
 10
0.0
 20
0.0
 30
0.0
  0
INSERT
  5
2B5B
  8
BEM
  2
A$C311B60D9
 10
0.0
 20
0.0
 30
0.0
  0
INSERT
  5
2BAD
  8
STEMPEL
  2
A$C2F4E6EB3
 10
0.0
 20
-144.4499999999999886
 30
0.0
  0
VIEWPORT
  5
702
 67
     1
  8
0
 10
99.9595808982848837
 20
142.0247198271484024
 30
0.0
 40
557.5441164704363928
 41
298.4396363082536254
 68
     1
 69
     1
1001
ACAD
1000
MVIEW
1002
{
1070
    16
1010
0.0
1020
0.0
1030
0.0
1010
0.0
1020
0.0
1030
1.0
1040
0.0
1040
298.4396363082536254
1040
99.9595808982848837
1040
142.0247198271484024
1040
50.0
1040
0.0
1040
0.0
1070
     0
1070
  1500
1070
     1
1070
     1
1070
     0
1070
     0
1070
     0
1070
     0
1040
0.0
1040
0.0
1040
0.0
1040
10.0
1040
10.0
1040
10.0
1040
10.0
1070
     0
1002
{
1002
}
1002
}
1001
GENIUS_GENOBJ-N-SDF_13
1002
{
1000
OWNER
1000
GEN
1002
}
1001
GENIUS_GENODEF_13
1002
{
1000
HIER
1070
     0
1002
}
1002
{
1000
MANEDIT
1070
     0
1002
}
1002
{
1000
NOSEL
1070
     0
1002
}
1002
{
1000
BEHIND
1070
     0
1002
}
1002
{
1000
OTHER
1070
     0
1002
}
1002
{
1000
REACTOR
1002
}
1001
GENIUS_GENSCREG_15
1000
PF
1040
1.0
1000
DF
1040
1.0
1000
MIN
1011
-139.1039069567958961
1021
0.0
1031
0.0
1021
12.3070856871353804
1031
0.0
1000
MAX
1011
434.2906825396116233
1021
0.0
1031
0.0
1021
264.5873392243076978
1031
0.0
1000
FLAGS
1070
     4
  0
ENDSEC
  0
EOF
