  0
SECTION
  2
HEADER
  9
$ACADVER
  1
AC1009
  9
$INSBASE
 10
0.0
 20
0.0
 30
0.0
  9
$EXTMIN
 10
294.2975248075828745
 20
-74.5234782348068308
 30
-74.5234782348068165
  9
$EXTMAX
 10
404.2975248075828176
 20
201.4654235200436858
 30
41.9765217651931835
  9
$LIMMIN
 10
0.0
 20
0.0
  9
$LIMMAX
 10
210.0
 20
297.0
  9
$ORTHOMODE
 70
     1
  9
$REGENMODE
 70
     1
  9
$FILLMODE
 70
     1
  9
$QTEXTMODE
 70
     0
  9
$MIRRTEXT
 70
     1
  9
$DRAGMODE
 70
     2
  9
$LTSCALE
 40
10.0
  9
$OSMODE
 70
   183
  9
$ATTMODE
 70
     1
  9
$TEXTSIZE
 40
3.5
  9
$TRACEWID
 40
0.5
  9
$TEXTSTYLE
  7
STANDARD
  9
$CLAYER
  8
STEMPEL
  9
$CELTYPE
  6
BYLAYER
  9
$CECOLOR
 62
   256
  9
$DIMSCALE
 40
1.0
  9
$DIMASZ
 40
3.5
  9
$DIMEXO
 40
1.0
  9
$DIMDLI
 40
7.0
  9
$DIMRND
 40
0.0
  9
$DIMDLE
 40
0.0
  9
$DIMEXE
 40
1.0
  9
$DIMTP
 40
0.0
  9
$DIMTM
 40
0.0
  9
$DIMTXT
 40
3.5
  9
$DIMCEN
 40
1.5
  9
$DIMTSZ
 40
0.0
  9
$DIMTOL
 70
     0
  9
$DIMLIM
 70
     0
  9
$DIMTIH
 70
     0
  9
$DIMTOH
 70
     0
  9
$DIMSE1
 70
     0
  9
$DIMSE2
 70
     0
  9
$DIMTAD
 70
     1
  9
$DIMZIN
 70
     8
  9
$DIMBLK
  1

  9
$DIMASO
 70
     1
  9
$DIMSHO
 70
     0
  9
$DIMPOST
  1

  9
$DIMAPOST
  1

  9
$DIMALT
 70
     0
  9
$DIMALTD
 70
     2
  9
$DIMALTF
 40
25.3999999999999986
  9
$DIMLFAC
 40
1.0
  9
$DIMTOFL
 70
     1
  9
$DIMTVP
 40
0.0
  9
$DIMTIX
 70
     0
  9
$DIMSOXD
 70
     0
  9
$DIMSAH
 70
     0
  9
$DIMBLK1
  1

  9
$DIMBLK2
  1

  9
$DIMSTYLE
  2
STANDARD
  9
$DIMCLRD
 70
     0
  9
$DIMCLRE
 70
     0
  9
$DIMCLRT
 70
     1
  9
$DIMTFAC
 40
0.5142857142857143
  9
$DIMGAP
 40
1.5
  9
$LUNITS
 70
     2
  9
$LUPREC
 70
     2
  9
$SKETCHINC
 40
1.0
  9
$FILLETRAD
 40
10.1999999999999993
  9
$AUNITS
 70
     0
  9
$AUPREC
 70
     0
  9
$MENU
  1
ACAD
  9
$ELEVATION
 40
0.0
  9
$PELEVATION
 40
0.0
  9
$THICKNESS
 40
0.0
  9
$LIMCHECK
 70
     0
  9
$BLIPMODE
 70
     0
  9
$CHAMFERA
 40
0.0
  9
$CHAMFERB
 40
0.0
  9
$SKPOLY
 70
     0
  9
$TDCREATE
 40
2455397.8646990740671754
  9
$TDUPDATE
 40
2458386.523449074011296
  9
$TDINDWG
 40
0.6645897569
  9
$TDUSRTIMER
 40
0.6645897569
  9
$USRTIMER
 70
     1
  9
$ANGBASE
 50
0.0
  9
$ANGDIR
 70
     0
  9
$PDMODE
 70
     0
  9
$PDSIZE
 40
0.0
  9
$PLINEWID
 40
0.0
  9
$COORDS
 70
     1
  9
$SPLFRAME
 70
     0
  9
$SPLINETYPE
 70
     6
  9
$SPLINESEGS
 70
     8
  9
$ATTDIA
 70
     1
  9
$ATTREQ
 70
     1
  9
$HANDLING
 70
     1
  9
$HANDSEED
  5
3175
  9
$SURFTAB1
 70
     6
  9
$SURFTAB2
 70
     6
  9
$SURFTYPE
 70
     6
  9
$SURFU
 70
     6
  9
$SURFV
 70
     6
  9
$UCSNAME
  2

  9
$UCSORG
 10
0.0
 20
0.0
 30
0.0
  9
$UCSXDIR
 10
1.0
 20
0.0
 30
0.0
  9
$UCSYDIR
 10
0.0
 20
1.0
 30
0.0
  9
$PUCSNAME
  2

  9
$PUCSORG
 10
0.0
 20
0.0
 30
0.0
  9
$PUCSXDIR
 10
1.0
 20
0.0
 30
0.0
  9
$PUCSYDIR
 10
0.0
 20
1.0
 30
0.0
  9
$USERI1
 70
     0
  9
$USERI2
 70
     0
  9
$USERI3
 70
     0
  9
$USERI4
 70
     0
  9
$USERI5
 70
     0
  9
$USERR1
 40
0.0
  9
$USERR2
 40
0.0
  9
$USERR3
 40
0.0
  9
$USERR4
 40
0.0
  9
$USERR5
 40
0.0
  9
$WORLDVIEW
 70
     1
  9
$SHADEDGE
 70
     3
  9
$SHADEDIF
 70
    70
  9
$TILEMODE
 70
     1
  9
$MAXACTVP
 70
    16
  9
$PLIMCHECK
 70
     0
  9
$PEXTMIN
 10
-5.0559153373700951
 20
-4.8320931685866517
 30
-0.0000000039384695
  9
$PEXTMAX
 10
204.9590628182592127
 20
292.1888720117726166
 30
0.0000000124747896
  9
$PLIMMIN
 10
-5.027082920074462
 20
-5.027099609375
  9
$PLIMMAX
 10
204.9462447166442871
 20
291.898895263671875
  9
$UNITMODE
 70
     0
  9
$VISRETAIN
 70
     0
  9
$PLINEGEN
 70
     0
  9
$PSLTSCALE
 70
     0
  0
ENDSEC
  0
SECTION
  2
TABLES
  0
TABLE
  2
VPORT
 70
     1
  0
VPORT
  2
*ACTIVE
 70
     0
 10
0.0
 20
0.0
 11
1.0
 21
1.0
 12
0.0
 22
0.0
 13
0.0
 23
0.0
 14
1.0
 24
1.0
 15
10.0
 25
10.0
 16
-0.0000000000004547
 26
0.0
 36
1722.4591251389740592
 17
644.9043077618922553
 27
30.1359799078777613
 37
0.0000000000000788
 40
696.0228156764628693
 41
1.8224299065420559
 42
50.0
 43
0.0
 44
0.0
 50
0.0
 51
0.0
 71
     0
 72
  1500
 73
     1
 74
     0
 75
     0
 76
     0
 77
     0
 78
     0
  0
ENDTAB
  0
TABLE
  2
LTYPE
 70
    14
  0
LTYPE
  2
CONTINUOUS
 70
     0
  3
Solid line
 72
    65
 73
     0
 40
0.0
  0
LTYPE
  2
STRICHPUNKT
 70
     0
  3
__ . __ . __ . __ . __ . __ . __ . __ . __ . __
 72
    65
 73
     4
 40
1.0
 49
0.5
 49
-0.25
 49
0.0
 49
-0.25
  0
LTYPE
  2
AUSGEZOGEN
 70
     0
  3
Ausgezogene Linie
 72
    65
 73
     0
 40
0.0
  0
LTYPE
  2
HIDDEN2
 70
     0
  3

 72
    65
 73
     2
 40
0.1875
 49
0.125
 49
-0.0625
  0
LTYPE
  2
HIDDEN
 70
     0
  3
Hidden __ __ __ __ __ __ __ __ __ __ __ __ __ __
 72
    65
 73
     2
 40
0.375
 49
0.25
 49
-0.125
  0
LTYPE
  2
PHANTOM2
 70
     0
  3
Phantom (.5x) ___ _ _ ___ _ _ ___ _ _ ___ _ _
 72
    65
 73
     6
 40
1.25
 49
0.625
 49
-0.125
 49
0.125
 49
-0.125
 49
0.125
 49
-0.125
  0
LTYPE
  2
CENTER
 70
     0
  3
Center ____ _ ____ _ ____ _ ____ _ ____ _ ____
 72
    65
 73
     4
 40
2.0
 49
1.25
 49
-0.25
 49
0.25
 49
-0.25
  0
LTYPE
  2
AMCONSTR
 70
     0
  3
_______________________
 72
    65
 73
     2
 40
9999.0
 49
9999.0
 49
0.0
  0
LTYPE
  2
CENTER2
 70
     0
  3
Center (.5x) ___ _ ___ _ ___ _ ___ _ ___ _ ___
 72
    65
 73
     4
 40
1.125
 49
0.75
 49
-0.125
 49
0.125
 49
-0.125
  0
LTYPE
  2
AMZIGZAG2
 70
     0
  3
/\/-/\/-/\/-/\/-/\/-/\/
 72
    65
 73
     2
 40
0.4401
 49
0.0001
 49
-0.4400000000000001
  0
LTYPE
  2
ACANSTGB
 70
     0
  3
__ . . __ . .
 72
    65
 73
     6
 40
0.35433070866
 49
0.15748031496
 49
-0.03937007874
 49
0.03937007874
 49
-0.03937007874
 49
0.03937007874
 49
-0.03937007874
  0
LTYPE
  2
ACANSTGL
 70
     0
  3
_ _ _ _ _
 72
    65
 73
     2
 40
0.11811023622
 49
0.07874015748
 49
-0.03937007874
  0
LTYPE
  2
ACAD_VIEWBORDER_LINETYPE
 70
     0
  3
Dashed line in view border
 72
    83
 73
     2
 40
0.3937007874
 49
0.0625984251966
 49
-0.249999999999
  0
LTYPE
  2
V2
 70
     0
  3
Sanitary Vent (.5x) __ __ __ __ __ __ __ __ __ __ __
 72
    65
 73
     2
 40
0.375
 49
0.25
 49
-0.125
  0
ENDTAB
  0
TABLE
  2
LAYER
 70
    16
  0
LAYER
  2
0
 70
     0
 62
     7
  6
CONTINUOUS
  0
LAYER
  2
VOLL
 70
     0
 62
     1
  6
CONTINUOUS
  0
LAYER
  2
HILF
 70
     0
 62
     2
  6
CONTINUOUS
  0
LAYER
  2
MITTEL
 70
     0
 62
     2
  6
STRICHPUNKT
  0
LAYER
  2
BEM
 70
     0
 62
     7
  6
CONTINUOUS
  0
LAYER
  2
STEMPEL
 70
     0
 62
     3
  6
CONTINUOUS
  0
LAYER
  2
DEFPOINTS
 70
     0
 62
     7
  6
CONTINUOUS
  0
LAYER
  2
ROHR
 70
     0
 62
   254
  6
CONTINUOUS
  0
LAYER
  2
TEXT25
 70
     0
 62
     7
  6
AUSGEZOGEN
  0
LAYER
  2
ADSK_ASSOC_ENTITY_BACKUPS
 70
     1
 62
    -7
  6
CONTINUOUS
  0
LAYER
  2
MD_SICHTBAR
 70
     0
 62
     7
  6
CONTINUOUS
  0
LAYER
  2
BLECH
 70
     0
 62
   254
  6
CONTINUOUS
  0
LAYER
  2
RAHMEN
 70
     0
 62
     6
  6
AUSGEZOGEN
  0
LAYER
  2
MD_BESCHRIFTUNG_1
 70
     0
 62
    -7
  6
CONTINUOUS
  0
LAYER
  2
MD_SCHRAFFUR_0
 70
     0
 62
     7
  6
CONTINUOUS
  0
LAYER
  2
TEXT
 70
     0
 62
     7
  6
CONTINUOUS
  0
ENDTAB
  0
TABLE
  2
STYLE
 70
     5
  0
STYLE
  2
STANDARD
 70
     0
 40
0.0
 41
0.8
 50
0.0
 71
     0
 42
3.5
  3
simplex.shx
  4

  0
STYLE
  2
GREEKS
 70
     0
 40
0.0
 41
0.8
 50
0.0
 71
     0
 42
2.5
  3
SIMPLEX.shx
  4

  0
STYLE
  2

 70
     1
 40
0.0
 41
1.0
 50
0.0
 71
     0
 42
2.5
  3
genltshp.shx
  4

  0
STYLE
  2
ACANSGDT
 70
     0
 40
0.0
 41
1.0
 50
0.0
 71
     0
 42
2.5
  3
amgdt.shx
  4

  0
ENDTAB
  0
TABLE
  2
VIEW
 70
     1
  0
ENDTAB
  0
TABLE
  2
UCS
 70
     0
  0
ENDTAB
  0
TABLE
  2
APPID
 70
    43
  0
APPID
  2
ACAD
 70
     0
  0
APPID
  2
ACAD_NAV_VCDISPLAY
 70
     0
  0
APPID
  2
GRADIENTCOLOR1ACI
 70
     0
  0
APPID
  2
GRADIENTCOLOR2ACI
 70
     0
  0
APPID
  2
ACAD_EXEMPT_FROM_CAD_STANDARDS
 70
     0
  0
APPID
  2
ACAECLAYERSTANDARD
 70
     0
  0
APPID
  2
ACCMTRANSPARENCY
 70
     0
  0
APPID
  2
ACAD_PSEXT
 70
     0
  0
APPID
  2
ACAD_MLEADERVER
 70
     0
  0
APPID
  2
ACAD_OBJECT_CHANGE_GUID
 70
     0
  0
APPID
  2
MCAD_NO_VIS
 70
     0
  0
APPID
  2
ACAD_TEMP_GRAPHIC
 70
     0
  0
APPID
  2
ACATTRIBSERVICES
 70
     0
  0
APPID
  2
DESIGNERASSEMBLIES
 70
     0
  0
APPID
  2
ACAD_DSTYLE_DIMJAG
 70
     0
  0
APPID
  2
ACAD_DSTYLE_DIMBREAK
 70
     0
  0
APPID
  2
GENIUS_GENSCREG_15
 70
     0
  0
APPID
  2
GENIUS_GENODEF_13
 70
     0
  0
APPID
  2
GENIUS_GENOBJ-N-SDF_13
 70
     0
  0
APPID
  2
ACAD_STEPID
 70
     0
  0
APPID
  2
RAK
 70
     0
  0
APPID
  2
ACAUTHENVIRON
 70
     0
  0
APPID
  2
ACDBDYNAMICBLOCKTRUENAME
 70
     0
  0
APPID
  2
ACDBDYNAMICBLOCKGUID
 70
     0
  0
APPID
  2
ACSYNERGY
 70
     0
  0
APPID
  2
SYNERGY_BODY_TBR_ID
 70
     0
  0
APPID
  2
ACAD_VIEW_EDGE_ID
 70
     0
  0
APPID
  2
GENIUS_GENDTOL_13
 70
     0
  0
APPID
  2
ACAD_DSTYLE_DIMINSPECT
 70
     0
  0
APPID
  2
ACADANNOMONITORALERTICONDI
 70
     0
  0
APPID
  2
ACAD_DSTYLE_DIMTALN
 70
     0
  0
APPID
  2
ACADANNOPO
 70
     0
  0
APPID
  2
ACADANNOTATIVE
 70
     0
  0
APPID
  2
ACAD_ASSOCPERSSUBENTMANAGER
 70
     0
  0
APPID
  2
ACSYNERGYSKETCH
 70
     0
  0
APPID
  2
ACAD_MODELDOC_XFORM
 70
     0
  0
APPID
  2
ACAD_DIMASSOC_CALC_DIMLFAC
 70
     0
  0
APPID
  2
ACAD_DIMASSOC_DIMLFAC
 70
     0
  0
APPID
  2
ACAD_DIMASSOC_OVERRIDDEN_D
 70
     0
  0
APPID
  2
ACAD_DSTYLE_DIMRADIAL_EXTENSION
 70
     0
  0
APPID
  2
GENIUS_GENDIMSH_14
 70
     0
  0
APPID
  2
ACAD_DSTYLE_DIMANGULAR_EXT
 70
     0
  0
APPID
  2
ACADANNOAV
 70
     0
  0
ENDTAB
  0
TABLE
  2
DIMSTYLE
 70
     9
  0
DIMSTYLE
  2
STANDARD
 70
     0
  3

  4

  5

  6

  7

 40
1.0
 41
0.18
 42
0.0625
 43
0.38
 44
0.18
 45
0.0
 46
0.0
 47
0.0
 48
0.0
140
0.18
141
0.09
142
0.0
143
25.3999999999999986
144
1.0
145
0.0
146
1.0
147
0.09
 71
     0
 72
     0
 73
     1
 74
     1
 75
     0
 76
     0
 77
     0
 78
     0
170
     0
171
     2
172
     0
173
     0
174
     0
175
     0
176
     0
177
     0
178
     0
  0
DIMSTYLE
  2
AM_ANSI
 70
     0
  3

  4
mm
  5

  6

  7

 40
1.0
 41
0.12
 42
0.05
 43
0.5
 44
0.1
 45
0.0
 46
0.0
 47
0.1
 48
0.1
140
0.12
141
0.0
142
0.0
143
25.3999999999999986
144
1.0
145
0.0
146
0.71
147
0.06
 71
     0
 72
     0
 73
     1
 74
     1
 75
     0
 76
     0
 77
     0
 78
     7
170
     0
171
     2
172
     0
173
     0
174
     0
175
     0
176
   256
177
   256
178
     2
  0
DIMSTYLE
  2
AM_ANSI$3
 70
     0
  3

  4
mm
  5

  6

  7

 40
1.0
 41
0.12
 42
0.05
 43
0.5
 44
0.1
 45
0.0
 46
0.0
 47
0.1
 48
0.1
140
0.12
141
0.0
142
0.0
143
25.3999999999999986
144
1.0
145
0.0
146
0.71
147
0.06
 71
     0
 72
     0
 73
     1
 74
     1
 75
     0
 76
     0
 77
     0
 78
     7
170
     0
171
     2
172
     0
173
     0
174
     0
175
     0
176
   256
177
   256
178
     2
  0
DIMSTYLE
  2
AM_ANSI$4
 70
     0
  3

  4
mm
  5

  6

  7

 40
1.0
 41
0.12
 42
0.05
 43
0.5
 44
0.1
 45
0.0
 46
0.0
 47
0.1
 48
0.1
140
0.12
141
0.0
142
0.0
143
25.3999999999999986
144
1.0
145
0.0
146
0.71
147
0.06
 71
     0
 72
     0
 73
     1
 74
     1
 75
     0
 76
     0
 77
     0
 78
     7
170
     0
171
     2
172
     0
173
     0
174
     0
175
     0
176
   256
177
   256
178
     2
  0
DIMSTYLE
  2
AM_ANSI$7
 70
     0
  3

  4
mm
  5

  6

  7

 40
1.0
 41
0.12
 42
0.05
 43
0.5
 44
0.1
 45
0.0
 46
0.0
 47
0.1
 48
0.1
140
0.12
141
0.0
142
0.0
143
25.3999999999999986
144
1.0
145
0.0
146
0.71
147
0.06
 71
     0
 72
     0
 73
     1
 74
     1
 75
     0
 76
     0
 77
     0
 78
     7
170
     0
171
     2
172
     0
173
     0
174
     0
175
     0
176
   256
177
   256
178
     2
  0
DIMSTYLE
  2
AM_ANSI$SF
 70
     0
  3

  4
mm
  5

  6

  7

 40
1.0
 41
0.12
 42
0.05
 43
0.5
 44
0.1
 45
0.0
 46
0.0
 47
0.1
 48
0.1
140
0.12
141
0.0
142
0.0
143
25.3999999999999986
144
1.0
145
0.0
146
0.71
147
0.06
 71
     0
 72
     0
 73
     1
 74
     1
 75
     1
 76
     1
 77
     0
 78
     7
170
     0
171
     2
172
     0
173
     0
174
     0
175
     0
176
   256
177
   256
178
     2
  0
DIMSTYLE
  2
AM_ANSI$SH
 70
     0
  3

  4
mm
  5

  6
GENAXEH
  7

 40
1.0
 41
0.12
 42
0.05
 43
0.5
 44
0.1
 45
0.0
 46
0.0
 47
0.1
 48
0.1
140
0.12
141
0.0
142
0.0
143
25.3999999999999986
144
1.0
145
0.0
146
0.71
147
0.06
 71
     0
 72
     0
 73
     1
 74
     1
 75
     1
 76
     1
 77
     0
 78
     7
170
     0
171
     2
172
     0
173
     1
174
     0
175
     0
176
   256
177
   256
178
     2
  0
DIMSTYLE
  2
STANDARD$0
 70
     0
  3

  4

  5

  6

  7

 40
1.0
 41
0.18
 42
0.0625
 43
0.38
 44
0.18
 45
0.0
 46
0.0
 47
0.0
 48
0.0
140
0.18
141
0.09
142
0.0
143
25.3999999999999986
144
1.0
145
0.0
146
1.0
147
0.09
 71
     0
 72
     0
 73
     1
 74
     1
 75
     0
 76
     0
 77
     0
 78
     0
170
     0
171
     2
172
     0
173
     0
174
     0
175
     0
176
     0
177
     0
178
     0
  0
ENDTAB
  0
ENDSEC
  0
SECTION
  2
BLOCKS
  0
BLOCK
  8
0
  2
$MODEL_SPACE
 70
     0
 10
0.0
 20
0.0
 30
0.0
  3
$MODEL_SPACE
  1

  0
ENDBLK
  5
36
  8
0
  0
BLOCK
 67
     1
  8
0
  2
$PAPER_SPACE
 70
     0
 10
0.0
 20
0.0
 30
0.0
  3
$PAPER_SPACE
  1

  0
ENDBLK
  5
34
 67
     1
  8
0
  0
BLOCK
  8
0
  2
GENAXEH
 70
     0
 10
0.0
 20
0.0
 30
0.0
  3
GENAXEH
  1

  0
LINE
  5
C93
  8
0
 10
-1.0
 20
0.0
 30
0.0
 11
1.0
 21
0.0
 31
0.0
  0
ENDBLK
  5
C95
  8
0
  0
BLOCK
  8
0
  2
_ACMFILLEDHALF
 70
     0
 10
0.0
 20
0.0
 30
0.0
  3
_ACMFILLEDHALF
  1

  0
TRACE
  5
CA3
  8
ROHR
 62
     0
 10
-0.8
 20
0.0
 30
0.0
 11
-1.0
 21
0.166666666
 31
0.0
 12
0.0
 22
0.0
 32
0.0
 13
0.0
 23
0.0
 33
0.0
  0
LINE
  5
CA4
  8
ROHR
 62
     0
 10
-1.0
 20
0.0
 30
0.0
 11
-0.8
 21
0.0
 31
0.0
  0
ENDBLK
  5
CA2
  8
0
  0
BLOCK
  8
0
  2
*S2
 70
     1
 10
0.0
 20
0.0
 30
0.0
  3
*S2
  1

  0
ENDBLK
  5
10CB
  8
0
  0
BLOCK
  8
0
  2
*U3
 70
     1
 10
0.0
 20
0.0
 30
0.0
  3
*U3
  1

  0
ENDBLK
  5
1ABA
  8
0
  0
BLOCK
  8
0
  2
*D4
 70
     1
 10
0.0
 20
0.0
 30
0.0
  3
*D4
  1

  0
LINE
  5
2A14
  8
BEM
 62
     0
 10
59.936260880219379
 20
238.9967689392030081
 30
0.0
 11
59.936260880219379
 21
244.8554760121712945
 31
0.0
  0
LINE
  5
2A15
  8
BEM
 62
     0
 10
114.9362608802192938
 20
238.9967689392030081
 30
0.0
 11
114.9362608802192938
 21
244.8554760121712945
 31
0.0
  0
LINE
  5
2A16
  8
BEM
 62
     0
 10
62.936260880219379
 20
243.8554760121712945
 30
0.0
 11
111.9362608802192938
 21
243.8554760121712945
 31
0.0
  0
SOLID
  5
2A17
  8
BEM
 62
     0
 10
62.936260880219379
 20
244.3554760121712945
 30
0.0
 11
62.936260880219379
 21
243.3554760121712945
 31
0.0
 12
59.936260880219379
 22
243.8554760121712945
 32
0.0
 13
59.936260880219379
 23
243.8554760121712945
 33
0.0
  0
SOLID
  5
2A18
  8
BEM
 62
     0
 10
111.9362608802192938
 20
244.3554760121712945
 30
0.0
 11
111.9362608802192938
 21
243.3554760121712945
 31
0.0
 12
114.9362608802192938
 22
243.8554760121712945
 32
0.0
 13
114.9362608802192938
 23
243.8554760121712945
 33
0.0
  0
INSERT
  5
2A19
  8
STEMPEL
  2
*U15
 10
0.0
 20
0.0
 30
0.0
  0
POINT
  5
2A1A
  8
DEFPOINTS
 62
     0
 10
59.936260880219379
 20
237.9967689392030081
 30
0.0
  0
POINT
  5
2A1B
  8
DEFPOINTS
 62
     0
 10
114.9362608802192938
 20
237.9967689392030081
 30
0.0
  0
POINT
  5
2A1C
  8
DEFPOINTS
 62
     0
 10
114.9362608802192938
 20
243.8554760121712945
 30
0.0
  0
ENDBLK
  5
1EB6
  8
0
  0
BLOCK
  8
0
  2
*D5
 70
     1
 10
0.0
 20
0.0
 30
0.0
  3
*D5
  1

  0
LINE
  5
2A9B
  8
BEM
 62
     0
 10
115.9362608802193932
 20
237.9967689392032071
 30
0.0
 11
125.1979938338536016
 21
237.9967689392032071
 31
0.0
  0
LINE
  5
2A9C
  8
BEM
 62
     0
 10
115.9362608802193932
 20
237.2467689392030934
 30
0.0
 11
125.1979938338536016
 21
237.2467689392030934
 31
0.0
  0
LINE
  5
2A9D
  8
BEM
 62
     0
 10
124.1979938338536016
 20
234.2467689392030934
 30
0.0
 11
124.1979938338536016
 21
231.2467689392032071
 31
0.0
  0
LINE
  5
2A9E
  8
BEM
 62
     0
 10
124.1979938338536016
 20
240.9967689392030934
 30
0.0
 11
124.1979938338536016
 21
251.9396260820603004
 31
0.0
  0
LINE
  5
2A9F
  8
BEM
 62
     0
 10
124.1979938338536016
 20
237.2467689392030934
 30
0.0
 11
124.1979938338536016
 21
237.9967689392032071
 31
0.0
  0
SOLID
  5
2AA0
  8
BEM
 62
     0
 10
123.6979938338536016
 20
234.2467689392030934
 30
0.0
 11
124.6979938338536016
 21
234.2467689392030934
 31
0.0
 12
124.1979938338536016
 22
237.2467689392030934
 32
0.0
 13
124.1979938338536016
 23
237.2467689392030934
 33
0.0
  0
SOLID
  5
2AA1
  8
BEM
 62
     0
 10
123.6979938338536016
 20
240.9967689392030934
 30
0.0
 11
124.6979938338536016
 21
240.9967689392030934
 31
0.0
 12
124.1979938338536016
 22
237.9967689392032071
 32
0.0
 13
124.1979938338536016
 23
237.9967689392032071
 33
0.0
  0
INSERT
  5
2AA2
  8
STEMPEL
  2
*U16
 10
0.0
 20
0.0
 30
0.0
  0
POINT
  5
2AA3
  8
DEFPOINTS
 62
     0
 10
114.9362608802193932
 20
237.9967689392032071
 30
0.0
  0
POINT
  5
2AA4
  8
DEFPOINTS
 62
     0
 10
114.9362608802193932
 20
237.2467689392030934
 30
0.0
  0
POINT
  5
2AA5
  8
DEFPOINTS
 62
     0
 10
124.1979938338536016
 20
237.2467689392030934
 30
0.0
  0
ENDBLK
  5
1F5E
  8
0
  0
BLOCK
  8
0
  2
*D6
 70
     1
 10
0.0
 20
0.0
 30
0.0
  3
*D6
  1

  0
LINE
  5
2C74
  8
BEM
 62
     0
 10
110.5058993832144978
 20
179.7467689392030934
 30
0.0
 11
132.2349230594954008
 21
179.7467689392030934
 31
0.0
  0
LINE
  5
2C75
  8
BEM
 62
     0
 10
115.9362608802193932
 20
237.2467689392030934
 30
0.0
 11
132.2349230594954008
 21
237.2467689392030934
 31
0.0
  0
LINE
  5
2C76
  8
BEM
 62
     0
 10
131.2349230594954008
 20
182.7467689392030934
 30
0.0
 11
131.2349230594954008
 21
234.2467689392030934
 31
0.0
  0
SOLID
  5
2C77
  8
BEM
 62
     0
 10
130.7349230594954008
 20
182.7467689392030934
 30
0.0
 11
131.7349230594954008
 21
182.7467689392030934
 31
0.0
 12
131.2349230594954008
 22
179.7467689392030934
 32
0.0
 13
131.2349230594954008
 23
179.7467689392030934
 33
0.0
  0
SOLID
  5
2C78
  8
BEM
 62
     0
 10
130.7349230594954008
 20
234.2467689392030934
 30
0.0
 11
131.7349230594954008
 21
234.2467689392030934
 31
0.0
 12
131.2349230594954008
 22
237.2467689392030934
 32
0.0
 13
131.2349230594954008
 23
237.2467689392030934
 33
0.0
  0
INSERT
  5
2C79
  8
STEMPEL
  2
*U18
 10
0.0
 20
0.0
 30
0.0
  0
POINT
  5
2C7A
  8
DEFPOINTS
 62
     0
 10
109.5058993832144978
 20
179.7467689392030934
 30
0.0
  0
POINT
  5
2C7B
  8
DEFPOINTS
 62
     0
 10
114.9362608802193932
 20
237.2467689392030934
 30
0.0
  0
POINT
  5
2C7C
  8
DEFPOINTS
 62
     0
 10
131.2349230594954008
 20
237.2467689392030934
 30
0.0
  0
ENDBLK
  5
1FBA
  8
0
  0
BLOCK
  8
0
  2
*D7
 70
     1
 10
0.0
 20
0.0
 30
0.0
  3
*D7
  1

  0
LINE
  5
2C69
  8
BEM
 62
     0
 10
65.186260880219379
 20
180.8707480494117021
 30
0.0
 11
65.186260880219379
 21
169.36907784097329
 31
0.0
  0
LINE
  5
2C6A
  8
BEM
 62
     0
 10
109.6862608802193932
 20
180.8707480494117021
 30
0.0
 11
109.6862608802193932
 21
169.36907784097329
 31
0.0
  0
LINE
  5
2C6B
  8
BEM
 62
     0
 10
68.186260880219379
 20
170.36907784097329
 30
0.0
 11
106.6862608802192938
 21
170.36907784097329
 31
0.0
  0
SOLID
  5
2C6C
  8
BEM
 62
     0
 10
68.186260880219379
 20
170.86907784097329
 30
0.0
 11
68.186260880219379
 21
169.86907784097329
 31
0.0
 12
65.186260880219379
 22
170.36907784097329
 32
0.0
 13
65.186260880219379
 23
170.36907784097329
 33
0.0
  0
SOLID
  5
2C6D
  8
BEM
 62
     0
 10
106.6862608802192938
 20
170.86907784097329
 30
0.0
 11
106.6862608802192938
 21
169.86907784097329
 31
0.0
 12
109.6862608802193932
 22
170.36907784097329
 32
0.0
 13
109.6862608802193932
 23
170.36907784097329
 33
0.0
  0
INSERT
  5
2C6E
  8
STEMPEL
  2
*U17
 10
0.0
 20
0.0
 30
0.0
  0
POINT
  5
2C6F
  8
DEFPOINTS
 62
     0
 10
65.186260880219379
 20
181.8707480494117021
 30
0.0
  0
POINT
  5
2C70
  8
DEFPOINTS
 62
     0
 10
109.6862608802193932
 20
181.8707480494117021
 30
0.0
  0
POINT
  5
2C71
  8
DEFPOINTS
 62
     0
 10
109.6862608802193932
 20
170.36907784097329
 30
0.0
  0
ENDBLK
  5
2039
  8
0
  0
BLOCK
  8
0
  2
A$C33D92642
 70
     0
 10
0.0
 20
0.0
 30
0.0
  3
A$C33D92642
  1

  0
CIRCLE
  5
30E9
  8
0
  6
CONTINUOUS
 62
     3
 10
349.2975248075828745
 20
0.0
 30
0.0
 40
55.0
  0
CIRCLE
  5
30EA
  8
0
  6
HIDDEN
 62
     1
 10
349.2975248075828745
 20
0.0
 30
0.0
 40
44.5
  0
CIRCLE
  5
30EB
  8
0
  6
HIDDEN
 62
     1
 10
349.2975248075828745
 20
0.0
 30
0.0
 40
43.2999999999999972
  0
CIRCLE
  5
30EC
  8
0
  6
HIDDEN
 62
     1
 10
349.2975248075828745
 20
0.0
 30
0.0
 40
42.9438433682802767
  0
CIRCLE
  5
30ED
  8
0
  6
HIDDEN
 62
     1
 10
349.2975248075828745
 20
0.0
 30
0.0
 40
44.1392770059903228
  0
ENDBLK
  5
30EF
  8
0
  0
BLOCK
  8
0
  2
A$C3BCA2BD7
 70
     0
 10
0.0
 20
0.0
 30
0.0
  3
A$C3BCA2BD7
  1

  0
LINE
  5
30F5
  8
0
  6
CONTINUOUS
 62
     3
 10
404.2975248075828176
 20
41.9765217651931835
 30
-0.0000000000000093
 11
294.2975248075828745
 21
41.9765217651931835
 31
-0.0000000000000093
210
0.0
220
1.0
230
-0.0000000000000002
  0
LINE
  5
30F6
  8
0
  6
CONTINUOUS
 62
     3
 10
404.2975248075828176
 20
40.4765217651931906
 30
-0.000000000000009
 11
294.2975248075828745
 21
40.4765217651931906
 31
-0.000000000000009
210
0.0
220
1.0
230
-0.0000000000000002
  0
LINE
  5
30F7
  8
0
  6
CONTINUOUS
 62
     3
 10
294.2975248075828745
 20
40.4765217651931906
 30
-0.000000000000009
 11
294.2975248075828745
 21
41.9765217651931835
 31
-0.0000000000000093
210
0.0
220
1.0
230
-0.0000000000000002
  0
LINE
  5
30F8
  8
0
  6
CONTINUOUS
 62
     3
 10
404.2975248075828176
 20
40.4765217651931906
 30
-0.000000000000009
 11
404.2975248075828176
 21
41.9765217651931835
 31
-0.0000000000000093
210
0.0
220
1.0
230
-0.0000000000000002
  0
LINE
  5
30F9
  8
0
  6
CONTINUOUS
 62
     3
 10
393.4368018135731973
 20
-74.5234782348068308
 30
0.0000000000000165
 11
305.1582478015926085
 21
-74.5234782348068308
 31
0.0000000000000165
210
0.0
220
1.0
230
-0.0000000000000002
  0
LINE
  5
30FA
  8
0
  6
CONTINUOUS
 62
     3
 10
305.1582478015926085
 20
-74.5234782348068308
 30
0.0000000000000165
 11
304.7975248075828745
 21
-70.4003955464678057
 31
0.0000000000000156
210
0.0
220
1.0
230
-0.0000000000000002
  0
LINE
  5
30FB
  8
0
  6
CONTINUOUS
 62
     3
 10
393.4368018135731973
 20
-74.5234782348068308
 30
0.0000000000000165
 11
393.7975248075828745
 21
-70.4003955464678057
 31
0.0000000000000156
210
0.0
220
1.0
230
-0.0000000000000002
  0
LINE
  5
30FC
  8
0
  6
CONTINUOUS
 62
     3
 10
304.7975248075828745
 20
-70.4003955464678057
 30
0.0000000000000156
 11
304.7975248075828745
 21
40.4765217651931906
 31
-0.000000000000009
210
0.0
220
1.0
230
-0.0000000000000002
  0
LINE
  5
30FD
  8
0
  6
CONTINUOUS
 62
     3
 10
393.7975248075828745
 20
-70.4003955464678057
 30
0.0000000000000156
 11
393.7975248075828745
 21
40.4765217651931906
 31
-0.000000000000009
210
0.0
220
1.0
230
-0.0000000000000002
  0
LINE
  5
30FE
  8
0
  6
HIDDEN
 62
     1
 10
392.2413681758632151
 20
-74.418891343509614
 30
0.0000000000000165
 11
306.3536814393025907
 21
-74.418891343509614
 31
0.0000000000000165
210
0.0
220
1.0
230
-0.0000000000000002
  0
LINE
  5
30FF
  8
0
  6
HIDDEN
 62
     1
 10
305.9975248075829199
 20
-70.3480024149777279
 30
0.0000000000000156
 11
305.9975248075829199
 21
40.4765217651931906
 31
-0.000000000000009
210
0.0
220
1.0
230
-0.0000000000000002
  0
LINE
  5
3100
  8
0
  6
HIDDEN
 62
     1
 10
392.5975248075828858
 20
-70.3480024149777279
 30
0.0000000000000156
 11
392.5975248075828858
 21
40.4765217651931906
 31
-0.000000000000009
210
0.0
220
1.0
230
-0.0000000000000002
  0
LINE
  5
3101
  8
0
  6
HIDDEN
 62
     1
 10
306.3536814393025907
 20
-74.418891343509614
 30
0.0000000000000165
 11
305.9975248075829199
 21
-70.3480024149777279
 31
0.0000000000000156
210
0.0
220
1.0
230
-0.0000000000000002
  0
LINE
  5
3102
  8
0
  6
HIDDEN
 62
     1
 10
392.2413681758632151
 20
-74.418891343509614
 30
0.0000000000000165
 11
392.5975248075828858
 21
-70.3480024149777279
 31
0.0000000000000156
210
0.0
220
1.0
230
-0.0000000000000002
  0
LINE
  5
3103
  8
0
  6
HIDDEN
 62
     1
 10
392.2413681758632151
 20
-74.418891343509614
 30
0.0000000000000165
 11
393.4368018135731973
 21
-74.5234782348068165
 31
0.0000000000000165
210
0.0
220
1.0
230
-0.0000000000000002
  0
LINE
  5
3104
  8
0
  6
HIDDEN
 62
     1
 10
306.3536814393025907
 20
-74.418891343509614
 30
0.0000000000000165
 11
305.1582478015926085
 21
-74.5234782348068165
 31
0.0000000000000165
210
0.0
220
1.0
230
-0.0000000000000002
  0
ENDBLK
  5
3106
  8
0
  0
BLOCK
  8
0
  2
*U15
 70
     1
 10
0.0
 20
0.0
 30
0.0
  3
*U15
  1

  0
TEXT
  5
3164
  8
BEM
 62
     1
 10
71.8362608802193847
 20
246.1411902978854869
 30
0.0
 40
3.0
  1
max.\U+2205110(\U+2205100.5)
 41
0.8
  0
ENDBLK
  5
3166
  8
0
  0
BLOCK
  8
0
  2
*U16
 70
     1
 10
0.0
 20
0.0
 30
0.0
  3
*U16
  1

  0
TEXT
  5
3168
  8
BEM
 62
     1
 10
123.1979938338537011
 20
246.3681975106316031
 30
0.0
 40
3.0
  1
1.5
 50
90.0
 41
0.8
  0
ENDBLK
  5
316A
  8
0
  0
BLOCK
  8
0
  2
*U17
 70
     1
 10
0.0
 20
0.0
 30
0.0
  3
*U17
  1

  0
TEXT
  5
316C
  8
BEM
 62
     1
 10
80.8076894516479456
 20
171.36907784097329
 30
0.0
 40
3.0
  1
\U+220589x1.2
 41
0.8
  0
ENDBLK
  5
316E
  8
0
  0
BLOCK
  8
0
  2
*U18
 70
     1
 10
0.0
 20
0.0
 30
0.0
  3
*U18
  1

  0
TEXT
  5
3170
  8
BEM
 62
     1
 10
130.2349230594954008
 20
205.8681975106316884
 30
0.0
 40
3.0
  1
115
 50
90.0
 41
0.8
  0
ENDBLK
  5
3172
  8
0
  0
ENDSEC
  0
SECTION
  2
ENTITIES
  0
TEXT
  5
8F
  8
VOLL
 10
78.076754716981128
 20
31.025947764705851
 30
0.0
 40
1.8
  1

  7
GREEKS
  0
TEXT
  5
AB6
  8
VOLL
 10
118.1052076774981003
 20
1073.5134203410509599
 30
0.0
 40
1.8
  1

 50
90.0
  7
GREEKS
  0
TEXT
  5
AB7
  8
VOLL
 10
-89.2152003677644529
 20
1194.916189010232074
 30
0.0
 40
1.8
  1

 50
90.0
  7
GREEKS
  0
TEXT
  5
AB8
  8
VOLL
 10
94.3742236663287741
 20
1524.7493999746509417
 30
0.0
 40
1.8
  1

 50
90.0
  7
GREEKS
  0
TEXT
  5
AB9
  8
VOLL
 10
105.578047394789607
 20
1520.9171234603140874
 30
0.0
 40
1.8
  1

 50
90.0
  7
GREEKS
  0
INSERT
  5
10CD
  8
ADSK_ASSOC_ENTITY_BACKUPS
  2
*S2
 10
0.0
 20
0.0
 30
0.0
  0
INSERT
  5
30F0
  8
STEMPEL
  2
A$C33D92642
 10
0.0
 20
0.0
 30
0.0
  0
INSERT
  5
3107
  8
STEMPEL
  2
A$C3BCA2BD7
 10
0.0
 20
159.4889017548505024
 30
0.0
  0
VIEWPORT
  5
83F
 67
     1
  8
0
 10
222.5290295230379058
 20
157.8820619173654052
 30
0.0
 40
935.4248413294571947
 41
513.2844001141123726
 68
     1
 69
     1
1001
ACAD
1000
MVIEW
1002
{
1070
    16
1010
0.0
1020
0.0
1030
0.0
1010
0.0
1020
0.0
1030
1.0
1040
0.0
1040
513.2844001141123726
1040
222.5290295230379058
1040
157.8820619173654052
1040
50.0
1040
0.0
1040
0.0
1070
     0
1070
  1500
1070
     1
1070
     1
1070
     0
1070
     0
1070
     0
1070
     0
1040
0.0
1040
0.0
1040
0.0
1040
10.0
1040
10.0
1040
10.0
1040
10.0
1070
     0
1002
{
1002
}
1002
}
1001
GENIUS_GENODEF_13
1002
{
1000
HIER
1070
     0
1002
}
1002
{
1000
MANEDIT
1070
     0
1002
}
1002
{
1000
NOSEL
1070
     0
1002
}
1002
{
1000
BEHIND
1070
     0
1002
}
1002
{
1000
OTHER
1070
     0
1002
}
1002
{
1000
REACTOR
1002
}
1001
GENIUS_GENOBJ-N-SDF_13
1002
{
1000
OWNER
1000
GEN
1002
}
1001
GENIUS_GENSCREG_15
1000
PF
1040
1.0
1000
DF
1040
1.0
1000
MIN
1011
-126.1766071728526981
1021
0.0
1031
0.0
1021
15.6214438255660699
1031
0.0
1000
MAX
1011
455.4279504122594062
1021
0.0
1031
0.0
1021
306.2304985126122006
1031
0.0
1000
FLAGS
1070
     4
  0
ENDSEC
  0
EOF
