  0
SECTION
  2
HEADER
  9
$ACADVER
  1
AC1009
  9
$INSBASE
 10
0.0
 20
0.0
 30
0.0
  9
$EXTMIN
 10
-101.1449049886096958
 20
-142.2873771617227874
 30
-0.0000002023532427
  9
$EXTMAX
 10
-0.6631267316744243
 20
62.1254670955295722
 30
-0.0000002023531503
  9
$LIMMIN
 10
0.0
 20
0.0
  9
$LIMMAX
 10
210.0
 20
297.0
  9
$ORTHOMODE
 70
     1
  9
$REGENMODE
 70
     1
  9
$FILLMODE
 70
     1
  9
$QTEXTMODE
 70
     0
  9
$MIRRTEXT
 70
     1
  9
$DRAGMODE
 70
     2
  9
$LTSCALE
 40
10.0
  9
$OSMODE
 70
   183
  9
$ATTMODE
 70
     1
  9
$TEXTSIZE
 40
3.5
  9
$TRACEWID
 40
0.5
  9
$TEXTSTYLE
  7
STANDARD
  9
$CLAYER
  8
STEMPEL
  9
$CELTYPE
  6
BYLAYER
  9
$CECOLOR
 62
   256
  9
$DIMSCALE
 40
1.0
  9
$DIMASZ
 40
3.5
  9
$DIMEXO
 40
1.0
  9
$DIMDLI
 40
7.0
  9
$DIMRND
 40
0.0
  9
$DIMDLE
 40
0.0
  9
$DIMEXE
 40
1.0
  9
$DIMTP
 40
0.0
  9
$DIMTM
 40
0.0
  9
$DIMTXT
 40
3.5
  9
$DIMCEN
 40
1.5
  9
$DIMTSZ
 40
0.0
  9
$DIMTOL
 70
     0
  9
$DIMLIM
 70
     0
  9
$DIMTIH
 70
     0
  9
$DIMTOH
 70
     0
  9
$DIMSE1
 70
     0
  9
$DIMSE2
 70
     0
  9
$DIMTAD
 70
     1
  9
$DIMZIN
 70
     8
  9
$DIMBLK
  1

  9
$DIMASO
 70
     1
  9
$DIMSHO
 70
     0
  9
$DIMPOST
  1

  9
$DIMAPOST
  1

  9
$DIMALT
 70
     0
  9
$DIMALTD
 70
     2
  9
$DIMALTF
 40
25.3999999999999986
  9
$DIMLFAC
 40
1.0
  9
$DIMTOFL
 70
     1
  9
$DIMTVP
 40
0.0
  9
$DIMTIX
 70
     0
  9
$DIMSOXD
 70
     0
  9
$DIMSAH
 70
     0
  9
$DIMBLK1
  1

  9
$DIMBLK2
  1

  9
$DIMSTYLE
  2
STANDARD
  9
$DIMCLRD
 70
     0
  9
$DIMCLRE
 70
     0
  9
$DIMCLRT
 70
     1
  9
$DIMTFAC
 40
0.5142857142857143
  9
$DIMGAP
 40
1.5
  9
$LUNITS
 70
     2
  9
$LUPREC
 70
     2
  9
$SKETCHINC
 40
1.0
  9
$FILLETRAD
 40
7.5
  9
$AUNITS
 70
     0
  9
$AUPREC
 70
     0
  9
$MENU
  1
ACAD
  9
$ELEVATION
 40
0.0
  9
$PELEVATION
 40
0.0
  9
$THICKNESS
 40
0.0
  9
$LIMCHECK
 70
     0
  9
$BLIPMODE
 70
     0
  9
$CHAMFERA
 40
0.0
  9
$CHAMFERB
 40
0.0
  9
$SKPOLY
 70
     0
  9
$TDCREATE
 40
2455397.8646990740671754
  9
$TDUPDATE
 40
2458386.4143981481902301
  9
$TDINDWG
 40
0.611626794
  9
$TDUSRTIMER
 40
0.611626794
  9
$USRTIMER
 70
     1
  9
$ANGBASE
 50
0.0
  9
$ANGDIR
 70
     0
  9
$PDMODE
 70
     0
  9
$PDSIZE
 40
0.0
  9
$PLINEWID
 40
0.0
  9
$COORDS
 70
     1
  9
$SPLFRAME
 70
     0
  9
$SPLINETYPE
 70
     6
  9
$SPLINESEGS
 70
     8
  9
$ATTDIA
 70
     1
  9
$ATTREQ
 70
     1
  9
$HANDLING
 70
     1
  9
$HANDSEED
  5
2C1F
  9
$SURFTAB1
 70
     6
  9
$SURFTAB2
 70
     6
  9
$SURFTYPE
 70
     6
  9
$SURFU
 70
     6
  9
$SURFV
 70
     6
  9
$UCSNAME
  2

  9
$UCSORG
 10
0.0
 20
0.0
 30
0.0
  9
$UCSXDIR
 10
1.0
 20
0.0
 30
0.0
  9
$UCSYDIR
 10
0.0
 20
1.0
 30
0.0
  9
$PUCSNAME
  2

  9
$PUCSORG
 10
0.0
 20
0.0
 30
0.0
  9
$PUCSXDIR
 10
1.0
 20
0.0
 30
0.0
  9
$PUCSYDIR
 10
0.0
 20
1.0
 30
0.0
  9
$USERI1
 70
     0
  9
$USERI2
 70
     0
  9
$USERI3
 70
     0
  9
$USERI4
 70
     0
  9
$USERI5
 70
     0
  9
$USERR1
 40
0.0
  9
$USERR2
 40
0.0
  9
$USERR3
 40
0.0
  9
$USERR4
 40
0.0
  9
$USERR5
 40
0.0
  9
$WORLDVIEW
 70
     1
  9
$SHADEDGE
 70
     3
  9
$SHADEDIF
 70
    70
  9
$TILEMODE
 70
     1
  9
$MAXACTVP
 70
    16
  9
$PLIMCHECK
 70
     0
  9
$PEXTMIN
 10
-5.0014423168896647
 20
-4.6277436159405161
 30
-0.0000000039384695
  9
$PEXTMAX
 10
205.0071173035865968
 20
292.3927611350292182
 30
0.0000000124747896
  9
$PLIMMIN
 10
-5.027082920074462
 20
-5.027099609375
  9
$PLIMMAX
 10
204.9462447166442871
 20
291.898895263671875
  9
$UNITMODE
 70
     0
  9
$VISRETAIN
 70
     0
  9
$PLINEGEN
 70
     0
  9
$PSLTSCALE
 70
     0
  0
ENDSEC
  0
SECTION
  2
TABLES
  0
TABLE
  2
VPORT
 70
     1
  0
VPORT
  2
*ACTIVE
 70
     0
 10
0.0
 20
0.0
 11
1.0
 21
1.0
 12
0.0
 22
0.0
 13
0.0
 23
0.0
 14
1.0
 24
1.0
 15
10.0
 25
10.0
 16
0.0000000000001563
 26
0.0
 36
564.1690090805971067
 17
41.9914952256491816
 27
-34.0381786561942334
 37
-0.0000000000000144
 40
227.973190473239697
 41
1.8224299065420559
 42
50.0
 43
0.0
 44
0.0
 50
0.0
 51
0.0
 71
     0
 72
  1500
 73
     1
 74
     0
 75
     0
 76
     0
 77
     0
 78
     0
  0
ENDTAB
  0
TABLE
  2
LTYPE
 70
    14
  0
LTYPE
  2
CONTINUOUS
 70
     0
  3
Solid line
 72
    65
 73
     0
 40
0.0
  0
LTYPE
  2
STRICHPUNKT
 70
     0
  3
__ . __ . __ . __ . __ . __ . __ . __ . __ . __
 72
    65
 73
     4
 40
1.0
 49
0.5
 49
-0.25
 49
0.0
 49
-0.25
  0
LTYPE
  2
AUSGEZOGEN
 70
     0
  3
Ausgezogene Linie
 72
    65
 73
     0
 40
0.0
  0
LTYPE
  2
HIDDEN2
 70
     0
  3

 72
    65
 73
     2
 40
0.1875
 49
0.125
 49
-0.0625
  0
LTYPE
  2
HIDDEN
 70
     0
  3
Hidden __ __ __ __ __ __ __ __ __ __ __ __ __ __
 72
    65
 73
     2
 40
0.375
 49
0.25
 49
-0.125
  0
LTYPE
  2
PHANTOM2
 70
     0
  3
Phantom (.5x) ___ _ _ ___ _ _ ___ _ _ ___ _ _
 72
    65
 73
     6
 40
1.25
 49
0.625
 49
-0.125
 49
0.125
 49
-0.125
 49
0.125
 49
-0.125
  0
LTYPE
  2
CENTER
 70
     0
  3
Center ____ _ ____ _ ____ _ ____ _ ____ _ ____
 72
    65
 73
     4
 40
2.0
 49
1.25
 49
-0.25
 49
0.25
 49
-0.25
  0
LTYPE
  2
AMCONSTR
 70
     0
  3
_______________________
 72
    65
 73
     2
 40
9999.0
 49
9999.0
 49
0.0
  0
LTYPE
  2
CENTER2
 70
     0
  3
Center (.5x) ___ _ ___ _ ___ _ ___ _ ___ _ ___
 72
    65
 73
     4
 40
1.125
 49
0.75
 49
-0.125
 49
0.125
 49
-0.125
  0
LTYPE
  2
AMZIGZAG2
 70
     0
  3
/\/-/\/-/\/-/\/-/\/-/\/
 72
    65
 73
     2
 40
0.4401
 49
0.0001
 49
-0.4400000000000001
  0
LTYPE
  2
ACANSTGB
 70
     0
  3
__ . . __ . .
 72
    65
 73
     6
 40
0.35433070866
 49
0.15748031496
 49
-0.03937007874
 49
0.03937007874
 49
-0.03937007874
 49
0.03937007874
 49
-0.03937007874
  0
LTYPE
  2
ACANSTGL
 70
     0
  3
_ _ _ _ _
 72
    65
 73
     2
 40
0.11811023622
 49
0.07874015748
 49
-0.03937007874
  0
LTYPE
  2
ACAD_VIEWBORDER_LINETYPE
 70
     0
  3
Dashed line in view border
 72
    83
 73
     2
 40
0.3937007874
 49
0.0625984251966
 49
-0.249999999999
  0
LTYPE
  2
V2
 70
     0
  3
Sanitary Vent (.5x) __ __ __ __ __ __ __ __ __ __ __
 72
    65
 73
     2
 40
0.375
 49
0.25
 49
-0.125
  0
ENDTAB
  0
TABLE
  2
LAYER
 70
    16
  0
LAYER
  2
0
 70
     0
 62
     7
  6
CONTINUOUS
  0
LAYER
  2
VOLL
 70
     0
 62
     1
  6
CONTINUOUS
  0
LAYER
  2
HILF
 70
     0
 62
     2
  6
CONTINUOUS
  0
LAYER
  2
MITTEL
 70
     0
 62
     2
  6
STRICHPUNKT
  0
LAYER
  2
BEM
 70
     0
 62
     7
  6
CONTINUOUS
  0
LAYER
  2
STEMPEL
 70
     0
 62
     3
  6
CONTINUOUS
  0
LAYER
  2
DEFPOINTS
 70
     0
 62
     7
  6
CONTINUOUS
  0
LAYER
  2
ROHR
 70
     0
 62
   254
  6
CONTINUOUS
  0
LAYER
  2
TEXT25
 70
     0
 62
     7
  6
AUSGEZOGEN
  0
LAYER
  2
ADSK_ASSOC_ENTITY_BACKUPS
 70
     1
 62
    -7
  6
CONTINUOUS
  0
LAYER
  2
MD_SICHTBAR
 70
     0
 62
     7
  6
CONTINUOUS
  0
LAYER
  2
BLECH
 70
     0
 62
   254
  6
CONTINUOUS
  0
LAYER
  2
RAHMEN
 70
     0
 62
     6
  6
AUSGEZOGEN
  0
LAYER
  2
MD_BESCHRIFTUNG_1
 70
     0
 62
    -7
  6
CONTINUOUS
  0
LAYER
  2
MD_SCHRAFFUR_0
 70
     0
 62
     7
  6
CONTINUOUS
  0
LAYER
  2
TEXT
 70
     0
 62
     7
  6
CONTINUOUS
  0
ENDTAB
  0
TABLE
  2
STYLE
 70
     5
  0
STYLE
  2
STANDARD
 70
     0
 40
0.0
 41
0.8
 50
0.0
 71
     0
 42
3.5
  3
simplex.shx
  4

  0
STYLE
  2
GREEKS
 70
     0
 40
0.0
 41
0.8
 50
0.0
 71
     0
 42
2.5
  3
SIMPLEX.shx
  4

  0
STYLE
  2

 70
     1
 40
0.0
 41
1.0
 50
0.0
 71
     0
 42
2.5
  3
genltshp.shx
  4

  0
STYLE
  2
ACANSGDT
 70
     0
 40
0.0
 41
1.0
 50
0.0
 71
     0
 42
2.5
  3
amgdt.shx
  4

  0
ENDTAB
  0
TABLE
  2
VIEW
 70
     1
  0
ENDTAB
  0
TABLE
  2
UCS
 70
     0
  0
ENDTAB
  0
TABLE
  2
APPID
 70
    43
  0
APPID
  2
ACAD
 70
     0
  0
APPID
  2
ACAD_NAV_VCDISPLAY
 70
     0
  0
APPID
  2
GRADIENTCOLOR1ACI
 70
     0
  0
APPID
  2
GRADIENTCOLOR2ACI
 70
     0
  0
APPID
  2
ACAD_EXEMPT_FROM_CAD_STANDARDS
 70
     0
  0
APPID
  2
ACAECLAYERSTANDARD
 70
     0
  0
APPID
  2
ACCMTRANSPARENCY
 70
     0
  0
APPID
  2
ACAD_PSEXT
 70
     0
  0
APPID
  2
ACAD_MLEADERVER
 70
     0
  0
APPID
  2
ACAD_OBJECT_CHANGE_GUID
 70
     0
  0
APPID
  2
MCAD_NO_VIS
 70
     0
  0
APPID
  2
ACAD_TEMP_GRAPHIC
 70
     0
  0
APPID
  2
ACATTRIBSERVICES
 70
     0
  0
APPID
  2
DESIGNERASSEMBLIES
 70
     0
  0
APPID
  2
ACAD_DSTYLE_DIMJAG
 70
     0
  0
APPID
  2
ACAD_DSTYLE_DIMBREAK
 70
     0
  0
APPID
  2
GENIUS_GENSCREG_15
 70
     0
  0
APPID
  2
GENIUS_GENODEF_13
 70
     0
  0
APPID
  2
GENIUS_GENOBJ-N-SDF_13
 70
     0
  0
APPID
  2
ACAD_STEPID
 70
     0
  0
APPID
  2
RAK
 70
     0
  0
APPID
  2
ACAUTHENVIRON
 70
     0
  0
APPID
  2
ACDBDYNAMICBLOCKTRUENAME
 70
     0
  0
APPID
  2
ACDBDYNAMICBLOCKGUID
 70
     0
  0
APPID
  2
ACSYNERGY
 70
     0
  0
APPID
  2
SYNERGY_BODY_TBR_ID
 70
     0
  0
APPID
  2
ACAD_VIEW_EDGE_ID
 70
     0
  0
APPID
  2
GENIUS_GENDTOL_13
 70
     0
  0
APPID
  2
ACAD_DSTYLE_DIMINSPECT
 70
     0
  0
APPID
  2
ACADANNOMONITORALERTICONDI
 70
     0
  0
APPID
  2
ACAD_DSTYLE_DIMTALN
 70
     0
  0
APPID
  2
ACADANNOPO
 70
     0
  0
APPID
  2
ACADANNOTATIVE
 70
     0
  0
APPID
  2
ACAD_ASSOCPERSSUBENTMANAGER
 70
     0
  0
APPID
  2
ACSYNERGYSKETCH
 70
     0
  0
APPID
  2
ACAD_MODELDOC_XFORM
 70
     0
  0
APPID
  2
ACAD_DIMASSOC_CALC_DIMLFAC
 70
     0
  0
APPID
  2
ACAD_DIMASSOC_DIMLFAC
 70
     0
  0
APPID
  2
ACAD_DIMASSOC_OVERRIDDEN_D
 70
     0
  0
APPID
  2
ACAD_DSTYLE_DIMRADIAL_EXTENSION
 70
     0
  0
APPID
  2
GENIUS_GENDIMSH_14
 70
     0
  0
APPID
  2
ACAD_DSTYLE_DIMANGULAR_EXT
 70
     0
  0
APPID
  2
ACADANNOAV
 70
     0
  0
ENDTAB
  0
TABLE
  2
DIMSTYLE
 70
     9
  0
DIMSTYLE
  2
STANDARD
 70
     0
  3

  4

  5

  6

  7

 40
1.0
 41
0.18
 42
0.0625
 43
0.38
 44
0.18
 45
0.0
 46
0.0
 47
0.0
 48
0.0
140
0.18
141
0.09
142
0.0
143
25.3999999999999986
144
1.0
145
0.0
146
1.0
147
0.09
 71
     0
 72
     0
 73
     1
 74
     1
 75
     0
 76
     0
 77
     0
 78
     0
170
     0
171
     2
172
     0
173
     0
174
     0
175
     0
176
     0
177
     0
178
     0
  0
DIMSTYLE
  2
AM_ANSI
 70
     0
  3

  4
mm
  5

  6

  7

 40
1.0
 41
0.12
 42
0.05
 43
0.5
 44
0.1
 45
0.0
 46
0.0
 47
0.1
 48
0.1
140
0.12
141
0.0
142
0.0
143
25.3999999999999986
144
1.0
145
0.0
146
0.71
147
0.06
 71
     0
 72
     0
 73
     1
 74
     1
 75
     0
 76
     0
 77
     0
 78
     7
170
     0
171
     2
172
     0
173
     0
174
     0
175
     0
176
   256
177
   256
178
     2
  0
DIMSTYLE
  2
AM_ANSI$3
 70
     0
  3

  4
mm
  5

  6

  7

 40
1.0
 41
0.12
 42
0.05
 43
0.5
 44
0.1
 45
0.0
 46
0.0
 47
0.1
 48
0.1
140
0.12
141
0.0
142
0.0
143
25.3999999999999986
144
1.0
145
0.0
146
0.71
147
0.06
 71
     0
 72
     0
 73
     1
 74
     1
 75
     0
 76
     0
 77
     0
 78
     7
170
     0
171
     2
172
     0
173
     0
174
     0
175
     0
176
   256
177
   256
178
     2
  0
DIMSTYLE
  2
AM_ANSI$4
 70
     0
  3

  4
mm
  5

  6

  7

 40
1.0
 41
0.12
 42
0.05
 43
0.5
 44
0.1
 45
0.0
 46
0.0
 47
0.1
 48
0.1
140
0.12
141
0.0
142
0.0
143
25.3999999999999986
144
1.0
145
0.0
146
0.71
147
0.06
 71
     0
 72
     0
 73
     1
 74
     1
 75
     0
 76
     0
 77
     0
 78
     7
170
     0
171
     2
172
     0
173
     0
174
     0
175
     0
176
   256
177
   256
178
     2
  0
DIMSTYLE
  2
AM_ANSI$7
 70
     0
  3

  4
mm
  5

  6

  7

 40
1.0
 41
0.12
 42
0.05
 43
0.5
 44
0.1
 45
0.0
 46
0.0
 47
0.1
 48
0.1
140
0.12
141
0.0
142
0.0
143
25.3999999999999986
144
1.0
145
0.0
146
0.71
147
0.06
 71
     0
 72
     0
 73
     1
 74
     1
 75
     0
 76
     0
 77
     0
 78
     7
170
     0
171
     2
172
     0
173
     0
174
     0
175
     0
176
   256
177
   256
178
     2
  0
DIMSTYLE
  2
AM_ANSI$SF
 70
     0
  3

  4
mm
  5

  6

  7

 40
1.0
 41
0.12
 42
0.05
 43
0.5
 44
0.1
 45
0.0
 46
0.0
 47
0.1
 48
0.1
140
0.12
141
0.0
142
0.0
143
25.3999999999999986
144
1.0
145
0.0
146
0.71
147
0.06
 71
     0
 72
     0
 73
     1
 74
     1
 75
     1
 76
     1
 77
     0
 78
     7
170
     0
171
     2
172
     0
173
     0
174
     0
175
     0
176
   256
177
   256
178
     2
  0
DIMSTYLE
  2
AM_ANSI$SH
 70
     0
  3

  4
mm
  5

  6
GENAXEH
  7

 40
1.0
 41
0.12
 42
0.05
 43
0.5
 44
0.1
 45
0.0
 46
0.0
 47
0.1
 48
0.1
140
0.12
141
0.0
142
0.0
143
25.3999999999999986
144
1.0
145
0.0
146
0.71
147
0.06
 71
     0
 72
     0
 73
     1
 74
     1
 75
     1
 76
     1
 77
     0
 78
     7
170
     0
171
     2
172
     0
173
     1
174
     0
175
     0
176
   256
177
   256
178
     2
  0
DIMSTYLE
  2
STANDARD$0
 70
     0
  3

  4

  5

  6

  7

 40
1.0
 41
0.18
 42
0.0625
 43
0.38
 44
0.18
 45
0.0
 46
0.0
 47
0.0
 48
0.0
140
0.18
141
0.09
142
0.0
143
25.3999999999999986
144
1.0
145
0.0
146
1.0
147
0.09
 71
     0
 72
     0
 73
     1
 74
     1
 75
     0
 76
     0
 77
     0
 78
     0
170
     0
171
     2
172
     0
173
     0
174
     0
175
     0
176
     0
177
     0
178
     0
  0
ENDTAB
  0
ENDSEC
  0
SECTION
  2
BLOCKS
  0
BLOCK
  8
0
  2
$MODEL_SPACE
 70
     0
 10
0.0
 20
0.0
 30
0.0
  3
$MODEL_SPACE
  1

  0
ENDBLK
  5
36
  8
0
  0
BLOCK
 67
     1
  8
0
  2
$PAPER_SPACE
 70
     0
 10
0.0
 20
0.0
 30
0.0
  3
$PAPER_SPACE
  1

  0
ENDBLK
  5
34
 67
     1
  8
0
  0
BLOCK
  8
0
  2
GENAXEH
 70
     0
 10
0.0
 20
0.0
 30
0.0
  3
GENAXEH
  1

  0
LINE
  5
C93
  8
0
 10
-1.0
 20
0.0
 30
0.0
 11
1.0
 21
0.0
 31
0.0
  0
ENDBLK
  5
C95
  8
0
  0
BLOCK
  8
0
  2
_ACMFILLEDHALF
 70
     0
 10
0.0
 20
0.0
 30
0.0
  3
_ACMFILLEDHALF
  1

  0
TRACE
  5
CA3
  8
ROHR
 62
     0
 10
-0.8
 20
0.0
 30
0.0
 11
-1.0
 21
0.166666666
 31
0.0
 12
0.0
 22
0.0
 32
0.0
 13
0.0
 23
0.0
 33
0.0
  0
LINE
  5
CA4
  8
ROHR
 62
     0
 10
-1.0
 20
0.0
 30
0.0
 11
-0.8
 21
0.0
 31
0.0
  0
ENDBLK
  5
CA2
  8
0
  0
BLOCK
  8
0
  2
*S2
 70
     1
 10
0.0
 20
0.0
 30
0.0
  3
*S2
  1

  0
ENDBLK
  5
10CB
  8
0
  0
BLOCK
  8
0
  2
*U3
 70
     1
 10
0.0
 20
0.0
 30
0.0
  3
*U3
  1

  0
ENDBLK
  5
1ABA
  8
0
  0
BLOCK
  8
0
  2
*D8
 70
     1
 10
0.0
 20
0.0
 30
0.0
  3
*D8
  1

  0
LINE
  5
2651
  8
BEM
 62
     0
 10
65.34928735715404
 20
256.257151494103482
 30
0.0
 11
65.34928735715404
 21
261.8287275143796933
 31
0.0
  0
LINE
  5
2652
  8
BEM
 62
     0
 10
133.3492873571541111
 20
256.257151494103482
 30
0.0
 11
133.3492873571541111
 21
261.8287275143796933
 31
0.0
  0
LINE
  5
2653
  8
BEM
 62
     0
 10
68.34928735715404
 20
260.8287275143796933
 30
0.0
 11
130.3492873571539974
 21
260.8287275143796933
 31
0.0
  0
SOLID
  5
2654
  8
BEM
 62
     0
 10
68.34928735715404
 20
261.3287275143796933
 30
0.0
 11
68.34928735715404
 21
260.3287275143796933
 31
0.0
 12
65.34928735715404
 22
260.8287275143796933
 32
0.0
 13
65.34928735715404
 23
260.8287275143796933
 33
0.0
  0
SOLID
  5
2655
  8
BEM
 62
     0
 10
130.3492873571539974
 20
261.3287275143796933
 30
0.0
 11
130.3492873571539974
 21
260.3287275143796933
 31
0.0
 12
133.3492873571541111
 22
260.8287275143796933
 32
0.0
 13
133.3492873571541111
 23
260.8287275143796933
 33
0.0
  0
INSERT
  5
2656
  8
STEMPEL
  2
*U16
 10
0.0
 20
0.0
 30
0.0
  0
POINT
  5
2657
  8
DEFPOINTS
 62
     0
 10
65.34928735715404
 20
255.2571514941035105
 30
0.0
  0
POINT
  5
2658
  8
DEFPOINTS
 62
     0
 10
133.3492873571541111
 20
255.2571514941035105
 30
0.0
  0
POINT
  5
2659
  8
DEFPOINTS
 62
     0
 10
133.3492873571541111
 20
260.8287275143796933
 30
0.0
  0
ENDBLK
  5
1EB6
  8
0
  0
BLOCK
  8
0
  2
*D9
 70
     1
 10
0.0
 20
0.0
 30
0.0
  3
*D9
  1

  0
LINE
  5
265A
  8
BEM
 62
     0
 10
134.3492873571541111
 20
255.2571514941035957
 30
0.0
 11
141.2298272799041001
 21
255.2571514941035957
 31
0.0
  0
LINE
  5
265B
  8
BEM
 62
     0
 10
134.3492873571541111
 20
253.7571514941035957
 30
0.0
 11
141.2298272799041001
 21
253.7571514941035957
 31
0.0
  0
LINE
  5
265C
  8
BEM
 62
     0
 10
140.2298272799041001
 20
250.7571514941035957
 30
0.0
 11
140.2298272799041001
 21
247.7571514941035957
 31
0.0
  0
LINE
  5
265D
  8
BEM
 62
     0
 10
140.2298272799041001
 20
258.2571514941037094
 30
0.0
 11
140.2298272799041001
 21
269.7095324464846158
 31
0.0
  0
LINE
  5
265E
  8
BEM
 62
     0
 10
140.2298272799041001
 20
253.7571514941035957
 30
0.0
 11
140.2298272799041001
 21
255.2571514941035957
 31
0.0
  0
SOLID
  5
265F
  8
BEM
 62
     0
 10
139.7298272799041001
 20
250.7571514941035957
 30
0.0
 11
140.7298272799041001
 21
250.7571514941035957
 31
0.0
 12
140.2298272799041001
 22
253.7571514941035957
 32
0.0
 13
140.2298272799041001
 23
253.7571514941035957
 33
0.0
  0
SOLID
  5
2660
  8
BEM
 62
     0
 10
139.7298272799041001
 20
258.2571514941037094
 30
0.0
 11
140.7298272799041001
 21
258.2571514941037094
 31
0.0
 12
140.2298272799041001
 22
255.2571514941035957
 32
0.0
 13
140.2298272799041001
 23
255.2571514941035957
 33
0.0
  0
INSERT
  5
2661
  8
STEMPEL
  2
*U17
 10
0.0
 20
0.0
 30
0.0
  0
POINT
  5
2662
  8
DEFPOINTS
 62
     0
 10
133.3492873571541111
 20
255.2571514941035957
 30
0.0
  0
POINT
  5
2663
  8
DEFPOINTS
 62
     0
 10
133.3492873571541111
 20
253.7571514941035957
 30
0.0
  0
POINT
  5
2664
  8
DEFPOINTS
 62
     0
 10
140.2298272799041001
 20
253.7571514941035957
 30
0.0
  0
ENDBLK
  5
1F5E
  8
0
  0
BLOCK
  8
0
  2
*D10
 70
     1
 10
0.0
 20
0.0
 30
0.0
  3
*D10
  1

  0
LINE
  5
26B1
  8
BEM
 62
     0
 10
126.5544437280727976
 20
168.7571514941035957
 30
0.0
 11
148.6136273218014026
 21
168.7571514941035957
 31
0.0
  0
LINE
  5
26B2
  8
BEM
 62
     0
 10
127.2644157423848981
 20
253.7571514941035957
 30
0.0
 11
148.6136273218014026
 21
253.7571514941035957
 31
0.0
  0
LINE
  5
26B3
  8
BEM
 62
     0
 10
147.6136273218014026
 20
171.7571514941035957
 30
0.0
 11
147.6136273218014026
 21
250.7571514941035957
 31
0.0
  0
SOLID
  5
26B4
  8
BEM
 62
     0
 10
147.1136273218014026
 20
171.7571514941035957
 30
0.0
 11
148.1136273218014026
 21
171.7571514941035957
 31
0.0
 12
147.6136273218014026
 22
168.7571514941035957
 32
0.0
 13
147.6136273218014026
 23
168.7571514941035957
 33
0.0
  0
SOLID
  5
26B5
  8
BEM
 62
     0
 10
147.1136273218014026
 20
250.7571514941035957
 30
0.0
 11
148.1136273218014026
 21
250.7571514941035957
 31
0.0
 12
147.6136273218014026
 22
253.7571514941035957
 32
0.0
 13
147.6136273218014026
 23
253.7571514941035957
 33
0.0
  0
INSERT
  5
26B6
  8
STEMPEL
  2
*U19
 10
0.0
 20
0.0
 30
0.0
  0
POINT
  5
26B7
  8
DEFPOINTS
 62
     0
 10
125.5544437280727976
 20
168.7571514941035957
 30
0.0
  0
POINT
  5
26B8
  8
DEFPOINTS
 62
     0
 10
126.2644157423848981
 20
253.7571514941035957
 30
0.0
  0
POINT
  5
26B9
  8
DEFPOINTS
 62
     0
 10
147.6136273218014026
 20
253.7571514941035957
 30
0.0
  0
ENDBLK
  5
1FBA
  8
0
  0
BLOCK
  8
0
  2
*D11
 70
     1
 10
0.0
 20
0.0
 30
0.0
  3
*D11
  1

  0
LINE
  5
26A6
  8
BEM
 62
     0
 10
72.84928735715404
 20
171.486419494438195
 30
0.0
 11
72.84928735715404
 21
159.0735547284957079
 31
0.0
  0
LINE
  5
26A7
  8
BEM
 62
     0
 10
125.8492873571540969
 20
171.486419494438195
 30
0.0
 11
125.8492873571540969
 21
159.0735547284957079
 31
0.0
  0
LINE
  5
26A8
  8
BEM
 62
     0
 10
75.84928735715404
 20
160.0735547284957079
 30
0.0
 11
122.8492873571540969
 21
160.0735547284957079
 31
0.0
  0
SOLID
  5
26A9
  8
BEM
 62
     0
 10
75.84928735715404
 20
160.5735547284957079
 30
0.0
 11
75.84928735715404
 21
159.5735547284957079
 31
0.0
 12
72.84928735715404
 22
160.0735547284957079
 32
0.0
 13
72.84928735715404
 23
160.0735547284957079
 33
0.0
  0
SOLID
  5
26AA
  8
BEM
 62
     0
 10
122.8492873571540969
 20
160.5735547284957079
 30
0.0
 11
122.8492873571540969
 21
159.5735547284957079
 31
0.0
 12
125.8492873571540969
 22
160.0735547284957079
 32
0.0
 13
125.8492873571540969
 23
160.0735547284957079
 33
0.0
  0
INSERT
  5
26AB
  8
STEMPEL
  2
*U18
 10
0.0
 20
0.0
 30
0.0
  0
POINT
  5
26AC
  8
DEFPOINTS
 62
     0
 10
72.84928735715404
 20
172.486419494438195
 30
0.0
  0
POINT
  5
26AD
  8
DEFPOINTS
 62
     0
 10
125.8492873571540969
 20
172.486419494438195
 30
0.0
  0
POINT
  5
26AE
  8
DEFPOINTS
 62
     0
 10
125.8492873571540969
 20
160.0735547284957079
 30
0.0
  0
ENDBLK
  5
2039
  8
0
  0
BLOCK
  8
0
  2
A$C49DF3AA1
 70
     0
 10
0.0
 20
0.0
 30
0.0
  3
A$C49DF3AA1
  1

  0
LINE
  5
2B6E
  8
0
  6
CONTINUOUS
 62
     3
 10
407.9844594354383958
 20
-6.5531761294687882
 30
0.0
 11
355.5741466935979247
 21
-6.5531761294687882
 31
0.0
210
0.0
220
1.0
230
0.0
  0
ARC
  5
2B6F
  8
0
  6
CONTINUOUS
 62
     3
 10
-400.7793030644983787
 20
-2.8556409561373641
 30
0.0
 40
7.5000000000197238
210
0.0
220
0.0
230
-1.0
 50
180.0000000000065086
 51
184.999999999994003
  0
ARC
  5
2B70
  8
0
  6
CONTINUOUS
 62
     3
 10
-362.7793030645378849
 20
-2.8556409561373641
 30
0.0
 40
7.5000000000196678
210
0.0
220
0.0
230
-1.0
 50
355.0000000000060254
 51
359.9999999999935199
  0
LINE
  5
2B71
  8
0
  6
CONTINUOUS
 62
     3
 10
355.5741466935979247
 20
-6.5531761294687882
 30
0.0
 11
355.3078428288300756
 21
-3.509309026745739
 31
0.0
210
0.0
220
1.0
230
0.0
  0
LINE
  5
2B72
  8
0
  6
CONTINUOUS
 62
     3
 10
407.9844594354383958
 20
-6.5531761294687811
 30
0.0
 11
408.250763300206188
 21
-3.509309026745739
 31
0.0
210
0.0
220
1.0
230
0.0
  0
LINE
  5
2B73
  8
0
  6
CONTINUOUS
 62
     3
 10
355.2793030645182171
 20
-2.8556409561382452
 30
0.0
 11
355.2793030645182171
 21
78.4468238705312046
 31
0.0
210
0.0
220
1.0
230
0.0
  0
LINE
  5
2B74
  8
0
  6
CONTINUOUS
 62
     3
 10
408.2793030645182171
 20
-2.8556409561382452
 30
0.0
 11
408.2793030645182171
 21
78.4468238705312046
 31
0.0
210
0.0
220
1.0
230
0.0
  0
LINE
  5
2B75
  8
0
  6
CONTINUOUS
 62
     3
 10
415.7793030645182171
 20
79.9468238705312046
 30
0.0
 11
347.7793030645182171
 21
79.9468238705312046
 31
0.0
210
0.0
220
1.0
230
0.0
  0
LINE
  5
2B76
  8
0
  6
CONTINUOUS
 62
     3
 10
415.7793030645182171
 20
78.4468238705312046
 30
0.0
 11
347.7793030645182171
 21
78.4468238705312046
 31
0.0
210
0.0
220
1.0
230
0.0
  0
LINE
  5
2B77
  8
0
  6
CONTINUOUS
 62
     3
 10
347.7793030645182171
 20
78.4468238705312046
 30
0.0
 11
347.7793030645182171
 21
79.9468238705312046
 31
0.0
210
0.0
220
1.0
230
0.0
  0
LINE
  5
2B78
  8
0
  6
CONTINUOUS
 62
     3
 10
415.7793030645182171
 20
78.4468238705312046
 30
0.0
 11
415.7793030645182171
 21
79.9468238705312046
 31
0.0
210
0.0
220
1.0
230
0.0
  0
LINE
  5
2B79
  8
0
  6
HIDDEN
 62
     1
 10
406.9882647373468103
 20
-6.4660203867211541
 30
0.0
 11
356.5703413916896238
 21
-6.4660203867211541
 31
0.0
210
0.0
220
1.0
230
0.0
  0
ARC
  5
2B7A
  8
0
  6
HIDDEN
 62
     1
 10
-400.7793030645040062
 20
-2.855640956137278
 30
0.0
 40
6.500000000014154
210
0.0
220
0.0
230
-1.0
 50
180.0000000000069065
 51
184.9999999999961062
  0
ARC
  5
2B7B
  8
0
  6
HIDDEN
 62
     1
 10
-362.7793030645320869
 20
-2.8556409561372931
 30
0.0
 40
6.5000000000138689
210
0.0
220
0.0
230
-1.0
 50
355.0000000000035243
 51
359.9999999999931219
  0
LINE
  5
2B7C
  8
0
  6
HIDDEN
 62
     1
 10
356.5703413916896807
 20
-6.4660203867211541
 30
0.0
 11
356.3040375269218885
 21
-3.4221532839978721
 31
0.0
210
0.0
220
1.0
230
0.0
  0
LINE
  5
2B7D
  8
0
  6
HIDDEN
 62
     1
 10
406.9882647373466966
 20
-6.4660203867211541
 30
0.0
 11
407.2545686021144888
 21
-3.4221532839978721
 31
0.0
210
0.0
220
1.0
230
0.0
  0
LINE
  5
2B7E
  8
0
  6
HIDDEN
 62
     1
 10
406.9882647373468103
 20
-6.466020386721147
 30
0.0
 11
407.9844594354383958
 21
-6.5531761294687882
 31
0.0
210
0.0
220
1.0
230
0.0
  0
LINE
  5
2B7F
  8
0
  6
HIDDEN
 62
     1
 10
356.5703413916896238
 20
-6.466020386721147
 30
0.0
 11
355.5741466935979247
 21
-6.5531761294687882
 31
0.0
210
0.0
220
1.0
230
0.0
  0
LINE
  5
2B80
  8
0
  6
HIDDEN
 62
     1
 10
356.2793030645182171
 20
-2.8556409561380738
 30
0.0
 11
356.2793030645182171
 21
78.4468238705312046
 31
0.0
210
0.0
220
1.0
230
0.0
  0
LINE
  5
2B81
  8
0
  6
HIDDEN
 62
     1
 10
407.2793030645182171
 20
-2.8556409561380738
 30
0.0
 11
407.2793030645182171
 21
78.4468238705312046
 31
0.0
210
0.0
220
1.0
230
0.0
  0
ENDBLK
  5
2B83
  8
0
  0
BLOCK
  8
0
  2
A$C182A3B66
 70
     0
 10
0.0
 20
0.0
 30
0.0
  3
A$C182A3B66
  1

  0
CIRCLE
  5
2B89
  8
0
  6
CONTINUOUS
 62
     3
 10
349.2975248075828745
 20
0.0
 30
0.0000000000000924
 40
34.0
  0
CIRCLE
  5
2B8A
  8
0
  6
HIDDEN
 62
     1
 10
349.2975248075828745
 20
0.0
 30
0.0000000000000924
 40
25.2089616728286003
  0
CIRCLE
  5
2B8B
  8
0
  6
HIDDEN
 62
     1
 10
349.2975248075828745
 20
0.0
 30
0.0000000000000924
 40
26.2051563709202888
  0
CIRCLE
  5
2B8C
  8
0
  6
HIDDEN
 62
     1
 10
349.2975248075828745
 20
0.0
 30
0.0000000000000924
 40
26.5
  0
CIRCLE
  5
2B8D
  8
0
  6
HIDDEN
 62
     1
 10
349.2975248075828745
 20
0.0
 30
0.0000000000000924
 40
25.5
  0
ENDBLK
  5
2B8F
  8
0
  0
BLOCK
  8
0
  2
*U16
 70
     1
 10
0.0
 20
0.0
 30
0.0
  3
*U16
  1

  0
TEXT
  5
2C0E
  8
BEM
 62
     1
 10
87.0635730714397624
 20
263.1144418000940277
 30
0.0
 40
3.0
  1
max.\U+220568(\U+220566)
 41
0.8
  0
ENDBLK
  5
2C10
  8
0
  0
BLOCK
  8
0
  2
*U17
 70
     1
 10
0.0
 20
0.0
 30
0.0
  3
*U17
  1

  0
TEXT
  5
2C12
  8
BEM
 62
     1
 10
139.2298272799042138
 20
264.1381038750558901
 30
0.0
 40
3.0
  1
1.5
 50
90.0
 41
0.8
  0
ENDBLK
  5
2C14
  8
0
  0
BLOCK
  8
0
  2
*U18
 70
     1
 10
0.0
 20
0.0
 30
0.0
  3
*U18
  1

  0
TEXT
  5
2C16
  8
BEM
 62
     1
 10
94.7207159285826066
 20
161.0735547284957079
 30
0.0
 40
3.0
  1
\U+220553x1
 41
0.8
  0
ENDBLK
  5
2C18
  8
0
  0
BLOCK
  8
0
  2
*U19
 70
     1
 10
0.0
 20
0.0
 30
0.0
  3
*U19
  1

  0
TEXT
  5
2C1A
  8
BEM
 62
     1
 10
146.6136273218014026
 20
209.3142943512463887
 30
0.0
 40
3.0
  1
85
 50
90.0
 41
0.8
  0
ENDBLK
  5
2C1C
  8
0
  0
ENDSEC
  0
SECTION
  2
ENTITIES
  0
TEXT
  5
8F
  8
VOLL
 10
78.076754716981128
 20
31.025947764705851
 30
0.0
 40
1.8
  1

  7
GREEKS
  0
TEXT
  5
AB6
  8
VOLL
 10
118.1052076774981003
 20
1073.5134203410509599
 30
0.0
 40
1.8
  1

 50
90.0
  7
GREEKS
  0
TEXT
  5
AB7
  8
VOLL
 10
-89.2152003677644529
 20
1194.916189010232074
 30
0.0
 40
1.8
  1

 50
90.0
  7
GREEKS
  0
TEXT
  5
AB8
  8
VOLL
 10
94.3742236663287741
 20
1524.7493999746509417
 30
0.0
 40
1.8
  1

 50
90.0
  7
GREEKS
  0
TEXT
  5
AB9
  8
VOLL
 10
105.578047394789607
 20
1520.9171234603140874
 30
0.0
 40
1.8
  1

 50
90.0
  7
GREEKS
  0
INSERT
  5
10CD
  8
ADSK_ASSOC_ENTITY_BACKUPS
  2
*S2
 10
0.0
 20
0.0
 30
0.0
  0
INSERT
  5
2BB0
  8
STEMPEL
  2
A$C49DF3AA1
 10
-416.4424297961925845
 20
-17.8213567750016288
 30
-0.0000002023532427
  0
INSERT
  5
2BB1
  8
STEMPEL
  2
A$C182A3B66
 10
-383.9606515392572987
 20
-108.2873771617228016
 30
-0.000000202353335
  0
VIEWPORT
  5
83F
 67
     1
  8
0
 10
81.0139133031555048
 20
148.6627157535037895
 30
0.0
 40
847.3609583157658562
 41
464.9621668707022195
 68
     1
 69
     1
1001
ACAD
1000
MVIEW
1002
{
1070
    16
1010
0.0
1020
0.0
1030
0.0
1010
0.0
1020
0.0
1030
1.0
1040
0.0
1040
464.9621668707022195
1040
81.0139133031555048
1040
148.6627157535037895
1040
50.0
1040
0.0
1040
0.0
1070
     0
1070
  1500
1070
     1
1070
     1
1070
     0
1070
     0
1070
     0
1070
     0
1040
0.0
1040
0.0
1040
0.0
1040
10.0
1040
10.0
1040
10.0
1040
10.0
1070
     0
1002
{
1002
}
1002
}
1001
GENIUS_GENODEF_13
1002
{
1000
HIER
1070
     0
1002
}
1002
{
1000
MANEDIT
1070
     0
1002
}
1002
{
1000
NOSEL
1070
     0
1002
}
1002
{
1000
BEHIND
1070
     0
1002
}
1002
{
1000
OTHER
1070
     0
1002
}
1002
{
1000
REACTOR
1002
}
1001
GENIUS_GENOBJ-N-SDF_13
1002
{
1000
OWNER
1000
GEN
1002
}
1001
GENIUS_GENSCREG_15
1000
PF
1040
1.0
1000
DF
1040
1.0
1000
MIN
1011
-27.9872589366836984
1021
0.0
1031
0.0
1021
-26.976852370437431
1031
0.0
1000
MAX
1011
402.2043006544923855
1021
0.0
1031
0.0
1021
187.9760066412333117
1031
0.0
1000
FLAGS
1070
     4
  0
ENDSEC
  0
EOF
