  0
SECTION
  2
HEADER
  9
$ACADVER
  1
AC1009
  9
$INSBASE
 10
0.0
 20
0.0
 30
0.0
  9
$EXTMIN
 10
-341.4465696638916938
 20
-59.0436007018397504
 30
-0.0093376664553944
  9
$EXTMAX
 10
51.0890440890193531
 20
436.5270055986367765
 30
0.014007924606517
  9
$LIMMIN
 10
0.0
 20
0.0
  9
$LIMMAX
 10
840.0
 20
594.0
  9
$ORTHOMODE
 70
     1
  9
$REGENMODE
 70
     1
  9
$FILLMODE
 70
     1
  9
$QTEXTMODE
 70
     0
  9
$MIRRTEXT
 70
     1
  9
$DRAGMODE
 70
     2
  9
$LTSCALE
 40
20.0
  9
$OSMODE
 70
  1327
  9
$ATTMODE
 70
     1
  9
$TEXTSIZE
 40
3.5
  9
$TRACEWID
 40
1.0
  9
$TEXTSTYLE
  7
STANDARD
  9
$CLAYER
  8
0
  9
$CELTYPE
  6
BYLAYER
  9
$CECOLOR
 62
   256
  9
$DIMSCALE
 40
2.0
  9
$DIMASZ
 40
3.5
  9
$DIMEXO
 40
1.0
  9
$DIMDLI
 40
7.0
  9
$DIMRND
 40
0.0
  9
$DIMDLE
 40
0.0
  9
$DIMEXE
 40
1.0
  9
$DIMTP
 40
5.0
  9
$DIMTM
 40
5.0
  9
$DIMTXT
 40
3.5
  9
$DIMCEN
 40
1.5
  9
$DIMTSZ
 40
0.0
  9
$DIMTOL
 70
     0
  9
$DIMLIM
 70
     0
  9
$DIMTIH
 70
     0
  9
$DIMTOH
 70
     0
  9
$DIMSE1
 70
     0
  9
$DIMSE2
 70
     0
  9
$DIMTAD
 70
     1
  9
$DIMZIN
 70
     8
  9
$DIMBLK
  1

  9
$DIMASO
 70
     1
  9
$DIMSHO
 70
     0
  9
$DIMPOST
  1

  9
$DIMAPOST
  1

  9
$DIMALT
 70
     0
  9
$DIMALTD
 70
     2
  9
$DIMALTF
 40
25.3999999999999986
  9
$DIMLFAC
 40
1.0
  9
$DIMTOFL
 70
     1
  9
$DIMTVP
 40
0.0
  9
$DIMTIX
 70
     0
  9
$DIMSOXD
 70
     0
  9
$DIMSAH
 70
     0
  9
$DIMBLK1
  1

  9
$DIMBLK2
  1

  9
$DIMSTYLE
  2
STANDARD
  9
$DIMCLRD
 70
     0
  9
$DIMCLRE
 70
     0
  9
$DIMCLRT
 70
     1
  9
$DIMTFAC
 40
0.5
  9
$DIMGAP
 40
1.5
  9
$LUNITS
 70
     2
  9
$LUPREC
 70
     1
  9
$SKETCHINC
 40
1.0
  9
$FILLETRAD
 40
0.0
  9
$AUNITS
 70
     0
  9
$AUPREC
 70
     0
  9
$MENU
  1
ACAD
  9
$ELEVATION
 40
0.0
  9
$PELEVATION
 40
0.0
  9
$THICKNESS
 40
0.0
  9
$LIMCHECK
 70
     0
  9
$BLIPMODE
 70
     0
  9
$CHAMFERA
 40
0.0
  9
$CHAMFERB
 40
0.0
  9
$SKPOLY
 70
     0
  9
$TDCREATE
 40
2450058.5750462962314487
  9
$TDUPDATE
 40
2458388.4546527778729796
  9
$TDINDWG
 40
0.0447874769
  9
$TDUSRTIMER
 40
0.0447874769
  9
$USRTIMER
 70
     1
  9
$ANGBASE
 50
0.0
  9
$ANGDIR
 70
     0
  9
$PDMODE
 70
     0
  9
$PDSIZE
 40
0.0
  9
$PLINEWID
 40
0.0
  9
$COORDS
 70
     1
  9
$SPLFRAME
 70
     0
  9
$SPLINETYPE
 70
     6
  9
$SPLINESEGS
 70
     8
  9
$ATTDIA
 70
     0
  9
$ATTREQ
 70
     0
  9
$HANDLING
 70
     1
  9
$HANDSEED
  5
FDF
  9
$SURFTAB1
 70
     6
  9
$SURFTAB2
 70
     6
  9
$SURFTYPE
 70
     6
  9
$SURFU
 70
     6
  9
$SURFV
 70
     6
  9
$UCSNAME
  2

  9
$UCSORG
 10
0.0
 20
0.0
 30
0.0
  9
$UCSXDIR
 10
1.0
 20
0.0
 30
0.0
  9
$UCSYDIR
 10
0.0
 20
1.0
 30
0.0
  9
$PUCSNAME
  2

  9
$PUCSORG
 10
0.0
 20
0.0
 30
0.0
  9
$PUCSXDIR
 10
1.0
 20
0.0
 30
0.0
  9
$PUCSYDIR
 10
0.0
 20
1.0
 30
0.0
  9
$USERI1
 70
     0
  9
$USERI2
 70
     0
  9
$USERI3
 70
     0
  9
$USERI4
 70
     0
  9
$USERI5
 70
     0
  9
$USERR1
 40
0.0
  9
$USERR2
 40
0.0
  9
$USERR3
 40
0.0
  9
$USERR4
 40
0.0
  9
$USERR5
 40
0.0
  9
$WORLDVIEW
 70
     1
  9
$SHADEDGE
 70
     3
  9
$SHADEDIF
 70
    70
  9
$TILEMODE
 70
     1
  9
$MAXACTVP
 70
    16
  9
$PLIMCHECK
 70
     0
  9
$PEXTMIN
 10
-0.1068269998720375
 20
-0.125099161969235
 30
-0.0000000349181948
  9
$PEXTMAX
 10
10.6059870968260306
 20
7.4305570564376744
 30
0.0000000814935746
  9
$PLIMMIN
 10
-0.2500002402958907
 20
-0.2499999962453767
  9
$PLIMMAX
 10
10.7499995194082203
 20
8.2499997634587334
  9
$UNITMODE
 70
     0
  9
$VISRETAIN
 70
     0
  9
$PLINEGEN
 70
     0
  9
$PSLTSCALE
 70
     0
  0
ENDSEC
  0
SECTION
  2
TABLES
  0
TABLE
  2
VPORT
 70
     1
  0
VPORT
  2
*ACTIVE
 70
     0
 10
0.0
 20
0.0
 11
1.0
 21
1.0
 12
-1.1787627874359139
 22
65.2417024483985131
 13
0.0
 23
0.0
 14
1.0
 24
1.0
 15
10.0
 25
10.0
 16
-0.0000000000003411
 26
0.0
 36
1592.2962331636699673
 17
-144.0000000000003126
 27
123.5
 37
153.0
 40
499.278117070804285
 41
1.8826466916354549
 42
50.0
 43
0.0
 44
0.0
 50
0.0
 51
0.0
 71
     0
 72
  1500
 73
     1
 74
     0
 75
     0
 76
     0
 77
     0
 78
     0
  0
ENDTAB
  0
TABLE
  2
LTYPE
 70
     4
  0
LTYPE
  2
AUSGEZOGEN
 70
     0
  3
Ausgezogene Linie
 72
    65
 73
     0
 40
0.0
  0
LTYPE
  2
CONTINUOUS
 70
     0
  3
Solid Line
 72
    65
 73
     0
 40
0.0
  0
LTYPE
  2
VERDECKT
 70
     0
  3
Verdeckt __ __ __ __ __ __ __ __ __ __ __ __ __
 72
    65
 73
     2
 40
0.375
 49
0.25
 49
-0.125
  0
ENDTAB
  0
TABLE
  2
LAYER
 70
    10
  0
LAYER
  2
0
 70
     0
 62
     7
  6
AUSGEZOGEN
  0
LAYER
  2
VOLL
 70
     0
 62
     1
  6
AUSGEZOGEN
  0
LAYER
  2
BEM
 70
     0
 62
     7
  6
AUSGEZOGEN
  0
LAYER
  2
DEFPOINTS
 70
     0
 62
     7
  6
AUSGEZOGEN
  0
LAYER
  2
TEXT
 70
     0
 62
     7
  6
AUSGEZOGEN
  0
ENDTAB
  0
TABLE
  2
STYLE
 70
     5
  0
STYLE
  2
STANDARD
 70
     0
 40
0.0
 41
0.8
 50
0.0
 71
     0
 42
3.5
  3
simplex.shx
  4

  0
STYLE
  2
GREEKS
 70
     0
 40
0.0
 41
0.8
 50
0.0
 71
     0
 42
2.5
  3
simplex
  4

  0
ENDTAB
  0
TABLE
  2
VIEW
 70
     4
  0
ENDTAB
  0
TABLE
  2
UCS
 70
     0
  0
ENDTAB
  0
TABLE
  2
APPID
 70
     8
  0
APPID
  2
ACAD
 70
     0
  0
APPID
  2
ACAD_NAV_VCDISPLAY
 70
     0
  0
APPID
  2
ACAD_PSEXT
 70
     0
  0
APPID
  2
ACAD_EXEMPT_FROM_CAD_STANDARDS
 70
     0
  0
APPID
  2
ACAD_MLEADERVER
 70
     0
  0
APPID
  2
ACAECLAYERSTANDARD
 70
     0
  0
APPID
  2
ACCMTRANSPARENCY
 70
     0
  0
APPID
  2
ACAD_OBJECT_CHANGE_GUID
 70
     0
  0
ENDTAB
  0
TABLE
  2
DIMSTYLE
 70
     3
  0
DIMSTYLE
  2
STANDARD
 70
     0
  3

  4

  5

  6

  7

 40
1.0
 41
0.18
 42
0.0625
 43
0.38
 44
0.18
 45
0.0
 46
0.0
 47
0.0
 48
0.0
140
0.18
141
0.09
142
0.0
143
25.3999999999999986
144
1.0
145
0.0
146
1.0
147
0.09
 71
     0
 72
     0
 73
     1
 74
     1
 75
     0
 76
     0
 77
     0
 78
     0
170
     0
171
     2
172
     0
173
     0
174
     0
175
     0
176
     0
177
     0
178
     0
  0
ENDTAB
  0
ENDSEC
  0
SECTION
  2
BLOCKS
  0
BLOCK
  8
0
  2
$MODEL_SPACE
 70
     0
 10
0.0
 20
0.0
 30
0.0
  3
$MODEL_SPACE
  1

  0
ENDBLK
  5
63
  8
0
  0
BLOCK
 67
     1
  8
0
  2
$PAPER_SPACE
 70
     0
 10
0.0
 20
0.0
 30
0.0
  3
$PAPER_SPACE
  1

  0
ENDBLK
  5
61
 67
     1
  8
0
  0
BLOCK
  8
0
  2
A$C5FAF7E81
 70
     0
 10
0.0
 20
0.0
 30
0.0
  3
A$C5FAF7E81
  1

  0
ARC
  5
F32
  8
0
  6
AUSGEZOGEN
 62
     3
 10
-0.0000000000006431
 20
0.0000000000000527
 30
0.0
 40
51.0000000000002203
 50
270.0000000000002274
 51
359.9999999999998863
  0
ARC
  5
F33
  8
0
  6
AUSGEZOGEN
 62
     3
 10
-0.0000000000006431
 20
-0.0000000000001178
 30
0.0
 40
51.0000000000000782
 50
0.0000000000001018
 51
89.9999999999997442
  0
ARC
  5
F34
  8
0
  6
AUSGEZOGEN
 62
     3
 10
-139.9999999999996874
 20
0.0000000000000527
 30
-0.0000000000000284
 40
51.0000000000002203
 50
180.0000000000001137
 51
269.9999999999997726
  0
ARC
  5
F35
  8
0
  6
AUSGEZOGEN
 62
     3
 10
-139.9999999999996874
 20
-0.0000000000001178
 30
-0.0000000000000284
 40
51.0000000000000782
 50
90.0000000000002558
 51
179.9999999999998863
  0
CIRCLE
  5
F36
  8
0
  6
AUSGEZOGEN
 62
     3
 10
-280.0000000000002274
 20
0.0000000000000319
 30
-0.0000000000000568
 40
53.5000000000003624
  0
CIRCLE
  5
F37
  8
0
  6
AUSGEZOGEN
 62
     3
 10
-280.0000000000002274
 20
0.0000000000000292
 30
-0.0000000000000568
 40
53.0
  0
CIRCLE
  5
F38
  8
0
  6
AUSGEZOGEN
 62
     3
 10
-280.0000000000002274
 20
0.0000000000000273
 30
-0.0000000000000568
 40
49.0
  0
CIRCLE
  5
F39
  8
0
  6
AUSGEZOGEN
 62
     3
 10
-280.0000000000002274
 20
0.0000000000000319
 30
-0.0000000000000568
 40
55.7067558379251295
  0
CIRCLE
  5
F3A
  8
0
  6
AUSGEZOGEN
 62
     3
 10
-280.0000000000002274
 20
0.0000000000000312
 30
-0.0000000000000568
 40
59.0
  0
LINE
  5
F3B
  8
0
  6
AUSGEZOGEN
 62
     3
 10
-0.0000000000004157
 20
50.9999999999999716
 30
0.0
 11
-139.9999999999998863
 21
50.9999999999999574
 31
-0.0000000000000284
  0
LINE
  5
F3C
  8
0
  6
AUSGEZOGEN
 62
     3
 10
-139.9999999999998863
 20
-51.0000000000000213
 30
-0.0000000000000284
 11
-0.0000000000004263
 21
-51.0000000000000426
 31
0.0
  0
LINE
  5
F3D
  8
0
  6
AUSGEZOGEN
 62
     3
 10
-250.3352060516176039
 20
-51.0000000000000426
 30
-0.0000000000000568
 11
-140.000000000000199
 21
-51.0000000000000426
 31
-0.0000000000000284
  0
LINE
  5
F3E
  8
0
  6
AUSGEZOGEN
 62
     3
 10
-140.000000000000199
 20
50.9999999999999574
 30
-0.0000000000000284
 11
-250.3352060516174902
 21
50.9999999999999574
 31
-0.0000000000000568
  0
CIRCLE
  5
F3F
  8
0
  6
VERDECKT
 62
     1
 10
0.0
 20
0.0000000000000132
 30
0.0
 40
47.942496362602931
  0
CIRCLE
  5
F40
  8
0
  6
VERDECKT
 62
     1
 10
0.0
 20
0.0000000000000132
 30
0.0
 40
49.9501360376889281
  0
CIRCLE
  5
F41
  8
0
  6
VERDECKT
 62
     1
 10
-0.0000000000004157
 20
0.0000000000000243
 30
0.0
 40
49.0
  0
CIRCLE
  5
F42
  8
0
  6
VERDECKT
 62
     1
 10
-139.9999999999998863
 20
0.0000000000000243
 30
-0.0000000000000284
 40
49.0
  0
ARC
  5
F43
  8
0
  6
VERDECKT
 62
     1
 10
-0.0000000000004157
 20
-0.0000000000000326
 30
0.0
 40
51.0
 50
90.0
 51
270.0
  0
ARC
  5
F44
  8
0
  6
VERDECKT
 62
     1
 10
-139.9999999999998863
 20
-0.0000000000000326
 30
-0.0000000000000284
 40
51.0
 50
270.0
 51
90.0
  0
CIRCLE
  5
F45
  8
0
  6
VERDECKT
 62
     1
 10
-280.0000000000002274
 20
0.0000000000000312
 30
-0.0000000000000568
 40
57.0
  0
CIRCLE
  5
F46
  8
0
  6
VERDECKT
 62
     1
 10
-280.0000000000002274
 20
0.0000000000000292
 30
-0.0000000000000568
 40
55.0
  0
CIRCLE
  5
F47
  8
0
  6
VERDECKT
 62
     1
 10
-280.0000000000002274
 20
0.0000000000000273
 30
-0.0000000000000568
 40
51.0
  0
LINE
  5
F48
  8
0
  6
VERDECKT
 62
     1
 10
-0.0000000000004157
 20
49.0000000000000284
 30
0.0
 11
-139.9999999999998863
 21
49.0000000000000213
 31
-0.0000000000000284
  0
LINE
  5
F49
  8
0
  6
VERDECKT
 62
     1
 10
-139.9999999999998863
 20
-48.9999999999999787
 30
-0.0000000000000284
 11
-0.0000000000004263
 21
-48.9999999999999787
 31
0.0
  0
LINE
  5
F4A
  8
0
  6
VERDECKT
 62
     1
 10
-280.0000000000002274
 20
-48.9999999999999787
 30
-0.0000000000000568
 11
-140.000000000000199
 21
-48.9999999999999929
 31
-0.0000000000000284
  0
LINE
  5
F4B
  8
0
  6
VERDECKT
 62
     1
 10
-140.000000000000199
 20
49.0000000000000213
 30
-0.0000000000000284
 11
-280.0000000000002274
 21
49.0000000000000071
 31
-0.0000000000000568
  0
LINE
  5
F4C
  8
0
  6
VERDECKT
 62
     1
 10
-280.0000000000002274
 20
-51.0000000000000426
 30
-0.0000000000000568
 11
-250.3352060516176039
 21
-51.0000000000000426
 31
-0.0000000000000568
  0
LINE
  5
F4D
  8
0
  6
VERDECKT
 62
     1
 10
-250.3352060516174902
 20
50.9999999999999574
 30
-0.0000000000000568
 11
-280.0000000000002274
 21
50.9999999999999574
 31
-0.0000000000000568
  0
ENDBLK
  5
F4F
  8
0
  0
BLOCK
  8
0
  2
A$C64C742FB
 70
     0
 10
0.0
 20
0.0
 30
0.0
  3
A$C64C742FB
  1

  0
LINE
  5
F53
  8
0
  6
AUSGEZOGEN
 62
     3
 10
-49.9501360376889281
 20
0.0
 30
0.0
 11
49.9501360376889281
 21
0.0
 31
0.0
210
0.0
220
1.0
230
-0.0000000000000002
  0
LINE
  5
F54
  8
0
  6
AUSGEZOGEN
 62
     3
 10
-335.7067558379254137
 20
306.0000000000002274
 30
-0.0000000000000679
 11
-224.2932441620750978
 21
306.0000000000002274
 31
-0.0000000000000679
210
0.0
220
1.0
230
-0.0000000000000002
  0
LINE
  5
F55
  8
0
  6
AUSGEZOGEN
 62
     3
 10
-49.9501360376889281
 20
0.0000000000000009
 30
0.0
 11
-51.0000000000004476
 21
11.9999999999995399
 31
-0.0000000000000027
210
0.0
220
1.0
230
-0.0000000000000002
  0
LINE
  5
F56
  8
0
  6
AUSGEZOGEN
 62
     3
 10
49.9501360376889281
 20
0.0000000000000009
 30
0.0
 11
51.0000000000004476
 21
11.9999999999995399
 31
-0.0000000000000027
210
0.0
220
1.0
230
-0.0000000000000002
  0
LINE
  5
F57
  8
0
  6
AUSGEZOGEN
 62
     3
 10
50.9999999999995524
 20
181.0000000000001137
 30
-0.0000000000000402
 11
50.9999999999999503
 21
11.9999999999995399
 31
-0.0000000000000027
210
0.0
220
1.0
230
-0.0000000000000002
  0
LINE
  5
F58
  8
0
  6
AUSGEZOGEN
 62
     3
 10
-51.0000000000004476
 20
180.999999999999801
 30
-0.0000000000000402
 11
-51.0000000000000426
 21
11.9999999999995399
 31
-0.0000000000000027
210
0.0
220
1.0
230
-0.0000000000000002
  0
ARC
  5
F59
  8
0
  6
AUSGEZOGEN
 62
     3
 10
70.0000000000002274
 20
181.0000000000001137
 30
0.0
 40
120.9999999999997016
210
0.0
220
-0.0000000000000002
230
-1.0
 50
0.0
 51
180.0
  0
ARC
  5
F5A
  8
0
  6
AUSGEZOGEN
 62
     3
 10
-70.0000000000002274
 20
181.0000000000001137
 30
-0.0000000000000402
 40
18.9999999999997691
 50
359.9999999999992042
 51
179.9999999999992895
  0
LINE
  5
F5B
  8
0
  6
AUSGEZOGEN
 62
     3
 10
-191.0
 20
121.0000000000000995
 30
-0.0000000000000269
 11
-191.0
 21
181.0
 31
-0.0000000000000402
210
0.0
220
1.0
230
-0.0000000000000002
  0
LINE
  5
F5C
  8
0
  6
AUSGEZOGEN
 62
     3
 10
-89.0
 20
121.0000000000002984
 30
-0.0000000000000269
 11
-89.0
 21
181.000000000000199
 31
-0.0000000000000402
210
0.0
220
1.0
230
-0.0000000000000002
  0
ARC
  5
F5D
  8
0
  6
AUSGEZOGEN
 62
     3
 10
210.000000000000199
 20
121.0
 30
0.0
 40
121.0
210
0.0
220
-0.0000000000000002
230
-1.0
 50
179.999999999999801
 51
359.9999999999998863
  0
ARC
  5
F5E
  8
0
  6
AUSGEZOGEN
 62
     3
 10
-210.000000000000199
 20
121.0000000000000995
 30
-0.0000000000000269
 40
19.0000000000000284
 50
179.999999999999801
 51
359.9999999999997726
  0
LINE
  5
F5F
  8
0
  6
AUSGEZOGEN
 62
     3
 10
-224.2932441620752115
 20
306.0000000000001137
 30
-0.0000000000000679
 11
-223.3423053240838954
 21
303.9607050809461271
 31
-0.0000000000000675
210
0.0
220
1.0
230
-0.0000000000000002
  0
LINE
  5
F60
  8
0
  6
AUSGEZOGEN
 62
     3
 10
-335.7067558379251864
 20
306.0000000000001137
 30
-0.0000000000000679
 11
-336.6576946759165025
 21
303.9607050809461271
 31
-0.0000000000000675
210
0.0
220
1.0
230
-0.0000000000000002
  0
ARC
  5
F61
  8
0
  6
AUSGEZOGEN
 62
     3
 10
314.0000000000006821
 20
293.395248537429211
 30
0.0
 40
24.9999999999995488
210
0.0
220
-0.0000000000000002
230
-1.0
 50
359.9999999999997158
 51
24.9999999999992006
  0
ARC
  5
F62
  8
0
  6
AUSGEZOGEN
 62
     3
 10
245.9999999999994031
 20
293.3952485374293246
 30
0.0
 40
24.99999999999919
210
0.0
220
-0.0000000000000002
230
-1.0
 50
155.0000000000005969
 51
180.000000000000199
  0
LINE
  5
F63
  8
0
  6
AUSGEZOGEN
 62
     3
 10
-221.000000000000199
 20
293.3952485374290973
 30
-0.0000000000000651
 11
-221.000000000000199
 21
278.2332005306818132
 31
-0.0000000000000618
210
0.0
220
1.0
230
-0.0000000000000002
  0
LINE
  5
F64
  8
0
  6
AUSGEZOGEN
 62
     3
 10
-339.0000000000002274
 20
293.3952485374290973
 30
-0.0000000000000651
 11
-339.0000000000002274
 21
278.2332005306816995
 31
-0.0000000000000618
210
0.0
220
1.0
230
-0.0000000000000002
  0
ARC
  5
F65
  8
0
  6
AUSGEZOGEN
 62
     3
 10
313.9999999999976126
 20
278.2332005306823817
 30
0.0
 40
25.0000000000026112
210
0.0
220
-0.0000000000000002
230
-1.0
 50
333.1119523822774227
 51
359.9999999999985789
  0
ARC
  5
F66
  8
0
  6
AUSGEZOGEN
 62
     3
 10
246.0000000000032969
 20
278.2332005306824954
 30
0.0
 40
25.0000000000031299
210
0.0
220
-0.0000000000000002
230
-1.0
 50
180.0000000000017053
 51
206.8880476177224068
  0
ARC
  5
F67
  8
0
  6
AUSGEZOGEN
 62
     3
 10
346.9999999999973852
 20
261.5000000000009095
 30
0.0
 40
11.99999999999722
210
0.0
220
-0.0000000000000002
230
-1.0
 50
153.1119523822727047
 51
180.0000000000034106
  0
ARC
  5
F68
  8
0
  6
AUSGEZOGEN
 62
     3
 10
213.0000000000036096
 20
261.50000000000108
 30
0.0
 40
11.9999999999965894
210
0.0
220
-0.0000000000000002
230
-1.0
 50
359.9999999999956799
 51
26.8880476177281906
  0
LINE
  5
F69
  8
0
  6
AUSGEZOGEN
 62
     3
 10
-225.000000000000199
 20
261.5000000000001137
 30
-0.0000000000000581
 11
-225.000000000000199
 21
242.9274888769477059
 31
-0.0000000000000539
210
0.0
220
1.0
230
-0.0000000000000002
  0
LINE
  5
F6A
  8
0
  6
AUSGEZOGEN
 62
     3
 10
-335.0000000000002274
 20
261.5000000000001137
 30
-0.0000000000000581
 11
-335.0000000000002274
 21
242.9274888769477059
 31
-0.0000000000000539
210
0.0
220
1.0
230
-0.0000000000000002
  0
ARC
  5
F6B
  8
0
  6
AUSGEZOGEN
 62
     3
 10
320.0000000000014779
 20
242.927488876947308
 30
0.0
 40
14.9999999999987494
210
0.0
220
-0.0000000000000002
230
-1.0
 50
325.6988472432063872
 51
0.0000000000015267
  0
ARC
  5
F6C
  8
0
  6
AUSGEZOGEN
 62
     3
 10
239.9999999999990052
 20
242.927488876947308
 30
0.0
 40
14.9999999999987708
210
0.0
220
-0.0000000000000002
230
-1.0
 50
179.9999999999984084
 51
214.3011527567934991
  0
ARC
  5
F6D
  8
0
  6
AUSGEZOGEN
 62
     3
 10
338.9999999999972147
 20
229.9660074801329017
 30
0.0
 40
7.9999999999969811
210
0.0
220
-0.0000000000000002
230
-1.0
 50
145.6988472432028061
 51
180.000000000005997
  0
ARC
  5
F6E
  8
0
  6
AUSGEZOGEN
 62
     3
 10
221.0000000000027001
 20
229.9660074801327028
 30
0.0
 40
7.9999999999975548
210
0.0
220
-0.0000000000000002
230
-1.0
 50
359.999999999995282
 51
34.3011527567960499
  0
LINE
  5
F6F
  8
0
  6
AUSGEZOGEN
 62
     3
 10
-229.000000000000199
 20
229.9660074801319922
 30
-0.0000000000000511
 11
-229.000000000000199
 21
121.0000000000000995
 31
-0.0000000000000269
210
0.0
220
1.0
230
-0.0000000000000002
  0
LINE
  5
F70
  8
0
  6
AUSGEZOGEN
 62
     3
 10
-331.0000000000002274
 20
229.9660074801319922
 30
-0.0000000000000511
 11
-331.0000000000002274
 21
121.0000000000000995
 31
-0.0000000000000269
210
0.0
220
1.0
230
-0.0000000000000002
  0
LINE
  5
F71
  8
0
  6
VERDECKT
 62
     1
 10
-47.9424963626029168
 20
-0.0000000000000009
 30
0.0
 11
-49.0000000000004476
 21
12.0873218858131697
 31
-0.0000000000000027
210
0.0
220
1.0
230
-0.0000000000000002
  0
LINE
  5
F72
  8
0
  6
VERDECKT
 62
     1
 10
47.9424963626029381
 20
0.0000000000001119
 30
0.0
 11
49.0000000000004192
 21
12.0873218858134397
 31
-0.0000000000000027
210
0.0
220
1.0
230
-0.0000000000000002
  0
LINE
  5
F73
  8
0
  6
VERDECKT
 62
     1
 10
48.9999999999995524
 20
181.000000000000199
 30
-0.0000000000000402
 11
48.9999999999999503
 21
12.0873218858134504
 31
-0.0000000000000027
210
0.0
220
1.0
230
-0.0000000000000002
  0
LINE
  5
F74
  8
0
  6
VERDECKT
 62
     1
 10
-49.0000000000004476
 20
181.0
 30
-0.0000000000000402
 11
-49.0000000000000497
 21
12.0873218858131697
 31
-0.0000000000000027
210
0.0
220
1.0
230
-0.0000000000000002
  0
ARC
  5
F75
  8
0
  6
VERDECKT
 62
     1
 10
70.0000000000002132
 20
181.0000000000001137
 30
0.0
 40
118.999999999999801
210
0.0
220
-0.0000000000000002
230
-1.0
 50
360.0
 51
179.9999999999998863
  0
ARC
  5
F76
  8
0
  6
VERDECKT
 62
     1
 10
-70.0000000000002274
 20
181.0000000000001137
 30
-0.0000000000000402
 40
20.9999999999997691
 50
359.9999999999996021
 51
179.9999999999994884
  0
LINE
  5
F77
  8
0
  6
VERDECKT
 62
     1
 10
-189.0
 20
121.0000000000000995
 30
-0.0000000000000269
 11
-189.0
 21
181.0
 31
-0.0000000000000402
210
0.0
220
1.0
230
-0.0000000000000002
  0
LINE
  5
F78
  8
0
  6
VERDECKT
 62
     1
 10
-91.0
 20
121.0000000000002984
 30
-0.0000000000000269
 11
-91.0
 21
181.0000000000003126
 31
-0.0000000000000402
210
0.0
220
1.0
230
-0.0000000000000002
  0
ARC
  5
F79
  8
0
  6
VERDECKT
 62
     1
 10
210.000000000000199
 20
121.0000000000000995
 30
0.0
 40
119.0
210
0.0
220
-0.0000000000000002
230
-1.0
 50
179.999999999999801
 51
359.9999999999997726
  0
ARC
  5
F7A
  8
0
  6
VERDECKT
 62
     1
 10
-210.000000000000199
 20
121.0000000000000995
 30
-0.0000000000000269
 40
21.0
 50
179.999999999999801
 51
359.9999999999997726
  0
LINE
  5
F7B
  8
0
  6
VERDECKT
 62
     1
 10
-226.4999999999998863
 20
306.0000000000002274
 30
-0.0000000000000679
 11
-225.1549208981570018
 21
303.1154685574647942
 31
-0.0000000000000673
210
0.0
220
1.0
230
-0.0000000000000002
  0
LINE
  5
F7C
  8
0
  6
VERDECKT
 62
     1
 10
-333.5000000000006253
 20
306.0000000000002274
 30
-0.0000000000000679
 11
-334.8450791018433961
 21
303.1154685574647942
 31
-0.0000000000000673
210
0.0
220
1.0
230
-0.0000000000000002
  0
ARC
  5
F7D
  8
0
  6
VERDECKT
 62
     1
 10
314.0000000000027853
 20
293.3952485374297225
 30
0.0
 40
22.9999999999974385
210
0.0
220
-0.0000000000000002
230
-1.0
 50
0.0
 51
25.0000000000017799
  0
ARC
  5
F7E
  8
0
  6
VERDECKT
 62
     1
 10
245.9999999999988063
 20
293.3952485374293815
 30
0.0
 40
22.9999999999985789
210
0.0
220
-0.0000000000000002
230
-1.0
 50
155.000000000000199
 51
180.0000000000007105
  0
LINE
  5
F7F
  8
0
  6
VERDECKT
 62
     1
 10
-223.000000000000199
 20
293.3952485374290973
 30
-0.0000000000000651
 11
-223.000000000000199
 21
278.2332005306818132
 31
-0.0000000000000618
210
0.0
220
1.0
230
-0.0000000000000002
  0
LINE
  5
F80
  8
0
  6
VERDECKT
 62
     1
 10
-337.0000000000002274
 20
293.3952485374290973
 30
-0.0000000000000651
 11
-337.0000000000002274
 21
278.2332005306816995
 31
-0.0000000000000618
210
0.0
220
1.0
230
-0.0000000000000002
  0
ARC
  5
F81
  8
0
  6
VERDECKT
 62
     1
 10
313.9999999999998863
 20
278.2332005306818132
 30
0.0
 40
23.0000000000003304
210
0.0
220
-0.0000000000000002
230
-1.0
 50
333.1119523822763995
 51
359.9999999999997726
  0
ARC
  5
F82
  8
0
  6
VERDECKT
 62
     1
 10
246.0000000000011937
 20
278.2332005306819269
 30
0.0
 40
23.0000000000009699
210
0.0
220
-0.0000000000000002
230
-1.0
 50
180.0000000000005116
 51
206.8880476177230889
  0
ARC
  5
F83
  8
0
  6
VERDECKT
 62
     1
 10
346.9999999999989768
 20
261.5000000000005116
 30
0.0
 40
13.9999999999987406
210
0.0
220
-0.0000000000000002
230
-1.0
 50
153.1119523822744952
 51
180.0000000000015064
  0
ARC
  5
F84
  8
0
  6
VERDECKT
 62
     1
 10
213.0000000000015064
 20
261.5000000000005116
 30
0.0
 40
13.9999999999987494
210
0.0
220
-0.0000000000000002
230
-1.0
 50
359.9999999999984084
 51
26.8880476177254906
  0
LINE
  5
F85
  8
0
  6
VERDECKT
 62
     1
 10
-227.000000000000199
 20
261.5000000000001137
 30
-0.0000000000000581
 11
-227.000000000000199
 21
242.9274888769477059
 31
-0.0000000000000539
210
0.0
220
1.0
230
-0.0000000000000002
  0
LINE
  5
F86
  8
0
  6
VERDECKT
 62
     1
 10
-333.0000000000002274
 20
261.5000000000001137
 30
-0.0000000000000581
 11
-333.0000000000002274
 21
242.9274888769477059
 31
-0.0000000000000539
210
0.0
220
1.0
230
-0.0000000000000002
  0
ARC
  5
F87
  8
0
  6
VERDECKT
 62
     1
 10
320.0000000000007958
 20
242.9274888769475069
 30
0.0
 40
12.9999999999994404
210
0.0
220
-0.0000000000000002
230
-1.0
 50
325.6988472432068988
 51
0.000000000000757
  0
ARC
  5
F88
  8
0
  6
VERDECKT
 62
     1
 10
239.9999999999998863
 20
242.9274888769477059
 30
0.0
 40
12.9999999999997407
210
0.0
220
-0.0000000000000002
230
-1.0
 50
179.9999999999998863
 51
214.3011527567929022
  0
ARC
  5
F89
  8
0
  6
VERDECKT
 62
     1
 10
339.000000000001819
 20
229.9660074801315091
 30
0.0
 40
10.0000000000015294
210
0.0
220
-0.0000000000000002
230
-1.0
 50
145.6988472432121
 51
179.9999999999967883
  0
ARC
  5
F8A
  8
0
  6
VERDECKT
 62
     1
 10
220.9999999999990052
 20
229.9660074801315091
 30
0.0
 40
10.0000000000012808
210
0.0
220
-0.0000000000000002
230
-1.0
 50
0.0000000000029388
 51
34.3011527567886532
  0
LINE
  5
F8B
  8
0
  6
VERDECKT
 62
     1
 10
-231.000000000000199
 20
229.9660074801319922
 30
-0.0000000000000511
 11
-231.000000000000199
 21
121.0000000000000995
 31
-0.0000000000000269
210
0.0
220
1.0
230
-0.0000000000000002
  0
LINE
  5
F8C
  8
0
  6
VERDECKT
 62
     1
 10
-329.0000000000002274
 20
229.9660074801319922
 30
-0.0000000000000511
 11
-329.0000000000002274
 21
121.0000000000000995
 31
-0.0000000000000269
210
0.0
220
1.0
230
-0.0000000000000002
  0
ENDBLK
  5
F8E
  8
0
  0
ENDSEC
  0
SECTION
  2
ENTITIES
  0
TEXT
  5
2D6
  8
VOLL
 10
421.388162674505395
 20
174.3046634717333063
 30
0.0
 40
1.8
  1

  7
GREEKS
  0
TEXT
  5
2D7
  8
TEXT
 10
753.2204308780983411
 20
179.8628990049589049
 30
0.0
 40
2.5
  1
  
  7
GREEKS
 72
     1
 11
755.4823356400030434
 21
179.8628990049589049
 31
0.0
  0
TEXT
  5
2D8
  8
BEM
 10
997.3401481905804076
 20
315.4217810353611071
 30
0.0
 40
2.5
  1
 
 72
     4
 11
998.4711005715327019
 21
315.4217810353611071
 31
0.0
  0
TEXT
  5
2DA
  8
BEM
 10
535.877181052672654
 20
237.2435895725068917
 30
0.0
 40
2.5
  1

  7
GREEKS
  0
TEXT
  5
2DB
  8
VOLL
 10
521.8109880329512862
 20
217.0603289154718993
 30
0.0
 40
1.8
  1

  7
GREEKS
  0
TEXT
  5
2DC
  8
BEM
 10
556.2990528722358476
 20
221.7860532386924035
 30
0.0
 40
2.5
  1

 41
0.8
  7
GREEKS
  0
TEXT
  5
2DD
  8
BEM
 10
556.2990528722358476
 20
217.0922846846403047
 30
0.0
 40
2.5
  1

 41
0.8
  7
GREEKS
  0
TEXT
  5
2DE
  8
BEM
 10
556.2990528722358476
 20
211.8544408659768123
 30
0.0
 40
2.5
  1

 41
0.8
  7
GREEKS
  0
TEXT
  5
2DF
  8
BEM
 10
556.2261083948615124
 20
207.3492519158791936
 30
0.0
 40
1.8
  1

 41
0.8
  7
GREEKS
  0
TEXT
  5
2E0
  8
BEM
 10
543.5425375152502738
 20
232.9408410121044994
 30
0.0
 40
2.0
  1

 41
0.8
  7
GREEKS
 72
     1
 11
543.5425375152502738
 21
232.9408410121044994
 31
0.0
  0
TEXT
  5
2E1
  8
TEXT
 10
853.6432562365441754
 20
222.6185644486974127
 30
0.0
 40
2.5
  1
  
  7
GREEKS
 72
     1
 11
855.9051609984488778
 21
222.6185644486974127
 31
0.0
  0
TEXT
  5
2E2
  8
BEM
 10
1097.7629735490259009
 20
358.1774464790996149
 30
0.0
 40
2.5
  1
 
 72
     4
 11
1098.8939259299791047
 21
358.1774464790996149
 31
0.0
  0
TEXT
  5
324
  8
VOLL
 10
487.7304587180743738
 20
718.0852660065393138
 30
0.0
 40
1.8
  1

  7
GREEKS
  0
TEXT
  5
325
  8
TEXT
 10
819.5627269216674904
 20
723.6435015397647703
 30
0.0
 40
2.5
  1
  
  7
GREEKS
 72
     1
 11
821.8246316835721927
 21
723.6435015397647703
 31
0.0
  0
TEXT
  5
326
  8
BEM
 10
1063.6824442341489885
 20
859.2023835701669441
 30
0.0
 40
2.5
  1
 
 72
     4
 11
1064.8133966151019649
 21
859.2023835701669441
 31
0.0
  0
TEXT
  5
327
  8
BEM
 10
642.8700608748704326
 20
738.4186768962158567
 30
0.0
 40
2.5
  1

  7
GREEKS
  0
TEXT
  5
328
  8
VOLL
 10
628.8038678551489511
 20
718.2354162391807222
 30
0.0
 40
1.8
  1

  7
GREEKS
  0
TEXT
  5
329
  8
BEM
 10
663.2919326944336262
 20
722.9611405624012832
 30
0.0
 40
2.5
  1

 41
0.8
  7
GREEKS
  0
TEXT
  5
32A
  8
BEM
 10
663.2919326944336262
 20
718.2673720083490707
 30
0.0
 40
2.5
  1

 41
0.8
  7
GREEKS
  0
TEXT
  5
32B
  8
BEM
 10
663.2919326944336262
 20
713.0295281896857205
 30
0.0
 40
2.5
  1

 41
0.8
  7
GREEKS
  0
TEXT
  5
32C
  8
BEM
 10
663.2189882170591773
 20
708.5243392395881301
 30
0.0
 40
1.8
  1

 41
0.8
  7
GREEKS
  0
TEXT
  5
32D
  8
BEM
 10
650.5354173374479387
 20
734.1159283358133507
 30
0.0
 40
2.0
  1

 41
0.8
  7
GREEKS
 72
     1
 11
650.5354173374479387
 21
734.1159283358133507
 31
0.0
  0
TEXT
  5
32E
  8
TEXT
 10
960.636136058741954
 20
723.7936517724062924
 30
0.0
 40
2.5
  1
  
  7
GREEKS
 72
     1
 11
962.89804082064677
 21
723.7936517724062924
 31
0.0
  0
TEXT
  5
32F
  8
BEM
 10
1204.7558533712240205
 20
859.3525338028084661
 30
0.0
 40
2.5
  1
 
 72
     4
 11
1205.8868057521760875
 21
859.3525338028084661
 31
0.0
  0
TEXT
  5
334
  8
VOLL
 10
583.6220073704930655
 20
875.0295223152586459
 30
0.0
 40
1.8
  1

  7
GREEKS
  0
TEXT
  5
335
  8
TEXT
 10
915.4542755740860684
 20
880.5877578484842161
 30
0.0
 40
2.5
  1
  
  7
GREEKS
 72
     1
 11
917.7161803359907708
 21
880.5877578484842161
 31
0.0
  0
TEXT
  5
336
  8
BEM
 10
1159.5739928865680213
 20
1016.1466398788860488
 30
0.0
 40
2.5
  1
 
 72
     4
 11
1160.7049452675200882
 21
1016.1466398788860488
 31
0.0
  0
TEXT
  5
337
  8
VOLL
 10
741.156724447654824
 20
880.5850779503298327
 30
0.0
 40
1.8
  1

  7
GREEKS
  0
TEXT
  5
338
  8
BEM
 10
775.6447892869393854
 20
885.3108022735503937
 30
0.0
 40
2.5
  1

 41
0.8
  7
GREEKS
  0
TEXT
  5
339
  8
BEM
 10
775.6447892869393854
 20
880.6170337194981812
 30
0.0
 40
2.5
  1

 41
0.8
  7
GREEKS
  0
TEXT
  5
33A
  8
BEM
 10
775.6447892869393854
 20
875.379189900834831
 30
0.0
 40
2.5
  1

 41
0.8
  7
GREEKS
  0
TEXT
  5
33B
  8
BEM
 10
775.5718448095649364
 20
870.8740009507371269
 30
0.0
 40
1.8
  1

 41
0.8
  7
GREEKS
  0
TEXT
  5
33C
  8
TEXT
 10
1072.9889926512469174
 20
886.1433134835554029
 30
0.0
 40
2.5
  1
  
  7
GREEKS
 72
     1
 11
1075.2508974131519608
 21
886.1433134835554029
 31
0.0
  0
TEXT
  5
33D
  8
BEM
 10
1317.1087099637290976
 20
1021.7021955139570082
 30
0.0
 40
2.5
  1
 
 72
     4
 11
1318.239662344682074
 21
1021.7021955139570082
 31
0.0
  0
TEXT
  5
340
  8
VOLL
 10
582.729612564292097
 20
897.157541983345368
 30
0.0
 40
1.8
  1

  7
GREEKS
  0
TEXT
  5
341
  8
TEXT
 10
914.5618807678849862
 20
902.7157775165710518
 30
0.0
 40
2.5
  1
  
  7
GREEKS
 72
     1
 11
916.8237855297896886
 21
902.7157775165710518
 31
0.0
  0
TEXT
  5
342
  8
BEM
 10
1158.681598080366939
 20
1038.2746595469729982
 30
0.0
 40
2.5
  1
 
 72
     4
 11
1159.812550461319006
 21
1038.2746595469729982
 31
0.0
  0
TEXT
  5
343
  8
BEM
 10
748.0752256439419625
 20
937.3107726819310983
 30
0.0
 40
2.5
  1

  7
GREEKS
  0
TEXT
  5
344
  8
VOLL
 10
734.009032624220481
 20
917.1275120248959638
 30
0.0
 40
1.8
  1

  7
GREEKS
  0
TEXT
  5
345
  8
BEM
 10
768.4970974635051562
 20
921.8532363481166385
 30
0.0
 40
2.5
  1

 41
0.8
  7
GREEKS
  0
TEXT
  5
346
  8
BEM
 10
768.4970974635051562
 20
917.159467794064426
 30
0.0
 40
2.5
  1

 41
0.8
  7
GREEKS
  0
TEXT
  5
347
  8
BEM
 10
768.4970974635051562
 20
911.9216239754009621
 30
0.0
 40
2.5
  1

 41
0.8
  7
GREEKS
  0
TEXT
  5
348
  8
BEM
 10
768.4241529861308209
 20
907.416435025303258
 30
0.0
 40
1.8
  1

 41
0.8
  7
GREEKS
  0
TEXT
  5
349
  8
BEM
 10
755.7405821065194687
 20
933.0080241215285923
 30
0.0
 40
2.0
  1

 41
0.8
  7
GREEKS
 72
     1
 11
755.7405821065194687
 21
933.0080241215285923
 31
0.0
  0
TEXT
  5
34A
  8
TEXT
 10
1065.8413008278130292
 20
922.6857475581216477
 30
0.0
 40
2.5
  1
  
  7
GREEKS
 72
     1
 11
1068.1032055897180726
 21
922.6857475581216477
 31
0.0
  0
TEXT
  5
34B
  8
BEM
 10
1309.9610181402958915
 20
1058.2446295885240488
 30
0.0
 40
2.5
  1
 
 72
     4
 11
1311.0919705212479585
 21
1058.2446295885240488
 31
0.0
  0
TEXT
  5
34C
  8
VOLL
 10
535.2274952054301593
 20
943.9290125399834324
 30
0.0
 40
1.8
  1

  7
GREEKS
  0
TEXT
  5
34D
  8
TEXT
 10
867.0597634090230486
 20
949.4872480732088889
 30
0.0
 40
2.5
  1
  
  7
GREEKS
 72
     1
 11
869.3216681709279783
 21
949.4872480732088889
 31
0.0
  0
TEXT
  5
34E
  8
BEM
 10
1111.1794807215048877
 20
1085.0461301036109489
 30
0.0
 40
2.5
  1
 
 72
     4
 11
1112.3104331024569547
 21
1085.0461301036109489
 31
0.0
  0
TEXT
  5
34F
  8
VOLL
 10
692.7622122825916904
 20
949.4845681750545054
 30
0.0
 40
1.8
  1

  7
GREEKS
  0
TEXT
  5
350
  8
BEM
 10
727.2502771218763655
 20
954.2102924982752938
 30
0.0
 40
2.5
  1

 41
0.8
  7
GREEKS
  0
TEXT
  5
351
  8
BEM
 10
727.2502771218763655
 20
949.5165239442230813
 30
0.0
 40
2.5
  1

 41
0.8
  7
GREEKS
  0
TEXT
  5
352
  8
BEM
 10
727.2502771218763655
 20
944.2786801255596174
 30
0.0
 40
2.5
  1

 41
0.8
  7
GREEKS
  0
TEXT
  5
353
  8
BEM
 10
727.1773326445020302
 20
939.7734911754620271
 30
0.0
 40
1.8
  1

 41
0.8
  7
GREEKS
  0
TEXT
  5
354
  8
TEXT
 10
1024.5944804861849207
 20
955.0428037082801893
 30
0.0
 40
2.5
  1
  
  7
GREEKS
 72
     1
 11
1026.8563852480890546
 21
955.0428037082801893
 31
0.0
  0
TEXT
  5
355
  8
BEM
 10
1268.7141977986671009
 20
1090.6016857386819083
 30
0.0
 40
2.5
  1
 
 72
     4
 11
1269.8451501796189405
 21
1090.6016857386819083
 31
0.0
  0
TEXT
  5
356
  8
VOLL
 10
535.9472242482787578
 20
918.024813704834969
 30
0.0
 40
1.8
  1

  7
GREEKS
  0
TEXT
  5
357
  8
TEXT
 10
867.7794924518717607
 20
923.5830492380606529
 30
0.0
 40
2.5
  1
  
  7
GREEKS
 72
     1
 11
870.0413972137764631
 21
923.5830492380606529
 31
0.0
  0
TEXT
  5
358
  8
BEM
 10
1111.8992097643540546
 20
1059.1419312684629404
 30
0.0
 40
2.5
  1
 
 72
     4
 11
1113.0301621453058942
 21
1059.1419312684629404
 31
0.0
  0
TEXT
  5
359
  8
VOLL
 10
693.4819413254404026
 20
923.5803693399062695
 30
0.0
 40
1.8
  1

  7
GREEKS
  0
TEXT
  5
35A
  8
BEM
 10
727.970006164724964
 20
928.3060936631269442
 30
0.0
 40
2.5
  1

 41
0.8
  7
GREEKS
  0
TEXT
  5
35B
  8
BEM
 10
727.970006164724964
 20
923.6123251090747317
 30
0.0
 40
2.5
  1

 41
0.8
  7
GREEKS
  0
TEXT
  5
35C
  8
BEM
 10
727.970006164724964
 20
918.3744812904111541
 30
0.0
 40
2.5
  1

 41
0.8
  7
GREEKS
  0
TEXT
  5
35D
  8
BEM
 10
727.8970616873506287
 20
913.8692923403136774
 30
0.0
 40
1.8
  1

 41
0.8
  7
GREEKS
  0
TEXT
  5
35E
  8
TEXT
 10
1025.3142095290329507
 20
929.1386048731318397
 30
0.0
 40
2.5
  1
  
  7
GREEKS
 72
     1
 11
1027.5761142909379942
 21
929.1386048731318397
 31
0.0
  0
TEXT
  5
35F
  8
BEM
 10
1269.4339268415149036
 20
1064.6974869035338997
 30
0.0
 40
2.5
  1
 
 72
     4
 11
1270.5648792224669705
 21
1064.6974869035338997
 31
0.0
  0
TEXT
  5
360
  8
BEM
 10
550.0134172680002393
 20
938.2080743618702172
 30
0.0
 40
2.5
  1

  7
GREEKS
  0
TEXT
  5
361
  8
VOLL
 10
535.9472242482787578
 20
918.024813704834969
 30
0.0
 40
1.8
  1

  7
GREEKS
  0
TEXT
  5
362
  8
BEM
 10
570.435289087563433
 20
922.7505380280556437
 30
0.0
 40
2.5
  1

 41
0.8
  7
GREEKS
  0
TEXT
  5
363
  8
BEM
 10
570.435289087563433
 20
918.0567694740035449
 30
0.0
 40
2.5
  1

 41
0.8
  7
GREEKS
  0
TEXT
  5
364
  8
BEM
 10
570.435289087563433
 20
912.818925655340081
 30
0.0
 40
2.5
  1

 41
0.8
  7
GREEKS
  0
TEXT
  5
365
  8
BEM
 10
557.6787737305777455
 20
933.9053258014677112
 30
0.0
 40
2.0
  1

 41
0.8
  7
GREEKS
 72
     1
 11
557.6787737305777455
 21
933.9053258014677112
 31
0.0
  0
TEXT
  5
366
  8
TEXT
 10
867.7794924518717607
 20
923.5830492380606529
 30
0.0
 40
2.5
  1
  
  7
GREEKS
 72
     1
 11
870.0413972137764631
 21
923.5830492380606529
 31
0.0
  0
TEXT
  5
367
  8
BEM
 10
1111.8992097643540546
 20
1059.1419312684629404
 30
0.0
 40
2.5
  1
 
 72
     4
 11
1113.0301621453058942
 21
1059.1419312684629404
 31
0.0
  0
TEXT
  5
368
  8
VOLL
 10
566.1758440479196679
 20
910.8292029172939692
 30
0.0
 40
1.8
  1

  7
GREEKS
  0
TEXT
  5
369
  8
TEXT
 10
898.0081122515127845
 20
916.387438450519312
 30
0.0
 40
2.5
  1
  
  7
GREEKS
 72
     1
 11
900.2700170134176005
 21
916.387438450519312
 31
0.0
  0
TEXT
  5
36A
  8
BEM
 10
1142.1278295639949647
 20
1051.946320480921031
 30
0.0
 40
2.5
  1
 
 72
     4
 11
1143.2587819449470317
 21
1051.946320480921031
 31
0.0
  0
TEXT
  5
36B
  8
BEM
 10
680.6648624260872111
 20
973.7681290180673841
 30
0.0
 40
2.5
  1

  7
GREEKS
  0
TEXT
  5
36C
  8
VOLL
 10
666.5986694063657296
 20
953.584868361032477
 30
0.0
 40
1.8
  1

  7
GREEKS
  0
TEXT
  5
36D
  8
BEM
 10
701.0867342456502911
 20
958.3105926842531517
 30
0.0
 40
2.5
  1

 41
0.8
  7
GREEKS
  0
TEXT
  5
36E
  8
BEM
 10
701.0867342456502911
 20
953.6168241302007118
 30
0.0
 40
2.5
  1

 41
0.8
  7
GREEKS
  0
TEXT
  5
36F
  8
BEM
 10
701.0867342456502911
 20
948.3789803115372479
 30
0.0
 40
2.5
  1

 41
0.8
  7
GREEKS
  0
TEXT
  5
370
  8
BEM
 10
701.0137897682759558
 20
943.8737913614397712
 30
0.0
 40
1.8
  1

 41
0.8
  7
GREEKS
  0
TEXT
  5
371
  8
BEM
 10
688.3302188886647173
 20
969.4653804576648781
 30
0.0
 40
2.0
  1

 41
0.8
  7
GREEKS
 72
     1
 11
688.3302188886647173
 21
969.4653804576648781
 31
0.0
  0
TEXT
  5
372
  8
TEXT
 10
998.4309376099586189
 20
959.1431038942578198
 30
0.0
 40
2.5
  1
  
  7
GREEKS
 72
     1
 11
1000.6928423718629801
 21
959.1431038942578198
 31
0.0
  0
TEXT
  5
373
  8
BEM
 10
1242.5506549224410264
 20
1094.7019859246599935
 30
0.0
 40
2.5
  1
 
 72
     4
 11
1243.6816073033930934
 21
1094.7019859246599935
 31
0.0
  0
TEXT
  5
374
  8
VOLL
 10
282.9311547075417934
 20
320.4744076683641083
 30
0.0
 40
1.8
  1

  7
GREEKS
  0
TEXT
  5
375
  8
VOLL
 10
372.5973286332148859
 20
325.766524384083425
 30
0.0
 40
1.8
  1

  7
GREEKS
  0
TEXT
  5
376
  8
TEXT
 10
704.429596836807832
 20
331.3247599173088815
 30
0.0
 40
2.5
  1
  
  7
GREEKS
 72
     1
 11
706.691501598712648
 21
331.3247599173088815
 31
0.0
  0
TEXT
  5
377
  8
BEM
 10
948.5493141492896711
 20
466.8836419477111122
 30
0.0
 40
2.5
  1
 
 72
     4
 11
949.6802665302420792
 21
466.8836419477111122
 31
0.0
  0
TEXT
  5
378
  8
BEM
 10
514.2386582791392584
 20
349.4032385752448135
 30
0.0
 40
2.5
  1

  7
GREEKS
  0
TEXT
  5
379
  8
VOLL
 10
500.1724652594178906
 20
329.219977918209679
 30
0.0
 40
1.8
  1

  7
GREEKS
  0
TEXT
  5
37A
  8
BEM
 10
534.6605300987024521
 20
333.9457022414302969
 30
0.0
 40
2.5
  1

 41
0.8
  7
GREEKS
  0
TEXT
  5
37B
  8
BEM
 10
534.6605300987024521
 20
329.2519336873780844
 30
0.0
 40
2.5
  1

 41
0.8
  7
GREEKS
  0
TEXT
  5
37C
  8
BEM
 10
534.6605300987024521
 20
324.0140898687146773
 30
0.0
 40
2.5
  1

 41
0.8
  7
GREEKS
  0
TEXT
  5
37D
  8
BEM
 10
534.5875856213281168
 20
319.5089009186169733
 30
0.0
 40
1.8
  1

 41
0.8
  7
GREEKS
  0
TEXT
  5
37E
  8
BEM
 10
521.9040147417168782
 20
345.1004900148423076
 30
0.0
 40
2.0
  1

 41
0.8
  7
GREEKS
 72
     1
 11
521.9040147417168782
 21
345.1004900148423076
 31
0.0
  0
TEXT
  5
37F
  8
TEXT
 10
832.0047334630106661
 20
334.7782134514353061
 30
0.0
 40
2.5
  1
  
  7
GREEKS
 72
     1
 11
834.2666382249155959
 21
334.7782134514353061
 31
0.0
  0
TEXT
  5
380
  8
BEM
 10
1076.12445077549296
 20
470.337095481837423
 30
0.0
 40
2.5
  1
 
 72
     4
 11
1077.255403156445027
 21
470.337095481837423
 31
0.0
  0
TEXT
  5
381
  8
VOLL
 10
424.8892296547031151
 20
336.6714919801988231
 30
0.0
 40
1.8
  1

  7
GREEKS
  0
TEXT
  5
382
  8
TEXT
 10
756.7214978582959475
 20
342.2297275134242796
 30
0.0
 40
2.5
  1
  
  7
GREEKS
 72
     1
 11
758.9834026202008772
 21
342.2297275134242796
 31
0.0
  0
TEXT
  5
383
  8
BEM
 10
1000.841215170778014
 20
477.7886095438266238
 30
0.0
 40
2.5
  1
 
 72
     4
 11
1001.9721675517299673
 21
477.7886095438266238
 31
0.0
  0
TEXT
  5
384
  8
BEM
 10
580.0288318114990034
 20
357.0049028698754228
 30
0.0
 40
2.5
  1

  7
GREEKS
  0
TEXT
  5
385
  8
VOLL
 10
565.9626387917776356
 20
336.8216422128402883
 30
0.0
 40
1.8
  1

  7
GREEKS
  0
TEXT
  5
386
  8
BEM
 10
600.450703631062197
 20
341.5473665360607924
 30
0.0
 40
2.5
  1

 41
0.8
  7
GREEKS
  0
TEXT
  5
387
  8
BEM
 10
600.450703631062197
 20
336.8535979820088073
 30
0.0
 40
2.5
  1

 41
0.8
  7
GREEKS
  0
TEXT
  5
388
  8
BEM
 10
600.450703631062197
 20
331.6157541633451729
 30
0.0
 40
2.5
  1

 41
0.8
  7
GREEKS
  0
TEXT
  5
389
  8
BEM
 10
600.377759153687748
 20
327.1105652132475825
 30
0.0
 40
1.8
  1

 41
0.8
  7
GREEKS
  0
TEXT
  5
38A
  8
BEM
 10
587.6941882740766232
 20
352.7021543094729168
 30
0.0
 40
2.0
  1

 41
0.8
  7
GREEKS
 72
     1
 11
587.6941882740766232
 21
352.7021543094729168
 31
0.0
  0
TEXT
  5
38B
  8
TEXT
 10
897.7949069953705248
 20
342.3798777460659153
 30
0.0
 40
2.5
  1
  
  7
GREEKS
 72
     1
 11
900.0568117572752271
 21
342.3798777460659153
 31
0.0
  0
TEXT
  5
38C
  8
BEM
 10
1141.9146243078519092
 20
477.9387597764679754
 30
0.0
 40
2.5
  1
 
 72
     4
 11
1143.045576688805113
 21
477.9387597764679754
 31
0.0
  0
TEXT
  5
38D
  8
VOLL
 10
360.8670182279466871
 20
324.8557824544503205
 30
0.0
 40
1.8
  1

  7
GREEKS
  0
TEXT
  5
38E
  8
TEXT
 10
692.6992864315394627
 20
330.414017987675777
 30
0.0
 40
2.5
  1
  
  7
GREEKS
 72
     1
 11
694.9611911934443924
 21
330.414017987675777
 31
0.0
  0
TEXT
  5
38F
  8
BEM
 10
936.8190037440216429
 20
465.9729000180781213
 30
0.0
 40
2.5
  1
 
 72
     4
 11
937.9499561249740509
 21
465.9729000180781213
 31
0.0
  0
TEXT
  5
390
  8
BEM
 10
526.2126313075965527
 20
365.009013153035994
 30
0.0
 40
2.5
  1

  7
GREEKS
  0
TEXT
  5
391
  8
VOLL
 10
512.1464382878751849
 20
344.8257524960009164
 30
0.0
 40
1.8
  1

  7
GREEKS
  0
TEXT
  5
392
  8
BEM
 10
546.63450312715986
 20
349.5514768192214774
 30
0.0
 40
2.5
  1

 41
0.8
  7
GREEKS
  0
TEXT
  5
393
  8
BEM
 10
546.63450312715986
 20
344.8577082651693217
 30
0.0
 40
2.5
  1

 41
0.8
  7
GREEKS
  0
TEXT
  5
394
  8
BEM
 10
546.63450312715986
 20
339.6198644465059147
 30
0.0
 40
2.5
  1

 41
0.8
  7
GREEKS
  0
TEXT
  5
395
  8
BEM
 10
546.561558649785411
 20
335.1146754964082106
 30
0.0
 40
1.8
  1

 41
0.8
  7
GREEKS
  0
TEXT
  5
396
  8
BEM
 10
533.8779877701741725
 20
360.7062645926334881
 30
0.0
 40
2.0
  1

 41
0.8
  7
GREEKS
 72
     1
 11
533.8779877701741725
 21
360.7062645926334881
 31
0.0
  0
TEXT
  5
397
  8
TEXT
 10
843.9787064914679604
 20
350.3839880292264866
 30
0.0
 40
2.5
  1
  
  7
GREEKS
 72
     1
 11
846.2406112533728901
 21
350.3839880292264866
 31
0.0
  0
TEXT
  5
398
  8
BEM
 10
1088.0984238039500269
 20
485.9428700596287172
 30
0.0
 40
2.5
  1
 
 72
     4
 11
1089.2293761849020939
 21
485.9428700596287172
 31
0.0
  0
TEXT
  5
399
  8
VOLL
 10
688.448594481057853
 20
329.9742258319528219
 30
0.0
 40
1.8
  1

  7
GREEKS
  0
TEXT
  5
39A
  8
VOLL
 10
778.1147684067310593
 20
335.2663425476721955
 30
0.0
 40
1.8
  1

  7
GREEKS
  0
TEXT
  5
39B
  8
TEXT
 10
1109.9470366103239485
 20
340.8245780808977088
 30
0.0
 40
2.5
  1
  
  7
GREEKS
 72
     1
 11
1112.2089413722280824
 21
340.8245780808977088
 31
0.0
  0
TEXT
  5
39C
  8
BEM
 10
1354.0667539228059013
 20
476.3834601112998257
 30
0.0
 40
2.5
  1
 
 72
     4
 11
1355.1977063037579683
 21
476.3834601112998257
 31
0.0
  0
TEXT
  5
39D
  8
BEM
 10
919.7560980526557159
 20
358.9030567388335839
 30
0.0
 40
2.5
  1

  7
GREEKS
  0
TEXT
  5
39E
  8
VOLL
 10
905.6899050329342344
 20
338.7197960817985063
 30
0.0
 40
1.8
  1

  7
GREEKS
  0
TEXT
  5
39F
  8
BEM
 10
940.1779698722187959
 20
343.4455204050191242
 30
0.0
 40
2.5
  1

 41
0.8
  7
GREEKS
  0
TEXT
  5
3A0
  8
BEM
 10
940.1779698722187959
 20
338.7517518509669117
 30
0.0
 40
2.5
  1

 41
0.8
  7
GREEKS
  0
TEXT
  5
3A1
  8
BEM
 10
940.1779698722187959
 20
333.5139080323035046
 30
0.0
 40
2.5
  1

 41
0.8
  7
GREEKS
  0
TEXT
  5
3A2
  8
BEM
 10
940.1050253948443469
 20
329.0087190822058005
 30
0.0
 40
1.8
  1

 41
0.8
  7
GREEKS
  0
TEXT
  5
3A3
  8
BEM
 10
927.4214545152331084
 20
354.600308178431078
 30
0.0
 40
2.0
  1

 41
0.8
  7
GREEKS
 72
     1
 11
927.4214545152331084
 21
354.600308178431078
 31
0.0
  0
TEXT
  5
3A4
  8
TEXT
 10
1237.5221732365268963
 20
344.2780316150240196
 30
0.0
 40
2.5
  1
  
  7
GREEKS
 72
     1
 11
1239.7840779984319397
 21
344.2780316150240196
 31
0.0
  0
TEXT
  5
3A5
  8
BEM
 10
1481.6418905490090765
 20
479.8369136454261934
 30
0.0
 40
2.5
  1
 
 72
     4
 11
1482.7728429299620529
 21
479.8369136454261934
 31
0.0
  0
TEXT
  5
3A6
  8
VOLL
 10
696.3619091728412513
 20
307.0251529394523118
 30
0.0
 40
1.8
  1

  7
GREEKS
  0
TEXT
  5
3A7
  8
VOLL
 10
786.0280830985144576
 20
312.3172696551715717
 30
0.0
 40
1.8
  1

  7
GREEKS
  0
TEXT
  5
3A8
  8
TEXT
 10
1117.860351302106892
 20
317.8755051883971987
 30
0.0
 40
2.5
  1
  
  7
GREEKS
 72
     1
 11
1120.1222560640119355
 21
317.8755051883971987
 31
0.0
  0
TEXT
  5
3A9
  8
BEM
 10
1361.9800686145890722
 20
453.4343872187993725
 30
0.0
 40
2.5
  1
 
 72
     4
 11
1363.1110209955420487
 21
453.4343872187993725
 31
0.0
  0
TEXT
  5
3AA
  8
BEM
 10
927.6694127444387732
 20
335.953983846333017
 30
0.0
 40
2.5
  1

  7
GREEKS
  0
TEXT
  5
3AB
  8
VOLL
 10
913.6032197247175191
 20
315.7707231892978825
 30
0.0
 40
1.8
  1

  7
GREEKS
  0
TEXT
  5
3AC
  8
BEM
 10
948.0912845640019668
 20
320.4964475125186141
 30
0.0
 40
2.5
  1

 41
0.8
  7
GREEKS
  0
TEXT
  5
3AD
  8
BEM
 10
948.0912845640019668
 20
315.8026789584662879
 30
0.0
 40
2.5
  1

 41
0.8
  7
GREEKS
  0
TEXT
  5
3AE
  8
BEM
 10
948.0912845640019668
 20
310.5648351398028808
 30
0.0
 40
2.5
  1

 41
0.8
  7
GREEKS
  0
TEXT
  5
3AF
  8
BEM
 10
948.0183400866277452
 20
306.0596461897052905
 30
0.0
 40
1.8
  1

 41
0.8
  7
GREEKS
  0
TEXT
  5
3B0
  8
BEM
 10
935.3347692070165067
 20
331.6512352859305111
 30
0.0
 40
2.0
  1

 41
0.8
  7
GREEKS
 72
     1
 11
935.3347692070165067
 21
331.6512352859305111
 31
0.0
  0
TEXT
  5
3B1
  8
TEXT
 10
1245.4354879283100672
 20
321.3289587225235096
 30
0.0
 40
2.5
  1
  
  7
GREEKS
 72
     1
 11
1247.6973926902151106
 21
321.3289587225235096
 31
0.0
  0
TEXT
  5
3B2
  8
BEM
 10
1489.55520524079202
 20
456.8878407529256833
 30
0.0
 40
2.5
  1
 
 72
     4
 11
1490.6861576217449965
 21
456.8878407529256833
 31
0.0
  0
TEXT
  5
3B3
  8
VOLL
 10
838.319984120002573
 20
323.2222372512870834
 30
0.0
 40
1.8
  1

  7
GREEKS
  0
TEXT
  5
3B4
  8
TEXT
 10
1170.1522523235948938
 20
328.7804727845127104
 30
0.0
 40
2.5
  1
  
  7
GREEKS
 72
     1
 11
1172.4141570854999372
 21
328.7804727845127104
 31
0.0
  0
TEXT
  5
3B5
  8
BEM
 10
1414.2719696360779835
 20
464.3393548149147136
 30
0.0
 40
2.5
  1
 
 72
     4
 11
1415.4029220170300505
 21
464.3393548149147136
 31
0.0
  0
TEXT
  5
3B6
  8
BEM
 10
993.4595862767986318
 20
343.5556481409636262
 30
0.0
 40
2.5
  1

  7
GREEKS
  0
TEXT
  5
3B7
  8
VOLL
 10
979.3933932570771503
 20
323.3723874839284917
 30
0.0
 40
1.8
  1

  7
GREEKS
  0
TEXT
  5
3B8
  8
BEM
 10
1013.8814580963610297
 20
328.0981118071492233
 30
0.0
 40
2.5
  1

 41
0.8
  7
GREEKS
  0
TEXT
  5
3B9
  8
BEM
 10
1013.8814580963610297
 20
323.4043432530968971
 30
0.0
 40
2.5
  1

 41
0.8
  7
GREEKS
  0
TEXT
  5
3BA
  8
BEM
 10
1013.8814580963610297
 20
318.16649943443349
 30
0.0
 40
2.5
  1

 41
0.8
  7
GREEKS
  0
TEXT
  5
3BB
  8
BEM
 10
1013.8085136189870354
 20
313.661310484335786
 30
0.0
 40
1.8
  1

 41
0.8
  7
GREEKS
  0
TEXT
  5
3BC
  8
BEM
 10
1001.1249427393760243
 20
339.2528995805611203
 30
0.0
 40
2.0
  1

 41
0.8
  7
GREEKS
 72
     1
 11
1001.1249427393760243
 21
339.2528995805611203
 31
0.0
  0
TEXT
  5
3BD
  8
TEXT
 10
1311.2256614606699259
 20
328.9306230171541188
 30
0.0
 40
2.5
  1
  
  7
GREEKS
 72
     1
 11
1313.4875662225749693
 21
328.9306230171541188
 31
0.0
  0
TEXT
  5
3BE
  8
BEM
 10
1555.3453787731521061
 20
464.4895050475561789
 30
0.0
 40
2.5
  1
 
 72
     4
 11
1556.4763311541039457
 21
464.4895050475561789
 31
0.0
  0
TEXT
  5
3BF
  8
VOLL
 10
468.9371244331185267
 20
517.8844667310928571
 30
0.0
 40
1.8
  1

  7
GREEKS
  0
TEXT
  5
3C0
  8
VOLL
 10
558.6032983587914487
 20
523.1765834468122875
 30
0.0
 40
1.8
  1

  7
GREEKS
  0
TEXT
  5
3C1
  8
TEXT
 10
890.4355665623845653
 20
528.734818980037744
 30
0.0
 40
2.5
  1
  
  7
GREEKS
 72
     1
 11
892.6974713242892676
 21
528.734818980037744
 31
0.0
  0
TEXT
  5
3C2
  8
BEM
 10
1134.5552838748669728
 20
664.2937010104400315
 30
0.0
 40
2.5
  1
 
 72
     4
 11
1135.6862362558190398
 21
664.2937010104400315
 31
0.0
  0
TEXT
  5
3C3
  8
BEM
 10
700.2446280047161054
 20
546.8132976379737329
 30
0.0
 40
2.5
  1

  7
GREEKS
  0
TEXT
  5
3C4
  8
VOLL
 10
686.1784349849947375
 20
526.6300369809384847
 30
0.0
 40
1.8
  1

  7
GREEKS
  0
TEXT
  5
3C5
  8
BEM
 10
720.666499824279299
 20
531.3557613041591594
 30
0.0
 40
2.5
  1

 41
0.8
  7
GREEKS
  0
TEXT
  5
3C6
  8
BEM
 10
720.666499824279299
 20
526.6619927501069469
 30
0.0
 40
2.5
  1

 41
0.8
  7
GREEKS
  0
TEXT
  5
3C7
  8
BEM
 10
720.666499824279299
 20
521.4241489314435967
 30
0.0
 40
2.5
  1

 41
0.8
  7
GREEKS
  0
TEXT
  5
3C8
  8
BEM
 10
720.59355534690485
 20
516.9189599813457789
 30
0.0
 40
1.8
  1

 41
0.8
  7
GREEKS
  0
TEXT
  5
3C9
  8
BEM
 10
707.9099844672937252
 20
542.5105490775712269
 30
0.0
 40
2.0
  1

 41
0.8
  7
GREEKS
 72
     1
 11
707.9099844672937252
 21
542.5105490775712269
 31
0.0
  0
TEXT
  5
3CA
  8
TEXT
 10
1018.0107031885869446
 20
532.1882725141640549
 30
0.0
 40
2.5
  1
  
  7
GREEKS
 72
     1
 11
1020.272607950491988
 21
532.1882725141640549
 31
0.0
  0
TEXT
  5
3CB
  8
BEM
 10
1262.1304205010690112
 20
667.7471545445663423
 30
0.0
 40
2.5
  1
 
 72
     4
 11
1263.2613728820219876
 21
667.7471545445663423
 31
0.0
  0
TEXT
  5
3CC
  8
VOLL
 10
610.8951993802796778
 20
534.0815510429275719
 30
0.0
 40
1.8
  1

  7
GREEKS
  0
TEXT
  5
3CD
  8
TEXT
 10
942.7274675838726807
 20
539.6397865761532557
 30
0.0
 40
2.5
  1
  
  7
GREEKS
 72
     1
 11
944.9893723457776105
 21
539.6397865761532557
 31
0.0
  0
TEXT
  5
3CE
  8
BEM
 10
1186.8471848963549746
 20
675.1986686065555432
 30
0.0
 40
2.5
  1
 
 72
     4
 11
1187.9781372773070416
 21
675.1986686065555432
 31
0.0
  0
TEXT
  5
3CF
  8
BEM
 10
766.0348015370757366
 20
554.4149619326043421
 30
0.0
 40
2.5
  1

  7
GREEKS
  0
TEXT
  5
3D0
  8
VOLL
 10
751.9686085173542551
 20
534.2317012755692076
 30
0.0
 40
1.8
  1

  7
GREEKS
  0
TEXT
  5
3D1
  8
BEM
 10
786.4566733566389303
 20
538.9574255987897686
 30
0.0
 40
2.5
  1

 41
0.8
  7
GREEKS
  0
TEXT
  5
3D2
  8
BEM
 10
786.4566733566389303
 20
534.2636570447376698
 30
0.0
 40
2.5
  1

 41
0.8
  7
GREEKS
  0
TEXT
  5
3D3
  8
BEM
 10
786.4566733566389303
 20
529.0258132260739785
 30
0.0
 40
2.5
  1

 41
0.8
  7
GREEKS
  0
TEXT
  5
3D4
  8
BEM
 10
786.3837288792644813
 20
524.5206242759763882
 30
0.0
 40
1.8
  1

 41
0.8
  7
GREEKS
  0
TEXT
  5
3D5
  8
BEM
 10
773.7001579996533565
 20
550.1122133722018361
 30
0.0
 40
2.0
  1

 41
0.8
  7
GREEKS
 72
     1
 11
773.7001579996533565
 21
550.1122133722018361
 31
0.0
  0
TEXT
  5
3D6
  8
TEXT
 10
1083.800876720946917
 20
539.7899368087946641
 30
0.0
 40
2.5
  1
  
  7
GREEKS
 72
     1
 11
1086.0627814828519604
 21
539.7899368087946641
 31
0.0
  0
TEXT
  5
3D7
  8
BEM
 10
1327.9205940334290972
 20
675.3488188391969516
 30
0.0
 40
2.5
  1
 
 72
     4
 11
1329.0515464143809368
 21
675.3488188391969516
 31
0.0
  0
TEXT
  5
3D8
  8
VOLL
 10
546.8729879535234204
 20
522.265841517179183
 30
0.0
 40
1.8
  1

  7
GREEKS
  0
TEXT
  5
3D9
  8
TEXT
 10
878.7052561571163096
 20
527.8240770504047532
 30
0.0
 40
2.5
  1
  
  7
GREEKS
 72
     1
 11
880.967160919021012
 21
527.8240770504047532
 31
0.0
  0
TEXT
  5
3DA
  8
BEM
 10
1122.8249734695980351
 20
663.3829590808070407
 30
0.0
 40
2.5
  1
 
 72
     4
 11
1123.9559258505510115
 21
663.3829590808070407
 31
0.0
  0
TEXT
  5
3DB
  8
BEM
 10
712.2186010331732859
 20
562.4190722157647997
 30
0.0
 40
2.5
  1

  7
GREEKS
  0
TEXT
  5
3DC
  8
VOLL
 10
698.1524080134519181
 20
542.2358115587296652
 30
0.0
 40
1.8
  1

  7
GREEKS
  0
TEXT
  5
3DD
  8
BEM
 10
732.6404728527364796
 20
546.9615358819503399
 30
0.0
 40
2.5
  1

 41
0.8
  7
GREEKS
  0
TEXT
  5
3DE
  8
BEM
 10
732.6404728527364796
 20
542.2677673278982411
 30
0.0
 40
2.5
  1

 41
0.8
  7
GREEKS
  0
TEXT
  5
3DF
  8
BEM
 10
732.6404728527364796
 20
537.0299235092346635
 30
0.0
 40
2.5
  1

 41
0.8
  7
GREEKS
  0
TEXT
  5
3E0
  8
BEM
 10
732.5675283753621443
 20
532.5247345591369594
 30
0.0
 40
1.8
  1

 41
0.8
  7
GREEKS
  0
TEXT
  5
3E1
  8
BEM
 10
719.8839574957509058
 20
558.1163236553622937
 30
0.0
 40
2.0
  1

 41
0.8
  7
GREEKS
 72
     1
 11
719.8839574957509058
 21
558.1163236553622937
 31
0.0
  0
TEXT
  5
3E2
  8
TEXT
 10
1029.9846762170450347
 20
547.7940470919553491
 30
0.0
 40
2.5
  1
  
  7
GREEKS
 72
     1
 11
1032.2465809789500781
 21
547.7940470919553491
 31
0.0
  0
TEXT
  5
3E3
  8
BEM
 10
1274.1043935295269875
 20
683.3529291223575228
 30
0.0
 40
2.5
  1
 
 72
     4
 11
1275.2353459104790545
 21
683.3529291223575228
 31
0.0
  0
TEXT
  5
3E4
  8
VOLL
 10
330.2300532175565877
 20
506.0703765974071189
 30
0.0
 40
1.8
  1

  7
GREEKS
  0
TEXT
  5
3E5
  8
TEXT
 10
662.0623214211494769
 20
511.6286121306325754
 30
0.0
 40
2.5
  1
  
  7
GREEKS
 72
     1
 11
664.324226183054293
 21
511.6286121306325754
 31
0.0
  0
TEXT
  5
3E6
  8
BEM
 10
906.1820387336315434
 20
647.1874941610349197
 30
0.0
 40
2.5
  1
 
 72
     4
 11
907.3129911145839515
 21
647.1874941610349197
 31
0.0
  0
TEXT
  5
3E7
  8
VOLL
 10
487.7647702947181756
 20
511.6259322324784193
 30
0.0
 40
1.8
  1

  7
GREEKS
  0
TEXT
  5
3E8
  8
BEM
 10
522.2528351340026802
 20
516.3516565556989235
 30
0.0
 40
2.5
  1

 41
0.8
  7
GREEKS
  0
TEXT
  5
3E9
  8
BEM
 10
522.2528351340026802
 20
511.6578880016468247
 30
0.0
 40
2.5
  1

 41
0.8
  7
GREEKS
  0
TEXT
  5
3EA
  8
BEM
 10
522.2528351340026802
 20
506.4200441829831902
 30
0.0
 40
2.5
  1

 41
0.8
  7
GREEKS
  0
TEXT
  5
3EB
  8
BEM
 10
522.1798906566283449
 20
501.9148552328855999
 30
0.0
 40
1.8
  1

 41
0.8
  7
GREEKS
  0
TEXT
  5
3EC
  8
TEXT
 10
819.5970384983111217
 20
517.1841677657039327
 30
0.0
 40
2.5
  1
  
  7
GREEKS
 72
     1
 11
821.8589432602160514
 21
517.1841677657039327
 31
0.0
  0
TEXT
  5
3ED
  8
BEM
 10
1063.7167558107930745
 20
652.7430497961061064
 30
0.0
 40
2.5
  1
 
 72
     4
 11
1064.8477081917449141
 21
652.7430497961061064
 31
0.0
  0
TEXT
  5
3EE
  8
VOLL
 10
1418.6635288290499375
 20
202.4929116160639069
 30
0.0
 40
1.8
  1

  7
GREEKS
  0
TEXT
  5
3EF
  8
TEXT
 10
1750.4957970326420309
 20
208.0511471492895055
 30
0.0
 40
2.5
  1
  
  7
GREEKS
 72
     1
 11
1752.7577017945470743
 21
208.0511471492895055
 31
0.0
  0
TEXT
  5
3F0
  8
BEM
 10
1994.6155143451248932
 20
343.6100291796917077
 30
0.0
 40
2.5
  1
 
 72
     4
 11
1995.7464667260769602
 21
343.6100291796917077
 31
0.0
  0
TEXT
  5
405
  8
BEM
 10
1533.1525472072169123
 20
265.431837716837606
 30
0.0
 40
2.5
  1

  7
GREEKS
  0
TEXT
  5
406
  8
VOLL
 10
1519.0863541874950897
 20
245.2485770598023862
 30
0.0
 40
1.8
  1

  7
GREEKS
  0
TEXT
  5
407
  8
BEM
 10
1553.5744190267801059
 20
249.9743013830230041
 30
0.0
 40
2.5
  1

 41
0.8
  7
GREEKS
  0
TEXT
  5
408
  8
BEM
 10
1553.5744190267801059
 20
245.2805328289709053
 30
0.0
 40
2.5
  1

 41
0.8
  7
GREEKS
  0
TEXT
  5
409
  8
BEM
 10
1553.5744190267801059
 20
240.0426890103074129
 30
0.0
 40
2.5
  1

 41
0.8
  7
GREEKS
  0
TEXT
  5
40A
  8
BEM
 10
1553.5014745494061117
 20
235.5375000602097941
 30
0.0
 40
1.8
  1

 41
0.8
  7
GREEKS
  0
TEXT
  5
40B
  8
BEM
 10
1540.8179036697949869
 20
261.1290891564351
 30
0.0
 40
2.0
  1

 41
0.8
  7
GREEKS
 72
     1
 11
1540.8179036697949869
 21
261.1290891564351
 31
0.0
  0
TEXT
  5
40C
  8
TEXT
 10
1850.9186223910880926
 20
250.8068125930280132
 30
0.0
 40
2.5
  1
  
  7
GREEKS
 72
     1
 11
1853.1805271529929087
 21
250.8068125930280132
 31
0.0
  0
TEXT
  5
40D
  8
BEM
 10
2095.0383397035711823
 20
386.3656946234302154
 30
0.0
 40
2.5
  1
 
 72
     4
 11
2096.1692920845230219
 21
386.3656946234302154
 31
0.0
  0
TEXT
  5
418
  8
VOLL
 10
1485.0058248726190868
 20
746.2735141508699144
 30
0.0
 40
1.8
  1

  7
GREEKS
  0
TEXT
  5
419
  8
TEXT
 10
1816.8380930762120897
 20
751.8317496840953709
 30
0.0
 40
2.5
  1
  
  7
GREEKS
 72
     1
 11
1819.0999978381169058
 21
751.8317496840953709
 31
0.0
  0
TEXT
  5
41A
  8
BEM
 10
2060.9578103886938152
 20
887.3906317144975446
 30
0.0
 40
2.5
  1
 
 72
     4
 11
2062.0887627696461095
 21
887.3906317144975446
 31
0.0
  0
TEXT
  5
41B
  8
BEM
 10
1640.1454270294150319
 20
766.6069250405463436
 30
0.0
 40
2.5
  1

  7
GREEKS
  0
TEXT
  5
41C
  8
VOLL
 10
1626.079234009692982
 20
746.4236643835113227
 30
0.0
 40
1.8
  1

  7
GREEKS
  0
TEXT
  5
41D
  8
BEM
 10
1660.5672988489779982
 20
751.1493887067318838
 30
0.0
 40
2.5
  1

 41
0.8
  7
GREEKS
  0
TEXT
  5
41E
  8
BEM
 10
1660.5672988489779982
 20
746.4556201526796713
 30
0.0
 40
2.5
  1

 41
0.8
  7
GREEKS
  0
TEXT
  5
41F
  8
BEM
 10
1660.5672988489779982
 20
741.217776334016321
 30
0.0
 40
2.5
  1

 41
0.8
  7
GREEKS
  0
TEXT
  5
420
  8
BEM
 10
1660.4943543716030945
 20
736.7125873839187307
 30
0.0
 40
1.8
  1

 41
0.8
  7
GREEKS
  0
TEXT
  5
421
  8
BEM
 10
1647.8107834919919696
 20
762.3041764801439513
 30
0.0
 40
2.0
  1

 41
0.8
  7
GREEKS
 72
     1
 11
1647.8107834919919696
 21
762.3041764801439513
 31
0.0
  0
TEXT
  5
422
  8
TEXT
 10
1957.9115022132859849
 20
751.9818999167368929
 30
0.0
 40
2.5
  1
  
  7
GREEKS
 72
     1
 11
1960.1734069751910283
 21
751.9818999167368929
 31
0.0
  0
TEXT
  5
423
  8
BEM
 10
2202.0312195257679377
 20
887.5407819471390667
 30
0.0
 40
2.5
  1
 
 72
     4
 11
2203.1621719067211416
 21
887.5407819471390667
 31
0.0
  0
TEXT
  5
424
  8
VOLL
 10
1580.8973735250369828
 20
903.2177704595892465
 30
0.0
 40
1.8
  1

  7
GREEKS
  0
TEXT
  5
425
  8
TEXT
 10
1912.7296417286299857
 20
908.7760059928148166
 30
0.0
 40
2.5
  1
  
  7
GREEKS
 72
     1
 11
1914.9915464905350291
 21
908.7760059928148166
 31
0.0
  0
TEXT
  5
426
  8
BEM
 10
2156.8493590411130754
 20
1044.3348880232169904
 30
0.0
 40
2.5
  1
 
 72
     4
 11
2157.980311422064915
 21
1044.3348880232169904
 31
0.0
  0
TEXT
  5
427
  8
VOLL
 10
1738.4320906021989686
 20
908.7733260946604332
 30
0.0
 40
1.8
  1

  7
GREEKS
  0
TEXT
  5
428
  8
BEM
 10
1772.9201554414839848
 20
913.4990504178809942
 30
0.0
 40
2.5
  1

 41
0.8
  7
GREEKS
  0
TEXT
  5
429
  8
BEM
 10
1772.9201554414839848
 20
908.8052818638287818
 30
0.0
 40
2.5
  1

 41
0.8
  7
GREEKS
  0
TEXT
  5
42A
  8
BEM
 10
1772.9201554414839848
 20
903.5674380451654315
 30
0.0
 40
2.5
  1

 41
0.8
  7
GREEKS
  0
TEXT
  5
42B
  8
BEM
 10
1772.847210964109081
 20
899.0622490950677275
 30
0.0
 40
1.8
  1

 41
0.8
  7
GREEKS
  0
TEXT
  5
42C
  8
TEXT
 10
2070.2643588057921988
 20
914.3315616278860034
 30
0.0
 40
2.5
  1
  
  7
GREEKS
 72
     1
 11
2072.5262635676967875
 21
914.3315616278860034
 31
0.0
  0
TEXT
  5
42D
  8
BEM
 10
2314.3840761182741517
 20
1049.8904436582879498
 30
0.0
 40
2.5
  1
 
 72
     4
 11
2315.5150284992259913
 21
1049.8904436582879498
 31
0.0
  0
TEXT
  5
42E
  8
VOLL
 10
1580.0049787188359005
 20
925.3457901276759685
 30
0.0
 40
1.8
  1

  7
GREEKS
  0
TEXT
  5
42F
  8
TEXT
 10
1911.8372469224289034
 20
930.9040256609016524
 30
0.0
 40
2.5
  1
  
  7
GREEKS
 72
     1
 11
1914.0991516843339468
 21
930.9040256609016524
 31
0.0
  0
TEXT
  5
430
  8
BEM
 10
2155.9569642349119931
 20
1066.4629076913040535
 30
0.0
 40
2.5
  1
 
 72
     4
 11
2157.0879166158638327
 21
1066.4629076913040535
 31
0.0
  0
TEXT
  5
431
  8
BEM
 10
1745.3505917984869029
 20
965.4990208262616989
 30
0.0
 40
2.5
  1

  7
GREEKS
  0
TEXT
  5
432
  8
VOLL
 10
1731.2843987787650804
 20
945.3157601692265644
 30
0.0
 40
1.8
  1

  7
GREEKS
  0
TEXT
  5
433
  8
BEM
 10
1765.7724636180500966
 20
950.0414844924472391
 30
0.0
 40
2.5
  1

 41
0.8
  7
GREEKS
  0
TEXT
  5
434
  8
BEM
 10
1765.7724636180500966
 20
945.3477159383950266
 30
0.0
 40
2.5
  1

 41
0.8
  7
GREEKS
  0
TEXT
  5
435
  8
BEM
 10
1765.7724636180500966
 20
940.1098721197315626
 30
0.0
 40
2.5
  1

 41
0.8
  7
GREEKS
  0
TEXT
  5
436
  8
BEM
 10
1765.6995191406749655
 20
935.6046831696338586
 30
0.0
 40
1.8
  1

 41
0.8
  7
GREEKS
  0
TEXT
  5
437
  8
BEM
 10
1753.015948261064068
 20
961.1962722658591929
 30
0.0
 40
2.0
  1

 41
0.8
  7
GREEKS
 72
     1
 11
1753.015948261064068
 21
961.1962722658591929
 31
0.0
  0
TEXT
  5
438
  8
TEXT
 10
2063.1166669823578559
 20
950.8739957024522482
 30
0.0
 40
2.5
  1
  
  7
GREEKS
 72
     1
 11
2065.3785717442619898
 21
950.8739957024522482
 31
0.0
  0
TEXT
  5
439
  8
BEM
 10
2307.2363842948398087
 20
1086.4328777328539672
 30
0.0
 40
2.5
  1
 
 72
     4
 11
2308.3673366757921031
 21
1086.4328777328539672
 31
0.0
  0
TEXT
  5
43A
  8
VOLL
 10
1532.502861359974986
 20
972.1172606843140329
 30
0.0
 40
1.8
  1

  7
GREEKS
  0
TEXT
  5
43B
  8
TEXT
 10
1864.3351295635670795
 20
977.6754962175394894
 30
0.0
 40
2.5
  1
  
  7
GREEKS
 72
     1
 11
1866.5970343254718955
 21
977.6754962175394894
 31
0.0
  0
TEXT
  5
43C
  8
BEM
 10
2108.4548468760499418
 20
1113.2343782479420042
 30
0.0
 40
2.5
  1
 
 72
     4
 11
2109.5857992570017814
 21
1113.2343782479420042
 31
0.0
  0
TEXT
  5
43D
  8
VOLL
 10
1690.0375784371360623
 20
977.672816319385106
 30
0.0
 40
1.8
  1

  7
GREEKS
  0
TEXT
  5
43E
  8
BEM
 10
1724.5256432764210786
 20
982.3985406426058944
 30
0.0
 40
2.5
  1

 41
0.8
  7
GREEKS
  0
TEXT
  5
43F
  8
BEM
 10
1724.5256432764210786
 20
977.7047720885536819
 30
0.0
 40
2.5
  1

 41
0.8
  7
GREEKS
  0
TEXT
  5
440
  8
BEM
 10
1724.5256432764210786
 20
972.466928269890218
 30
0.0
 40
2.5
  1

 41
0.8
  7
GREEKS
  0
TEXT
  5
441
  8
BEM
 10
1724.4526987990459475
 20
967.9617393197926276
 30
0.0
 40
1.8
  1

 41
0.8
  7
GREEKS
  0
TEXT
  5
442
  8
TEXT
 10
2021.8698466407290653
 20
983.2310518526107899
 30
0.0
 40
2.5
  1
  
  7
GREEKS
 72
     1
 11
2024.1317514026341087
 21
983.2310518526107899
 31
0.0
  0
TEXT
  5
443
  8
BEM
 10
2265.9895639532119276
 20
1118.7899338830129636
 30
0.0
 40
2.5
  1
 
 72
     4
 11
2267.1205163341642219
 21
1118.7899338830129636
 31
0.0
  0
TEXT
  5
444
  8
VOLL
 10
1533.2225904028230161
 20
946.2130618491655696
 30
0.0
 40
1.8
  1

  7
GREEKS
  0
TEXT
  5
445
  8
TEXT
 10
1865.054858606416019
 20
951.7712973823912534
 30
0.0
 40
2.5
  1
  
  7
GREEKS
 72
     1
 11
1867.3167633683210624
 21
951.7712973823912534
 31
0.0
  0
TEXT
  5
446
  8
BEM
 10
2109.1745759188979719
 20
1087.3301794127930862
 30
0.0
 40
2.5
  1
 
 72
     4
 11
2110.3055282998498114
 21
1087.3301794127930862
 31
0.0
  0
TEXT
  5
447
  8
VOLL
 10
1690.7573074799850019
 20
951.76861748423687
 30
0.0
 40
1.8
  1

  7
GREEKS
  0
TEXT
  5
448
  8
BEM
 10
1725.2453723192691086
 20
956.4943418074575447
 30
0.0
 40
2.5
  1

 41
0.8
  7
GREEKS
  0
TEXT
  5
449
  8
BEM
 10
1725.2453723192691086
 20
951.8005732534053323
 30
0.0
 40
2.5
  1

 41
0.8
  7
GREEKS
  0
TEXT
  5
44A
  8
BEM
 10
1725.2453723192691086
 20
946.5627294347417546
 30
0.0
 40
2.5
  1

 41
0.8
  7
GREEKS
  0
TEXT
  5
44B
  8
BEM
 10
1725.172427841894887
 20
942.057540484644278
 30
0.0
 40
1.8
  1

 41
0.8
  7
GREEKS
  0
TEXT
  5
44C
  8
TEXT
 10
2022.5895756835780048
 20
957.3268530174624402
 30
0.0
 40
2.5
  1
  
  7
GREEKS
 72
     1
 11
2024.8514804454819114
 21
957.3268530174624402
 31
0.0
  0
TEXT
  5
44D
  8
BEM
 10
2266.7092929960599577
 20
1092.885735047864955
 30
0.0
 40
2.5
  1
 
 72
     4
 11
2267.8402453770117972
 21
1092.885735047864955
 31
0.0
  0
TEXT
  5
44E
  8
BEM
 10
1547.2887834225439292
 20
966.3963225062008178
 30
0.0
 40
2.5
  1

  7
GREEKS
  0
TEXT
  5
44F
  8
VOLL
 10
1533.2225904028230161
 20
946.2130618491655696
 30
0.0
 40
1.8
  1

  7
GREEKS
  0
TEXT
  5
450
  8
BEM
 10
1567.7106552421080323
 20
950.9387861723862443
 30
0.0
 40
2.5
  1

 41
0.8
  7
GREEKS
  0
TEXT
  5
451
  8
BEM
 10
1567.7106552421080323
 20
946.2450176183341455
 30
0.0
 40
2.5
  1

 41
0.8
  7
GREEKS
  0
TEXT
  5
452
  8
BEM
 10
1567.7106552421080323
 20
941.0071737996706815
 30
0.0
 40
2.5
  1

 41
0.8
  7
GREEKS
  0
TEXT
  5
453
  8
BEM
 10
1554.9541398851220038
 20
962.0935739457983118
 30
0.0
 40
2.0
  1

 41
0.8
  7
GREEKS
 72
     1
 11
1554.9541398851220038
 21
962.0935739457983118
 31
0.0
  0
TEXT
  5
454
  8
TEXT
 10
1865.054858606416019
 20
951.7712973823912534
 30
0.0
 40
2.5
  1
  
  7
GREEKS
 72
     1
 11
1867.3167633683210624
 21
951.7712973823912534
 31
0.0
  0
TEXT
  5
455
  8
BEM
 10
2109.1745759188979719
 20
1087.3301794127930862
 30
0.0
 40
2.5
  1
 
 72
     4
 11
2110.3055282998498114
 21
1087.3301794127930862
 31
0.0
  0
TEXT
  5
456
  8
VOLL
 10
1563.4512102024639262
 20
939.0174510616245698
 30
0.0
 40
1.8
  1

  7
GREEKS
  0
TEXT
  5
457
  8
TEXT
 10
1895.2834784060569291
 20
944.5756865948499126
 30
0.0
 40
2.5
  1
  
  7
GREEKS
 72
     1
 11
1897.5453831679619725
 21
944.5756865948499126
 31
0.0
  0
TEXT
  5
458
  8
BEM
 10
2139.4031957185388819
 20
1080.1345686252520863
 30
0.0
 40
2.5
  1
 
 72
     4
 11
2140.5341480994920857
 21
1080.1345686252520863
 31
0.0
  0
TEXT
  5
459
  8
BEM
 10
1677.9402285806320378
 20
1001.9563771623979846
 30
0.0
 40
2.5
  1

  7
GREEKS
  0
TEXT
  5
45A
  8
VOLL
 10
1663.8740355609099879
 20
981.7731165053630775
 30
0.0
 40
1.8
  1

  7
GREEKS
  0
TEXT
  5
45B
  8
BEM
 10
1698.3621004001950041
 20
986.4988408285837522
 30
0.0
 40
2.5
  1

 41
0.8
  7
GREEKS
  0
TEXT
  5
45C
  8
BEM
 10
1698.3621004001950041
 20
981.8050722745313124
 30
0.0
 40
2.5
  1

 41
0.8
  7
GREEKS
  0
TEXT
  5
45D
  8
BEM
 10
1698.3621004001950041
 20
976.5672284558678484
 30
0.0
 40
2.5
  1

 41
0.8
  7
GREEKS
  0
TEXT
  5
45E
  8
BEM
 10
1698.2891559228201004
 20
972.0620395057703718
 30
0.0
 40
1.8
  1

 41
0.8
  7
GREEKS
  0
TEXT
  5
45F
  8
BEM
 10
1685.6055850432089755
 20
997.6536286019954787
 30
0.0
 40
2.0
  1

 41
0.8
  7
GREEKS
 72
     1
 11
1685.6055850432089755
 21
997.6536286019954787
 31
0.0
  0
TEXT
  5
460
  8
TEXT
 10
1995.7063037645029908
 20
987.331352038588534
 30
0.0
 40
2.5
  1
  
  7
GREEKS
 72
     1
 11
1997.9682085264080342
 21
987.331352038588534
 31
0.0
  0
TEXT
  5
461
  8
BEM
 10
2239.8260210769849436
 20
1122.8902340689910488
 30
0.0
 40
2.5
  1
 
 72
     4
 11
2240.9569734579367832
 21
1122.8902340689910488
 31
0.0
  0
TEXT
  5
795
  8
VOLL
 10
256.404788514084828
 20
437.7777790093584258
 30
0.0
 40
1.8
  1

  7
GREEKS
  0
INSERT
  5
F50
  8
0
  2
A$C5FAF7E81
 10
0.0
 20
0.0
 30
0.0
  0
INSERT
  5
F8F
  8
0
  2
A$C64C742FB
 10
-0.0000000000006431
 20
130.4883720011717116
 30
0.0
  0
VIEWPORT
  5
BAE
 67
     1
  8
0
 10
5.8221873609841266
 20
3.6530227860820279
 30
0.0
 40
14.3251668468273294
 41
7.6090574564381264
 68
     1
 69
     1
1001
ACAD
1000
MVIEW
1002
{
1070
    16
1010
0.0
1020
0.0
1030
0.0
1010
0.0
1020
0.0
1030
1.0
1040
0.0
1040
7.6090574564381264
1040
5.8221873609841266
1040
3.6530227860820279
1040
50.0
1040
0.0
1040
0.0
1070
     0
1070
  1500
1070
     1
1070
     1
1070
     0
1070
     0
1070
     0
1070
     0
1040
0.0
1040
0.0
1040
0.0
1040
10.0
1040
10.0
1040
10.0
1040
10.0
1070
     0
1002
{
1002
}
1002
}
  0
ENDSEC
  0
EOF
