  0
SECTION
  2
HEADER
  9
$ACADVER
  1
AC1009
  9
$INSBASE
 10
0.0
 20
0.0
 30
0.0
  9
$EXTMIN
 10
892.1802029767703743
 20
312.4821513006355076
 30
-51.4952254271768695
  9
$EXTMAX
 10
1672.4618604144279743
 20
830.7084382844077481
 30
-51.4862925541099798
  9
$LIMMIN
 10
0.0
 20
0.0
  9
$LIMMAX
 10
420.0
 20
297.0
  9
$ORTHOMODE
 70
     1
  9
$REGENMODE
 70
     1
  9
$FILLMODE
 70
     1
  9
$QTEXTMODE
 70
     0
  9
$MIRRTEXT
 70
     1
  9
$DRAGMODE
 70
     2
  9
$LTSCALE
 40
10.0
  9
$OSMODE
 70
  2495
  9
$ATTMODE
 70
     1
  9
$TEXTSIZE
 40
3.5
  9
$TRACEWID
 40
1.0
  9
$TEXTSTYLE
  7
STANDARD
  9
$CLAYER
  8
0
  9
$CELTYPE
  6
BYLAYER
  9
$CECOLOR
 62
   256
  9
$DIMSCALE
 40
1.0
  9
$DIMASZ
 40
3.5
  9
$DIMEXO
 40
1.0
  9
$DIMDLI
 40
7.0
  9
$DIMRND
 40
0.0
  9
$DIMDLE
 40
0.0
  9
$DIMEXE
 40
1.0
  9
$DIMTP
 40
0.0
  9
$DIMTM
 40
0.0
  9
$DIMTXT
 40
3.5
  9
$DIMCEN
 40
1.5
  9
$DIMTSZ
 40
0.0
  9
$DIMTOL
 70
     0
  9
$DIMLIM
 70
     0
  9
$DIMTIH
 70
     0
  9
$DIMTOH
 70
     0
  9
$DIMSE1
 70
     0
  9
$DIMSE2
 70
     0
  9
$DIMTAD
 70
     1
  9
$DIMZIN
 70
     8
  9
$DIMBLK
  1

  9
$DIMASO
 70
     1
  9
$DIMSHO
 70
     0
  9
$DIMPOST
  1

  9
$DIMAPOST
  1

  9
$DIMALT
 70
     0
  9
$DIMALTD
 70
     2
  9
$DIMALTF
 40
25.3999999999999986
  9
$DIMLFAC
 40
1.0
  9
$DIMTOFL
 70
     1
  9
$DIMTVP
 40
0.0
  9
$DIMTIX
 70
     0
  9
$DIMSOXD
 70
     0
  9
$DIMSAH
 70
     0
  9
$DIMBLK1
  1

  9
$DIMBLK2
  1

  9
$DIMSTYLE
  2
STANDARD
  9
$DIMCLRD
 70
     0
  9
$DIMCLRE
 70
     0
  9
$DIMCLRT
 70
     1
  9
$DIMTFAC
 40
0.5142857142857143
  9
$DIMGAP
 40
1.5
  9
$LUNITS
 70
     2
  9
$LUPREC
 70
     2
  9
$SKETCHINC
 40
1.0
  9
$FILLETRAD
 40
0.0
  9
$AUNITS
 70
     0
  9
$AUPREC
 70
     0
  9
$MENU
  1
ACAD
  9
$ELEVATION
 40
0.0
  9
$PELEVATION
 40
0.0
  9
$THICKNESS
 40
0.0
  9
$LIMCHECK
 70
     0
  9
$BLIPMODE
 70
     0
  9
$CHAMFERA
 40
0.0
  9
$CHAMFERB
 40
0.0
  9
$SKPOLY
 70
     0
  9
$TDCREATE
 40
2455397.867048610933125
  9
$TDUPDATE
 40
2458886.6160416668280959
  9
$TDINDWG
 40
0.2599594097
  9
$TDUSRTIMER
 40
0.2599594097
  9
$USRTIMER
 70
     1
  9
$ANGBASE
 50
0.0
  9
$ANGDIR
 70
     0
  9
$PDMODE
 70
     0
  9
$PDSIZE
 40
0.0
  9
$PLINEWID
 40
0.0
  9
$COORDS
 70
     1
  9
$SPLFRAME
 70
     0
  9
$SPLINETYPE
 70
     6
  9
$SPLINESEGS
 70
     8
  9
$ATTDIA
 70
     1
  9
$ATTREQ
 70
     1
  9
$HANDLING
 70
     1
  9
$HANDSEED
  5
2314
  9
$SURFTAB1
 70
     6
  9
$SURFTAB2
 70
     6
  9
$SURFTYPE
 70
     6
  9
$SURFU
 70
     6
  9
$SURFV
 70
     6
  9
$UCSNAME
  2

  9
$UCSORG
 10
0.0
 20
0.0
 30
0.0
  9
$UCSXDIR
 10
1.0
 20
0.0
 30
0.0
  9
$UCSYDIR
 10
0.0
 20
1.0
 30
0.0
  9
$PUCSNAME
  2

  9
$PUCSORG
 10
0.0
 20
0.0
 30
0.0
  9
$PUCSXDIR
 10
1.0
 20
0.0
 30
0.0
  9
$PUCSYDIR
 10
0.0
 20
1.0
 30
0.0
  9
$USERI1
 70
     0
  9
$USERI2
 70
     0
  9
$USERI3
 70
     0
  9
$USERI4
 70
     0
  9
$USERI5
 70
     0
  9
$USERR1
 40
0.0
  9
$USERR2
 40
0.0
  9
$USERR3
 40
0.0
  9
$USERR4
 40
0.0
  9
$USERR5
 40
0.0
  9
$WORLDVIEW
 70
     1
  9
$SHADEDGE
 70
     3
  9
$SHADEDIF
 70
    70
  9
$TILEMODE
 70
     1
  9
$MAXACTVP
 70
    16
  9
$PLIMCHECK
 70
     0
  9
$PEXTMIN
 10
1.0000000000000000E+20
 20
1.0000000000000000E+20
 30
1.0000000000000000E+20
  9
$PEXTMAX
 10
-1.0000000000000000E+20
 20
-1.0000000000000000E+20
 30
-1.0000000000000000E+20
  9
$PLIMMIN
 10
-20.0025948563109104
 20
-4.0151115077848081
  9
$PLIMMAX
 10
399.9974051436890932
 20
292.984888492215191
  9
$UNITMODE
 70
     0
  9
$VISRETAIN
 70
     0
  9
$PLINEGEN
 70
     0
  9
$PSLTSCALE
 70
     0
  0
ENDSEC
  0
SECTION
  2
TABLES
  0
TABLE
  2
VPORT
 70
     1
  0
VPORT
  2
*ACTIVE
 70
     0
 10
0.0
 20
0.0
 11
1.0
 21
1.0
 12
594.4734720270412254
 22
-64.1336874047574383
 13
0.0
 23
0.0
 14
1.0
 24
1.0
 15
10.0
 25
10.0
 16
0.0000000000006821
 26
0.0
 36
3037.7629428943491803
 17
687.8475596685578921
 27
635.7289821972790378
 37
-58.5433701638572828
 40
521.9323152577920837
 41
1.7852028639618129
 42
50.0
 43
0.0
 44
0.0
 50
0.0
 51
0.0
 71
     0
 72
  1500
 73
     1
 74
     0
 75
     0
 76
     0
 77
     0
 78
     0
  0
ENDTAB
  0
TABLE
  2
LTYPE
 70
     7
  0
LTYPE
  2
CONTINUOUS
 70
     0
  3
Solid line
 72
    65
 73
     0
 40
0.0
  0
LTYPE
  2
AUSGEZOGEN
 70
     0
  3
Ausgezogene Linie
 72
    65
 73
     0
 40
0.0
  0
LTYPE
  2
PHANTOM2
 70
     0
  3
Phantom (.5x) ___ _ _ ___ _ _ ___ _ _ ___ _ _
 72
    65
 73
     6
 40
1.25
 49
0.625
 49
-0.125
 49
0.125
 49
-0.125
 49
0.125
 49
-0.125
  0
LTYPE
  2
VERDECKT
 70
     0
  3
Verdeckt __ __ __ __ __ __ __ __ __ __ __ __ __
 72
    65
 73
     2
 40
0.375
 49
0.25
 49
-0.125
  0
ENDTAB
  0
TABLE
  2
LAYER
 70
    14
  0
LAYER
  2
0
 70
     0
 62
     7
  6
CONTINUOUS
  0
LAYER
  2
DEFPOINTS
 70
     0
 62
     7
  6
AUSGEZOGEN
  0
LAYER
  2
ADSK_ASSOC_ENTITY_BACKUPS
 70
     1
 62
    -7
  6
CONTINUOUS
  0
ENDTAB
  0
TABLE
  2
STYLE
 70
     4
  0
STYLE
  2
STANDARD
 70
     0
 40
0.0
 41
0.8
 50
0.0
 71
     0
 42
3.5
  3
simplex.shx
  4

  0
ENDTAB
  0
TABLE
  2
VIEW
 70
     3
  0
ENDTAB
  0
TABLE
  2
UCS
 70
     0
  0
ENDTAB
  0
TABLE
  2
APPID
 70
    21
  0
APPID
  2
ACAD
 70
     0
  0
APPID
  2
ACAD_NAV_VCDISPLAY
 70
     0
  0
APPID
  2
GRADIENTCOLOR1ACI
 70
     0
  0
APPID
  2
GRADIENTCOLOR2ACI
 70
     0
  0
APPID
  2
ACAD_DSTYLE_DIMRADIAL_EXTENSION
 70
     0
  0
APPID
  2
ACADANNOMONITORALERTICONDI
 70
     0
  0
APPID
  2
ACAD_EXEMPT_FROM_CAD_STANDARDS
 70
     0
  0
APPID
  2
ACAD_MLEADERVER
 70
     0
  0
APPID
  2
ACAD_PSEXT
 70
     0
  0
APPID
  2
ACAECLAYERSTANDARD
 70
     0
  0
APPID
  2
ACCMTRANSPARENCY
 70
     0
  0
APPID
  2
ACDBDYNAMICBLOCKGUID
 70
     0
  0
APPID
  2
ACAD_MODELDOC_XFORM
 70
     0
  0
APPID
  2
ACAD_DIMASSOC_CALC_DIMLFAC
 70
     0
  0
APPID
  2
ACAD_DIMASSOC_DIMLFAC
 70
     0
  0
APPID
  2
ACAD_DIMASSOC_OVERRIDDEN_D
 70
     0
  0
APPID
  2
ACSYNERGY
 70
     0
  0
APPID
  2
SYNERGY_BODY_TBR_ID
 70
     0
  0
APPID
  2
ACAD_VIEW_EDGE_ID
 70
     0
  0
APPID
  2
ACSYNERGYSKETCH
 70
     0
  0
APPID
  2
AcDbAttr
 70
     0
  0
ENDTAB
  0
TABLE
  2
DIMSTYLE
 70
     2
  0
DIMSTYLE
  2
STANDARD
 70
     0
  3

  4

  5

  6

  7

 40
1.0
 41
0.18
 42
0.0625
 43
0.38
 44
0.18
 45
0.0
 46
0.0
 47
0.0
 48
0.0
140
0.18
141
0.09
142
0.0
143
25.3999999999999986
144
1.0
145
0.0
146
1.0
147
0.09
 71
     0
 72
     0
 73
     1
 74
     1
 75
     0
 76
     0
 77
     0
 78
     0
170
     0
171
     2
172
     0
173
     0
174
     0
175
     0
176
     0
177
     0
178
     0
  0
ENDTAB
  0
ENDSEC
  0
SECTION
  2
BLOCKS
  0
BLOCK
  8
0
  2
$MODEL_SPACE
 70
     0
 10
0.0
 20
0.0
 30
0.0
  3
$MODEL_SPACE
  1

  0
ENDBLK
  5
38
  8
0
  0
BLOCK
 67
     1
  8
0
  2
$PAPER_SPACE
 70
     0
 10
0.0
 20
0.0
 30
0.0
  3
$PAPER_SPACE
  1

  0
ENDBLK
  5
36
 67
     1
  8
0
  0
BLOCK
  8
0
  2
*S30
 70
     1
 10
0.0
 20
0.0
 30
0.0
  3
*S30
  1

  0
ENDBLK
  5
1E4A
  8
0
  0
BLOCK
  8
0
  2
A$CE3BF9547
 70
     0
 10
0.0
 20
0.0
 30
0.0
  3
A$CE3BF9547
  1

  0
LINE
  5
214C
  8
0
  6
CONTINUOUS
 62
     3
 10
589.4047870925451207
 20
648.0913009710785673
 30
-0.0000000000001563
 11
589.4047870925451207
 21
543.091300971078681
 31
-0.0000000000001563
  0
LINE
  5
214D
  8
0
  6
CONTINUOUS
 62
     3
 10
641.4047870925453481
 20
648.0913009710785673
 30
-0.0000000000001705
 11
641.4047870925453481
 21
543.091300971078681
 31
-0.0000000000001705
  0
LINE
  5
214E
  8
0
  6
CONTINUOUS
 62
     3
 10
521.4047870925461439
 20
458.0913009710787946
 30
-0.0000000000001421
 11
521.4047870925459165
 21
733.0913009710784536
 31
-0.0000000000001421
  0
LINE
  5
214F
  8
0
  6
CONTINUOUS
 62
     3
 10
521.4047870925453481
 20
673.0913009710785673
 30
-0.0000000000001421
 11
746.4047870925454617
 21
673.0913009710785673
 31
-0.0000000000002016
  0
LINE
  5
2150
  8
0
  6
CONTINUOUS
 62
     3
 10
746.4047870925454617
 20
673.0913009710785673
 30
-0.000000000000199
 11
746.4047870925454617
 21
518.091300971078681
 31
-0.000000000000199
  0
LINE
  5
2151
  8
0
  6
CONTINUOUS
 62
     3
 10
746.4047870925454617
 20
518.091300971078681
 30
-0.000000000000199
 11
521.4047870925453481
 21
518.091300971078681
 31
-0.0000000000001395
  0
LINE
  5
2152
  8
0
  6
CONTINUOUS
 62
     3
 10
521.4047870925453481
 20
543.091300971078681
 30
-0.0000000000001421
 11
641.4047870925453481
 21
543.091300971078681
 31
-0.0000000000001738
  0
LINE
  5
2153
  8
0
  6
CONTINUOUS
 62
     3
 10
641.4047870925453481
 20
648.0913009710785673
 30
-0.0000000000001705
 11
521.4047870925453481
 21
648.0913009710785673
 31
-0.0000000000001388
  0
LINE
  5
2154
  8
0
  6
CONTINUOUS
 62
     3
 10
756.4047870925453481
 20
503.0913009710785104
 30
-0.000000000000199
 11
521.4047870925460302
 21
503.0913009710785104
 31
-0.0000000000001368
  0
LINE
  5
2155
  8
0
  6
CONTINUOUS
 62
     3
 10
756.4047870925453481
 20
688.0913009710789083
 30
-0.000000000000199
 11
756.4047870925453481
 21
503.0913009710785104
 31
-0.000000000000199
  0
LINE
  5
2156
  8
0
  6
CONTINUOUS
 62
     3
 10
521.4047870925460302
 20
688.0913009710789083
 30
-0.0000000000001421
 11
756.4047870925453481
 21
688.0913009710789083
 31
-0.0000000000002042
  0
LINE
  5
2157
  8
0
  6
CONTINUOUS
 62
     3
 10
676.4047870925454617
 20
458.0913009710787946
 30
-0.0000000000001705
 11
521.4047870925461439
 21
458.0913009710786241
 31
-0.0000000000001295
  0
ARC
  5
2158
  8
0
  6
CONTINUOUS
 62
     3
 10
676.4047870925454617
 20
595.5913009710785673
 30
-0.0000000000001705
 40
137.4999999999998863
 50
270.0
 51
90.0
  0
LINE
  5
2159
  8
0
  6
CONTINUOUS
 62
     3
 10
521.4047870925460302
 20
733.0913009710784536
 30
-0.0000000000001421
 11
676.4047870925454617
 21
733.0913009710784536
 31
-0.0000000000001831
  0
LINE
  5
215A
  8
0
  6
CONTINUOUS
 62
     3
 10
491.404787092546087
 20
568.091300971078681
 30
-0.0000000000001421
 11
491.404787092546087
 21
623.0913009710785673
 31
-0.0000000000001421
  0
LINE
  5
215B
  8
0
  6
CONTINUOUS
 62
     3
 10
491.404787092546087
 20
623.0913009710785673
 30
-0.0000000000001421
 11
506.404787092546087
 21
623.0913009710785673
 31
-0.0000000000001461
  0
LINE
  5
215C
  8
0
  6
CONTINUOUS
 62
     3
 10
506.404787092546087
 20
568.091300971078681
 30
-0.0000000000001421
 11
491.404787092546087
 21
568.091300971078681
 31
-0.0000000000001381
  0
LINE
  5
215D
  8
0
  6
CONTINUOUS
 62
     3
 10
506.404787092546087
 20
623.0913009710785673
 30
-0.0000000000001421
 11
506.404787092546087
 21
568.091300971078681
 31
-0.0000000000001421
  0
LINE
  5
215E
  8
0
  6
CONTINUOUS
 62
     3
 10
491.404787092546087
 20
568.091300971078681
 30
-0.0000000000001421
 11
491.404787092546087
 21
558.0913009710785673
 31
-0.0000000000001421
  0
LINE
  5
215F
  8
0
  6
CONTINUOUS
 62
     3
 10
491.404787092546087
 20
558.0913009710785673
 30
-0.0000000000001421
 11
476.404787092546087
 21
558.0913009710785673
 31
-0.0000000000001381
  0
LINE
  5
2160
  8
0
  6
CONTINUOUS
 62
     3
 10
476.404787092546087
 20
558.0913009710785673
 30
-0.0000000000001137
 11
476.404787092546087
 21
543.091300971078681
 31
-0.0000000000001137
  0
LINE
  5
2161
  8
0
  6
CONTINUOUS
 62
     3
 10
476.404787092546087
 20
543.091300971078681
 30
-0.0000000000001137
 11
461.404787092546087
 21
543.091300971078681
 31
-0.0000000000001097
  0
LINE
  5
2162
  8
0
  6
CONTINUOUS
 62
     3
 10
461.404787092546087
 20
543.091300971078681
 30
-0.0000000000001137
 11
461.404787092546087
 21
440.5913009710786241
 31
-0.0000000000001137
  0
LINE
  5
2163
  8
0
  6
CONTINUOUS
 62
     3
 10
831.4047870925453481
 20
440.5913009710786241
 30
-0.0000000000002274
 11
461.4047870925459165
 21
440.5913009710786241
 31
-0.0000000000001295
  0
LINE
  5
2164
  8
0
  6
CONTINUOUS
 62
     3
 10
831.4047870925453481
 20
750.591300971078681
 30
-0.0000000000002274
 11
831.4047870925453481
 21
440.5913009710786241
 31
-0.0000000000002274
  0
LINE
  5
2165
  8
0
  6
CONTINUOUS
 62
     3
 10
831.4047870925453481
 20
750.591300971078681
 30
-0.0000000000002274
 11
461.4047870925459165
 21
750.591300971078681
 31
-0.0000000000001295
  0
LINE
  5
2166
  8
0
  6
CONTINUOUS
 62
     3
 10
461.404787092546087
 20
750.591300971078681
 30
-0.0000000000001137
 11
461.404787092546087
 21
648.0913009710785673
 31
-0.0000000000001137
  0
LINE
  5
2167
  8
0
  6
CONTINUOUS
 62
     3
 10
461.404787092546087
 20
648.0913009710785673
 30
-0.0000000000001137
 11
476.404787092546087
 21
648.0913009710785673
 31
-0.0000000000001177
  0
LINE
  5
2168
  8
0
  6
CONTINUOUS
 62
     3
 10
476.404787092546087
 20
648.0913009710785673
 30
-0.0000000000001137
 11
476.404787092546087
 21
633.0913009710785673
 31
-0.0000000000001137
  0
LINE
  5
2169
  8
0
  6
CONTINUOUS
 62
     3
 10
476.404787092546087
 20
633.0913009710785673
 30
-0.0000000000001137
 11
491.404787092546087
 21
633.0913009710785673
 31
-0.0000000000001177
  0
LINE
  5
216A
  8
0
  6
CONTINUOUS
 62
     3
 10
491.404787092546087
 20
633.0913009710785673
 30
-0.0000000000001421
 11
491.404787092546087
 21
623.0913009710785673
 31
-0.0000000000001421
  0
LINE
  5
216B
  8
0
  6
CONTINUOUS
 62
     3
 10
476.404787092546087
 20
558.0913009710785673
 30
-0.0000000000001137
 11
476.404787092546087
 21
633.0913009710785673
 31
-0.0000000000001137
  0
LINE
  5
216C
  8
0
  6
CONTINUOUS
 62
     3
 10
461.404787092546087
 20
543.0913009710784536
 30
-0.0000000000001137
 11
461.404787092546087
 21
648.0913009710784536
 31
-0.0000000000001137
  0
ENDBLK
  5
216E
  8
0
  0
BLOCK
  8
0
  2
A$C7C869A8F
 70
     0
 10
0.0
 20
0.0
 30
0.0
  3
A$C7C869A8F
  1

  0
LINE
  5
2172
  8
0
  6
CONTINUOUS
 62
     3
 10
831.4047890288411509
 20
235.0000000000001137
 30
-0.0000000000000522
 11
461.4047890288417761
 21
235.0000000000001137
 31
-0.0000000000000522
210
0.0
220
1.0
230
-0.0000000000000002
  0
LINE
  5
2173
  8
0
  6
CONTINUOUS
 62
     3
 10
461.4047890288417761
 20
235.0000000000001137
 30
-0.0000000000000522
 11
461.4047890288413214
 21
75.0000000000000711
 31
-0.0000000000000167
210
0.0
220
1.0
230
-0.0000000000000002
  0
LINE
  5
2174
  8
0
  6
CONTINUOUS
 62
     3
 10
831.4047890288411509
 20
75.0000000000000711
 30
-0.0000000000000167
 11
831.4047890288411509
 21
235.0000000000001137
 31
-0.0000000000000522
210
0.0
220
1.0
230
-0.0000000000000002
  0
LINE
  5
2175
  8
0
  6
CONTINUOUS
 62
     3
 10
461.4047890288413214
 20
75.0000000000000711
 30
-0.0000000000000167
 11
831.4047890288411509
 21
75.0000000000000711
 31
-0.0000000000000167
210
0.0
220
1.0
230
-0.0000000000000002
  0
LINE
  5
2176
  8
0
  6
VERDECKT
 62
     1
 10
589.4047890288406961
 20
108.0
 30
-0.000000000000024
 11
641.4047890288410372
 21
160.0
 31
-0.0000000000000355
210
0.0
220
1.0
230
-0.0000000000000002
  0
LINE
  5
2177
  8
0
  6
VERDECKT
 62
     1
 10
521.4047890288410372
 20
108.0
 30
-0.000000000000024
 11
589.4047890288406961
 21
108.0
 31
-0.000000000000024
210
0.0
220
1.0
230
-0.0000000000000002
  0
LINE
  5
2178
  8
0
  6
VERDECKT
 62
     1
 10
521.4047890288419467
 20
235.0000000000001137
 30
-0.0000000000000522
 11
521.4047890288419467
 21
225.0000000000001137
 31
-0.00000000000005
210
0.0
220
1.0
230
-0.0000000000000002
  0
LINE
  5
2179
  8
0
  6
VERDECKT
 62
     1
 10
521.404789028841833
 20
225.0000000000001137
 30
-0.00000000000005
 11
521.404789028841833
 21
200.0000000000001137
 31
-0.0000000000000444
210
0.0
220
1.0
230
-0.0000000000000002
  0
LINE
  5
217A
  8
0
  6
VERDECKT
 62
     1
 10
521.4047890288411509
 20
160.0
 30
-0.0000000000000355
 11
521.4047890288411509
 21
200.0000000000001137
 31
-0.0000000000000444
210
0.0
220
1.0
230
-0.0000000000000002
  0
LINE
  5
217B
  8
0
  6
VERDECKT
 62
     1
 10
521.4047890288410372
 20
160.0
 30
-0.0000000000000355
 11
521.4047890288410372
 21
108.0
 31
-0.000000000000024
210
0.0
220
1.0
230
-0.0000000000000002
  0
LINE
  5
217C
  8
0
  6
VERDECKT
 62
     1
 10
746.4047890288411509
 20
160.0
 30
-0.0000000000000355
 11
746.4047890288411509
 21
200.0000000000001137
 31
-0.0000000000000444
210
0.0
220
1.0
230
-0.0000000000000002
  0
LINE
  5
217D
  8
0
  6
VERDECKT
 62
     1
 10
746.4047890288411509
 20
160.0
 30
-0.0000000000000355
 11
521.4047890288411509
 21
160.0
 31
-0.0000000000000355
210
0.0
220
1.0
230
-0.0000000000000002
  0
LINE
  5
217E
  8
0
  6
VERDECKT
 62
     1
 10
756.4047890288411509
 20
200.0000000000001137
 30
-0.0000000000000444
 11
521.4047890288411509
 21
200.0000000000001137
 31
-0.0000000000000444
210
0.0
220
1.0
230
-0.0000000000000002
  0
LINE
  5
217F
  8
0
  6
VERDECKT
 62
     1
 10
756.4047890288411509
 20
225.0000000000001137
 30
-0.00000000000005
 11
756.4047890288411509
 21
200.0000000000001137
 31
-0.0000000000000444
210
0.0
220
1.0
230
-0.0000000000000002
  0
LINE
  5
2180
  8
0
  6
VERDECKT
 62
     1
 10
676.4047890288413782
 20
225.0000000000001137
 30
-0.00000000000005
 11
521.4047890288419467
 21
225.0000000000001137
 31
-0.00000000000005
210
0.0
220
1.0
230
-0.0000000000000002
  0
LINE
  5
2181
  8
0
  6
VERDECKT
 62
     1
 10
676.4047890288413782
 20
225.0000000000001137
 30
-0.00000000000005
 11
813.9047890288412646
 21
225.0
 31
-0.00000000000005
210
0.0
220
1.0
230
-0.0000000000000002
  0
LINE
  5
2182
  8
0
  6
VERDECKT
 62
     1
 10
506.4047890288417761
 20
181.4132507723510912
 30
-0.0000000000000403
 11
506.4047890288417761
 21
154.0
 31
-0.0000000000000342
210
0.0
220
1.0
230
-0.0000000000000002
  0
LINE
  5
2183
  8
0
  6
VERDECKT
 62
     1
 10
506.4047890288417761
 20
181.4132507723506933
 30
-0.0000000000000403
 11
506.4047890288417761
 21
235.0000000000001137
 31
-0.0000000000000522
210
0.0
220
1.0
230
-0.0000000000000002
  0
LINE
  5
2184
  8
0
  6
VERDECKT
 62
     1
 10
491.4047890288417761
 20
166.0
 30
-0.0000000000000369
 11
491.4047890288417761
 21
129.0
 31
-0.0000000000000286
210
0.0
220
1.0
230
-0.0000000000000002
  0
LINE
  5
2185
  8
0
  6
VERDECKT
 62
     1
 10
491.4047890288417761
 20
166.0000000000007958
 30
-0.0000000000000369
 11
491.4047890288417761
 21
235.0000000000001137
 31
-0.0000000000000522
210
0.0
220
1.0
230
-0.0000000000000002
  0
LINE
  5
2186
  8
0
  6
VERDECKT
 62
     1
 10
476.4047890288417761
 20
160.5
 30
-0.0000000000000356
 11
476.4047890288417761
 21
235.0000000000001137
 31
-0.0000000000000522
210
0.0
220
1.0
230
-0.0000000000000002
  0
LINE
  5
2187
  8
0
  6
VERDECKT
 62
     1
 10
476.4047890288417761
 20
160.4999999999998863
 30
-0.0000000000000356
 11
476.4047890288417761
 21
107.9999999999999005
 31
-0.000000000000024
210
0.0
220
1.0
230
-0.0000000000000002
  0
LINE
  5
2188
  8
0
  6
VERDECKT
 62
     1
 10
813.9047890288412646
 20
235.0
 30
-0.0000000000000522
 11
813.9047890288412646
 21
225.0
 31
-0.00000000000005
210
0.0
220
1.0
230
-0.0000000000000002
  0
LINE
  5
2189
  8
0
  6
VERDECKT
 62
     1
 10
506.4047890288417761
 20
154.0
 30
-0.0000000000000342
 11
491.4047890288417761
 21
154.0
 31
-0.0000000000000342
210
0.0
220
1.0
230
-0.0000000000000002
  0
LINE
  5
218A
  8
0
  6
VERDECKT
 62
     1
 10
491.4047890288417761
 20
129.0
 30
-0.0000000000000286
 11
476.4047890288417761
 21
129.0
 31
-0.0000000000000286
210
0.0
220
1.0
230
-0.0000000000000002
  0
LINE
  5
218B
  8
0
  6
VERDECKT
 62
     1
 10
476.4047890288417761
 20
107.9999999999999005
 30
-0.000000000000024
 11
461.4047890288416056
 21
107.9999999999999005
 31
-0.000000000000024
210
0.0
220
1.0
230
-0.0000000000000002
  0
ENDBLK
  5
218D
  8
0
  0
BLOCK
  8
0
  2
A$C7310E7A3
 70
     0
 10
0.0
 20
0.0
 30
0.0
  3
A$C7310E7A3
  1

  0
POLYLINE
  5
2191
  8
0
  6
CONTINUOUS
 62
     3
 10
-568.0912933484075893
 20
181.4132507723510912
 30
-0.0000000000000403
 66
     1
 70
     8
  0
VERTEX
  8
0
  5
2210
 10
-568.091
 20
181.413
 30
-4.03000e-14
  70
    32
  0
VERTEX
  8
0
  5
2211
 10
-568.100
 20
180.740
 30
-4.01654e-14
  70
    32
  0
VERTEX
  8
0
  5
2212
 10
-568.124
 20
180.068
 30
-4.00310e-14
  70
    32
  0
VERTEX
  8
0
  5
2213
 10
-568.166
 20
179.397
 30
-3.98967e-14
  70
    32
  0
VERTEX
  8
0
  5
2214
 10
-568.224
 20
178.726
 30
-3.97626e-14
  70
    32
  0
VERTEX
  8
0
  5
2215
 10
-568.298
 20
178.058
 30
-3.96289e-14
  70
    32
  0
VERTEX
  8
0
  5
2216
 10
-568.389
 20
177.391
 30
-3.94955e-14
  70
    32
  0
VERTEX
  8
0
  5
2217
 10
-568.496
 20
176.727
 30
-3.93627e-14
  70
    32
  0
VERTEX
  8
0
  5
2218
 10
-568.620
 20
176.065
 30
-3.92304e-14
  70
    32
  0
VERTEX
  8
0
  5
2219
 10
-568.759
 20
175.407
 30
-3.90987e-14
  70
    32
  0
VERTEX
  8
0
  5
221A
 10
-568.915
 20
174.752
 30
-3.89678e-14
  70
    32
  0
VERTEX
  8
0
  5
221B
 10
-569.087
 20
174.102
 30
-3.88377e-14
  70
    32
  0
VERTEX
  8
0
  5
221C
 10
-569.275
 20
173.456
 30
-3.87085e-14
  70
    32
  0
VERTEX
  8
0
  5
221D
 10
-569.479
 20
172.814
 30
-3.85802e-14
  70
    32
  0
VERTEX
  8
0
  5
221E
 10
-569.699
 20
172.178
 30
-3.84530e-14
  70
    32
  0
VERTEX
  8
0
  5
221F
 10
-569.934
 20
171.547
 30
-3.83268e-14
  70
    32
  0
VERTEX
  8
0
  5
2220
 10
-570.185
 20
170.923
 30
-3.82019e-14
  70
    32
  0
VERTEX
  8
0
  5
2221
 10
-570.451
 20
170.304
 30
-3.80782e-14
  70
    32
  0
VERTEX
  8
0
  5
2222
 10
-570.732
 20
169.693
 30
-3.79559e-14
  70
    32
  0
VERTEX
  8
0
  5
2223
 10
-571.028
 20
169.088
 30
-3.78349e-14
  70
    32
  0
VERTEX
  8
0
  5
2224
 10
-571.338
 20
168.491
 30
-3.77155e-14
  70
    32
  0
VERTEX
  8
0
  5
2225
 10
-571.664
 20
167.901
 30
-3.75976e-14
  70
    32
  0
VERTEX
  8
0
  5
2226
 10
-572.004
 20
167.320
 30
-3.74814e-14
  70
    32
  0
VERTEX
  8
0
  5
2227
 10
-572.358
 20
166.747
 30
-3.73668e-14
  70
    32
  0
VERTEX
  8
0
  5
2228
 10
-572.726
 20
166.183
 30
-3.72540e-14
  70
    32
  0
VERTEX
  8
0
  5
2229
 10
-573.108
 20
165.628
 30
-3.71430e-14
  70
    32
  0
VERTEX
  8
0
  5
222A
 10
-573.503
 20
165.083
 30
-3.70340e-14
  70
    32
  0
VERTEX
  8
0
  5
222B
 10
-573.912
 20
164.548
 30
-3.69269e-14
  70
    32
  0
VERTEX
  8
0
  5
222C
 10
-574.334
 20
164.022
 30
-3.68218e-14
  70
    32
  0
VERTEX
  8
0
  5
222D
 10
-574.768
 20
163.508
 30
-3.67189e-14
  70
    32
  0
VERTEX
  8
0
  5
222E
 10
-575.215
 20
163.004
 30
-3.66181e-14
  70
    32
  0
VERTEX
  8
0
  5
222F
 10
-575.674
 20
162.511
 30
-3.65195e-14
  70
    32
  0
VERTEX
  8
0
  5
2230
 10
-576.146
 20
162.029
 30
-3.64232e-14
  70
    32
  0
VERTEX
  8
0
  5
2231
 10
-576.629
 20
161.559
 30
-3.63292e-14
  70
    32
  0
VERTEX
  8
0
  5
2232
 10
-577.123
 20
161.101
 30
-3.62376e-14
  70
    32
  0
VERTEX
  8
0
  5
2233
 10
-577.629
 20
160.656
 30
-3.61485e-14
  70
    32
  0
VERTEX
  8
0
  5
2234
 10
-578.145
 20
160.223
 30
-3.60619e-14
  70
    32
  0
VERTEX
  8
0
  5
2235
 10
-578.672
 20
159.802
 30
-3.59778e-14
  70
    32
  0
VERTEX
  8
0
  5
2236
 10
-579.210
 20
159.395
 30
-3.58963e-14
  70
    32
  0
VERTEX
  8
0
  5
2237
 10
-579.757
 20
159.001
 30
-3.58175e-14
  70
    32
  0
VERTEX
  8
0
  5
2238
 10
-580.313
 20
158.620
 30
-3.57413e-14
  70
    32
  0
VERTEX
  8
0
  5
2239
 10
-580.879
 20
158.253
 30
-3.56680e-14
  70
    32
  0
VERTEX
  8
0
  5
223A
 10
-581.453
 20
157.900
 30
-3.55974e-14
  70
    32
  0
VERTEX
  8
0
  5
223B
 10
-582.037
 20
157.561
 30
-3.55296e-14
  70
    32
  0
VERTEX
  8
0
  5
223C
 10
-582.628
 20
157.237
 30
-3.54647e-14
  70
    32
  0
VERTEX
  8
0
  5
223D
 10
-583.227
 20
156.927
 30
-3.54028e-14
  70
    32
  0
VERTEX
  8
0
  5
223E
 10
-583.834
 20
156.632
 30
-3.53437e-14
  70
    32
  0
VERTEX
  8
0
  5
223F
 10
-584.447
 20
156.352
 30
-3.52877e-14
  70
    32
  0
VERTEX
  8
0
  5
2240
 10
-585.067
 20
156.087
 30
-3.52347e-14
  70
    32
  0
VERTEX
  8
0
  5
2241
 10
-585.694
 20
155.837
 30
-3.51847e-14
  70
    32
  0
VERTEX
  8
0
  5
2242
 10
-586.327
 20
155.602
 30
-3.51378e-14
  70
    32
  0
VERTEX
  8
0
  5
2243
 10
-586.965
 20
155.384
 30
-3.50941e-14
  70
    32
  0
VERTEX
  8
0
  5
2244
 10
-587.608
 20
155.180
 30
-3.50534e-14
  70
    32
  0
VERTEX
  8
0
  5
2245
 10
-588.257
 20
154.993
 30
-3.50160e-14
  70
    32
  0
VERTEX
  8
0
  5
2246
 10
-588.909
 20
154.822
 30
-3.49817e-14
  70
    32
  0
VERTEX
  8
0
  5
2247
 10
-589.566
 20
154.666
 30
-3.49506e-14
  70
    32
  0
VERTEX
  8
0
  5
2248
 10
-590.226
 20
154.527
 30
-3.49227e-14
  70
    32
  0
VERTEX
  8
0
  5
2249
 10
-590.890
 20
154.404
 30
-3.48981e-14
  70
    32
  0
VERTEX
  8
0
  5
224A
 10
-591.556
 20
154.297
 30
-3.48767e-14
  70
    32
  0
VERTEX
  8
0
  5
224B
 10
-592.225
 20
154.206
 30
-3.48586e-14
  70
    32
  0
VERTEX
  8
0
  5
224C
 10
-592.896
 20
154.132
 30
-3.48438e-14
  70
    32
  0
VERTEX
  8
0
  5
224D
 10
-593.568
 20
154.074
 30
-3.48322e-14
  70
    32
  0
VERTEX
  8
0
  5
224E
 10
-594.242
 20
154.033
 30
-3.48240e-14
  70
    32
  0
VERTEX
  8
0
  5
224F
 10
-594.916
 20
154.008
 30
-3.48190e-14
  70
    32
  0
VERTEX
  8
0
  5
2250
 10
-595.591
 20
154.000
 30
-3.48173e-14
  70
    32
  0
VERTEX
  8
0
  5
2251
 10
-596.266
 20
154.008
 30
-3.48190e-14
  70
    32
  0
VERTEX
  8
0
  5
2252
 10
-596.941
 20
154.033
 30
-3.48240e-14
  70
    32
  0
VERTEX
  8
0
  5
2253
 10
-597.614
 20
154.074
 30
-3.48322e-14
  70
    32
  0
VERTEX
  8
0
  5
2254
 10
-598.287
 20
154.132
 30
-3.48438e-14
  70
    32
  0
VERTEX
  8
0
  5
2255
 10
-598.958
 20
154.206
 30
-3.48586e-14
  70
    32
  0
VERTEX
  8
0
  5
2256
 10
-599.626
 20
154.297
 30
-3.48767e-14
  70
    32
  0
VERTEX
  8
0
  5
2257
 10
-600.293
 20
154.404
 30
-3.48981e-14
  70
    32
  0
VERTEX
  8
0
  5
2258
 10
-600.956
 20
154.527
 30
-3.49227e-14
  70
    32
  0
VERTEX
  8
0
  5
2259
 10
-601.617
 20
154.666
 30
-3.49506e-14
  70
    32
  0
VERTEX
  8
0
  5
225A
 10
-602.273
 20
154.822
 30
-3.49817e-14
  70
    32
  0
VERTEX
  8
0
  5
225B
 10
-602.926
 20
154.993
 30
-3.50160e-14
  70
    32
  0
VERTEX
  8
0
  5
225C
 10
-603.574
 20
155.180
 30
-3.50534e-14
  70
    32
  0
VERTEX
  8
0
  5
225D
 10
-604.218
 20
155.384
 30
-3.50941e-14
  70
    32
  0
VERTEX
  8
0
  5
225E
 10
-604.856
 20
155.602
 30
-3.51378e-14
  70
    32
  0
VERTEX
  8
0
  5
225F
 10
-605.488
 20
155.837
 30
-3.51847e-14
  70
    32
  0
VERTEX
  8
0
  5
2260
 10
-606.115
 20
156.087
 30
-3.52347e-14
  70
    32
  0
VERTEX
  8
0
  5
2261
 10
-606.735
 20
156.352
 30
-3.52877e-14
  70
    32
  0
VERTEX
  8
0
  5
2262
 10
-607.349
 20
156.632
 30
-3.53437e-14
  70
    32
  0
VERTEX
  8
0
  5
2263
 10
-607.956
 20
156.927
 30
-3.54028e-14
  70
    32
  0
VERTEX
  8
0
  5
2264
 10
-608.555
 20
157.237
 30
-3.54647e-14
  70
    32
  0
VERTEX
  8
0
  5
2265
 10
-609.146
 20
157.561
 30
-3.55296e-14
  70
    32
  0
VERTEX
  8
0
  5
2266
 10
-609.729
 20
157.900
 30
-3.55974e-14
  70
    32
  0
VERTEX
  8
0
  5
2267
 10
-610.304
 20
158.253
 30
-3.56680e-14
  70
    32
  0
VERTEX
  8
0
  5
2268
 10
-610.869
 20
158.620
 30
-3.57413e-14
  70
    32
  0
VERTEX
  8
0
  5
2269
 10
-611.426
 20
159.001
 30
-3.58175e-14
  70
    32
  0
VERTEX
  8
0
  5
226A
 10
-611.973
 20
159.395
 30
-3.58963e-14
  70
    32
  0
VERTEX
  8
0
  5
226B
 10
-612.510
 20
159.802
 30
-3.59778e-14
  70
    32
  0
VERTEX
  8
0
  5
226C
 10
-613.037
 20
160.223
 30
-3.60619e-14
  70
    32
  0
VERTEX
  8
0
  5
226D
 10
-613.554
 20
160.656
 30
-3.61485e-14
  70
    32
  0
VERTEX
  8
0
  5
226E
 10
-614.059
 20
161.101
 30
-3.62376e-14
  70
    32
  0
VERTEX
  8
0
  5
226F
 10
-614.554
 20
161.559
 30
-3.63292e-14
  70
    32
  0
VERTEX
  8
0
  5
2270
 10
-615.037
 20
162.029
 30
-3.64232e-14
  70
    32
  0
VERTEX
  8
0
  5
2271
 10
-615.508
 20
162.511
 30
-3.65195e-14
  70
    32
  0
VERTEX
  8
0
  5
2272
 10
-615.967
 20
163.004
 30
-3.66181e-14
  70
    32
  0
VERTEX
  8
0
  5
2273
 10
-616.415
 20
163.508
 30
-3.67189e-14
  70
    32
  0
VERTEX
  8
0
  5
2274
 10
-616.849
 20
164.022
 30
-3.68218e-14
  70
    32
  0
VERTEX
  8
0
  5
2275
 10
-617.271
 20
164.548
 30
-3.69269e-14
  70
    32
  0
VERTEX
  8
0
  5
2276
 10
-617.680
 20
165.083
 30
-3.70340e-14
  70
    32
  0
VERTEX
  8
0
  5
2277
 10
-618.075
 20
165.628
 30
-3.71430e-14
  70
    32
  0
VERTEX
  8
0
  5
2278
 10
-618.457
 20
166.183
 30
-3.72540e-14
  70
    32
  0
VERTEX
  8
0
  5
2279
 10
-618.825
 20
166.747
 30
-3.73668e-14
  70
    32
  0
VERTEX
  8
0
  5
227A
 10
-619.179
 20
167.320
 30
-3.74814e-14
  70
    32
  0
VERTEX
  8
0
  5
227B
 10
-619.519
 20
167.901
 30
-3.75976e-14
  70
    32
  0
VERTEX
  8
0
  5
227C
 10
-619.844
 20
168.491
 30
-3.77155e-14
  70
    32
  0
VERTEX
  8
0
  5
227D
 10
-620.155
 20
169.088
 30
-3.78349e-14
  70
    32
  0
VERTEX
  8
0
  5
227E
 10
-620.451
 20
169.693
 30
-3.79559e-14
  70
    32
  0
VERTEX
  8
0
  5
227F
 10
-620.732
 20
170.304
 30
-3.80782e-14
  70
    32
  0
VERTEX
  8
0
  5
2280
 10
-620.998
 20
170.923
 30
-3.82019e-14
  70
    32
  0
VERTEX
  8
0
  5
2281
 10
-621.249
 20
171.547
 30
-3.83268e-14
  70
    32
  0
VERTEX
  8
0
  5
2282
 10
-621.484
 20
172.178
 30
-3.84530e-14
  70
    32
  0
VERTEX
  8
0
  5
2283
 10
-621.703
 20
172.814
 30
-3.85802e-14
  70
    32
  0
VERTEX
  8
0
  5
2284
 10
-621.907
 20
173.456
 30
-3.87085e-14
  70
    32
  0
VERTEX
  8
0
  5
2285
 10
-622.095
 20
174.102
 30
-3.88377e-14
  70
    32
  0
VERTEX
  8
0
  5
2286
 10
-622.267
 20
174.752
 30
-3.89678e-14
  70
    32
  0
VERTEX
  8
0
  5
2287
 10
-622.423
 20
175.407
 30
-3.90987e-14
  70
    32
  0
VERTEX
  8
0
  5
2288
 10
-622.563
 20
176.065
 30
-3.92304e-14
  70
    32
  0
VERTEX
  8
0
  5
2289
 10
-622.686
 20
176.727
 30
-3.93627e-14
  70
    32
  0
VERTEX
  8
0
  5
228A
 10
-622.794
 20
177.391
 30
-3.94955e-14
  70
    32
  0
VERTEX
  8
0
  5
228B
 10
-622.884
 20
178.058
 30
-3.96289e-14
  70
    32
  0
VERTEX
  8
0
  5
228C
 10
-622.959
 20
178.726
 30
-3.97626e-14
  70
    32
  0
VERTEX
  8
0
  5
228D
 10
-623.017
 20
179.397
 30
-3.98967e-14
  70
    32
  0
VERTEX
  8
0
  5
228E
 10
-623.058
 20
180.068
 30
-4.00310e-14
  70
    32
  0
VERTEX
  8
0
  5
228F
 10
-623.083
 20
180.740
 30
-4.01654e-14
  70
    32
  0
VERTEX
  8
0
  5
2290
 10
-623.091
 20
181.413
 30
-4.03000e-14
  70
    32
  0
SEQEND
  8
0
  5
2291
  0
LINE
  5
2192
  8
0
  6
CONTINUOUS
 62
     3
 10
-623.0912933484074756
 20
181.4132507723510059
 30
-0.0000000000000403
 11
-623.0912933484074756
 21
235.0
 31
-0.0000000000000522
210
-0.0000000000000002
220
1.0
230
-0.0000000000000002
  0
LINE
  5
2193
  8
0
  6
CONTINUOUS
 62
     3
 10
-568.0912933484074756
 20
235.0
 30
-0.0000000000000522
 11
-568.0912933484074756
 21
181.4132507723510912
 31
-0.0000000000000403
210
-0.0000000000000002
220
1.0
230
-0.0000000000000002
  0
LINE
  5
2194
  8
0
  6
CONTINUOUS
 62
     3
 10
-623.0912933484074756
 20
235.0
 30
-0.0000000000000522
 11
-568.0912933484074756
 21
235.0
 31
-0.0000000000000522
210
-0.0000000000000002
220
1.0
230
-0.0000000000000002
  0
LINE
  5
2195
  8
0
  6
CONTINUOUS
 62
     3
 10
-568.0912933484074756
 20
235.0
 30
-0.0000000000000522
 11
-558.0912933484075893
 21
235.0
 31
-0.0000000000000522
210
-0.0000000000000002
220
1.0
230
-0.0000000000000002
  0
LINE
  5
2196
  8
0
  6
CONTINUOUS
 62
     3
 10
-558.0912933484075893
 20
235.0
 30
-0.0000000000000522
 11
-543.0912933484074756
 21
235.0
 31
-0.0000000000000522
210
-0.0000000000000002
220
1.0
230
-0.0000000000000002
  0
LINE
  5
2197
  8
0
  6
CONTINUOUS
 62
     3
 10
-543.0912933484074756
 20
235.0
 30
-0.0000000000000522
 11
-440.5912933484075893
 21
235.0
 31
-0.0000000000000522
210
-0.0000000000000002
220
1.0
230
-0.0000000000000002
  0
LINE
  5
2198
  8
0
  6
CONTINUOUS
 62
     3
 10
-750.5912933484075893
 20
234.9999999999998863
 30
-0.0000000000000522
 11
-648.0912933484074756
 21
235.0
 31
-0.0000000000000522
210
-0.0000000000000002
220
1.0
230
-0.0000000000000002
  0
LINE
  5
2199
  8
0
  6
CONTINUOUS
 62
     3
 10
-648.0912933484074756
 20
235.0
 30
-0.0000000000000522
 11
-633.0912933484075893
 21
235.0
 31
-0.0000000000000522
210
-0.0000000000000002
220
1.0
230
-0.0000000000000002
  0
LINE
  5
219A
  8
0
  6
CONTINUOUS
 62
     3
 10
-633.0912933484075893
 20
235.0
 30
-0.0000000000000522
 11
-623.0912933484074756
 21
235.0
 31
-0.0000000000000522
210
-0.0000000000000002
220
1.0
230
-0.0000000000000002
  0
POLYLINE
  5
219B
  8
0
  6
CONTINUOUS
 62
     3
 10
-558.0912933484075893
 20
165.9999999999998579
 30
-0.0000000000000369
 66
     1
 70
     8
  0
VERTEX
  8
0
  5
2292
 10
-558.091
 20
166.000
 30
-3.69000e-14
  70
    32
  0
VERTEX
  8
0
  5
2293
 10
-558.103
 20
165.092
 30
-3.67184e-14
  70
    32
  0
VERTEX
  8
0
  5
2294
 10
-558.136
 20
164.184
 30
-3.65369e-14
  70
    32
  0
VERTEX
  8
0
  5
2295
 10
-558.193
 20
163.278
 30
-3.63556e-14
  70
    32
  0
VERTEX
  8
0
  5
2296
 10
-558.272
 20
162.373
 30
-3.61747e-14
  70
    32
  0
VERTEX
  8
0
  5
2297
 10
-558.373
 20
161.471
 30
-3.59942e-14
  70
    32
  0
VERTEX
  8
0
  5
2298
 10
-558.497
 20
160.571
 30
-3.58142e-14
  70
    32
  0
VERTEX
  8
0
  5
2299
 10
-558.643
 20
159.674
 30
-3.56349e-14
  70
    32
  0
VERTEX
  8
0
  5
229A
 10
-558.812
 20
158.782
 30
-3.54563e-14
  70
    32
  0
VERTEX
  8
0
  5
229B
 10
-559.002
 20
157.893
 30
-3.52787e-14
  70
    32
  0
VERTEX
  8
0
  5
229C
 10
-559.215
 20
157.010
 30
-3.51019e-14
  70
    32
  0
VERTEX
  8
0
  5
229D
 10
-559.450
 20
156.132
 30
-3.49263e-14
  70
    32
  0
VERTEX
  8
0
  5
229E
 10
-559.706
 20
155.259
 30
-3.47519e-14
  70
    32
  0
VERTEX
  8
0
  5
229F
 10
-559.984
 20
154.394
 30
-3.45788e-14
  70
    32
  0
VERTEX
  8
0
  5
22A0
 10
-560.283
 20
153.535
 30
-3.44070e-14
  70
    32
  0
VERTEX
  8
0
  5
22A1
 10
-560.604
 20
152.684
 30
-3.42368e-14
  70
    32
  0
VERTEX
  8
0
  5
22A2
 10
-560.946
 20
151.841
 30
-3.40681e-14
  70
    32
  0
VERTEX
  8
0
  5
22A3
 10
-561.308
 20
151.006
 30
-3.39012e-14
  70
    32
  0
VERTEX
  8
0
  5
22A4
 10
-561.692
 20
150.180
 30
-3.37361e-14
  70
    32
  0
VERTEX
  8
0
  5
22A5
 10
-562.095
 20
149.364
 30
-3.35729e-14
  70
    32
  0
VERTEX
  8
0
  5
22A6
 10
-562.519
 20
148.558
 30
-3.34117e-14
  70
    32
  0
VERTEX
  8
0
  5
22A7
 10
-562.963
 20
147.763
 30
-3.32526e-14
  70
    32
  0
VERTEX
  8
0
  5
22A8
 10
-563.426
 20
146.978
 30
-3.30956e-14
  70
    32
  0
VERTEX
  8
0
  5
22A9
 10
-563.909
 20
146.205
 30
-3.29410e-14
  70
    32
  0
VERTEX
  8
0
  5
22AA
 10
-564.411
 20
145.444
 30
-3.27888e-14
  70
    32
  0
VERTEX
  8
0
  5
22AB
 10
-564.932
 20
144.695
 30
-3.26390e-14
  70
    32
  0
VERTEX
  8
0
  5
22AC
 10
-565.471
 20
143.959
 30
-3.24918e-14
  70
    32
  0
VERTEX
  8
0
  5
22AD
 10
-566.028
 20
143.236
 30
-3.23473e-14
  70
    32
  0
VERTEX
  8
0
  5
22AE
 10
-566.603
 20
142.527
 30
-3.22055e-14
  70
    32
  0
VERTEX
  8
0
  5
22AF
 10
-567.196
 20
141.833
 30
-3.20665e-14
  70
    32
  0
VERTEX
  8
0
  5
22B0
 10
-567.806
 20
141.152
 30
-3.19305e-14
  70
    32
  0
VERTEX
  8
0
  5
22B1
 10
-568.432
 20
140.487
 30
-3.17974e-14
  70
    32
  0
VERTEX
  8
0
  5
22B2
 10
-569.075
 20
139.837
 30
-3.16674e-14
  70
    32
  0
VERTEX
  8
0
  5
22B3
 10
-569.734
 20
139.203
 30
-3.15406e-14
  70
    32
  0
VERTEX
  8
0
  5
22B4
 10
-570.408
 20
138.585
 30
-3.14170e-14
  70
    32
  0
VERTEX
  8
0
  5
22B5
 10
-571.097
 20
137.983
 30
-3.12967e-14
  70
    32
  0
VERTEX
  8
0
  5
22B6
 10
-571.802
 20
137.399
 30
-3.11797e-14
  70
    32
  0
VERTEX
  8
0
  5
22B7
 10
-572.520
 20
136.831
 30
-3.10662e-14
  70
    32
  0
VERTEX
  8
0
  5
22B8
 10
-573.253
 20
136.281
 30
-3.09563e-14
  70
    32
  0
VERTEX
  8
0
  5
22B9
 10
-573.998
 20
135.749
 30
-3.08499e-14
  70
    32
  0
VERTEX
  8
0
  5
22BA
 10
-574.757
 20
135.236
 30
-3.07471e-14
  70
    32
  0
VERTEX
  8
0
  5
22BB
 10
-575.529
 20
134.740
 30
-3.06481e-14
  70
    32
  0
VERTEX
  8
0
  5
22BC
 10
-576.312
 20
134.264
 30
-3.05528e-14
  70
    32
  0
VERTEX
  8
0
  5
22BD
 10
-577.108
 20
133.807
 30
-3.04614e-14
  70
    32
  0
VERTEX
  8
0
  5
22BE
 10
-577.914
 20
133.369
 30
-3.03738e-14
  70
    32
  0
VERTEX
  8
0
  5
22BF
 10
-578.731
 20
132.951
 30
-3.02901e-14
  70
    32
  0
VERTEX
  8
0
  5
22C0
 10
-579.558
 20
132.552
 30
-3.02105e-14
  70
    32
  0
VERTEX
  8
0
  5
22C1
 10
-580.395
 20
132.174
 30
-3.01348e-14
  70
    32
  0
VERTEX
  8
0
  5
22C2
 10
-581.241
 20
131.816
 30
-3.00633e-14
  70
    32
  0
VERTEX
  8
0
  5
22C3
 10
-582.095
 20
131.479
 30
-2.99959e-14
  70
    32
  0
VERTEX
  8
0
  5
22C4
 10
-582.958
 20
131.163
 30
-2.99326e-14
  70
    32
  0
VERTEX
  8
0
  5
22C5
 10
-583.828
 20
130.867
 30
-2.98735e-14
  70
    32
  0
VERTEX
  8
0
  5
22C6
 10
-584.706
 20
130.593
 30
-2.98186e-14
  70
    32
  0
VERTEX
  8
0
  5
22C7
 10
-585.590
 20
130.340
 30
-2.97681e-14
  70
    32
  0
VERTEX
  8
0
  5
22C8
 10
-586.480
 20
130.109
 30
-2.97218e-14
  70
    32
  0
VERTEX
  8
0
  5
22C9
 10
-587.375
 20
129.899
 30
-2.96798e-14
  70
    32
  0
VERTEX
  8
0
  5
22CA
 10
-588.275
 20
129.711
 30
-2.96422e-14
  70
    32
  0
VERTEX
  8
0
  5
22CB
 10
-589.180
 20
129.545
 30
-2.96089e-14
  70
    32
  0
VERTEX
  8
0
  5
22CC
 10
-590.089
 20
129.400
 30
-2.95801e-14
  70
    32
  0
VERTEX
  8
0
  5
22CD
 10
-591.001
 20
129.278
 30
-2.95557e-14
  70
    32
  0
VERTEX
  8
0
  5
22CE
 10
-591.916
 20
129.178
 30
-2.95356e-14
  70
    32
  0
VERTEX
  8
0
  5
22CF
 10
-592.833
 20
129.100
 30
-2.95201e-14
  70
    32
  0
VERTEX
  8
0
  5
22D0
 10
-593.751
 20
129.045
 30
-2.95089e-14
  70
    32
  0
VERTEX
  8
0
  5
22D1
 10
-594.671
 20
129.011
 30
-2.95022e-14
  70
    32
  0
VERTEX
  8
0
  5
22D2
 10
-595.591
 20
129.000
 30
-2.95000e-14
  70
    32
  0
VERTEX
  8
0
  5
22D3
 10
-596.512
 20
129.011
 30
-2.95022e-14
  70
    32
  0
VERTEX
  8
0
  5
22D4
 10
-597.431
 20
129.045
 30
-2.95089e-14
  70
    32
  0
VERTEX
  8
0
  5
22D5
 10
-598.350
 20
129.100
 30
-2.95201e-14
  70
    32
  0
VERTEX
  8
0
  5
22D6
 10
-599.267
 20
129.178
 30
-2.95356e-14
  70
    32
  0
VERTEX
  8
0
  5
22D7
 10
-600.182
 20
129.278
 30
-2.95557e-14
  70
    32
  0
VERTEX
  8
0
  5
22D8
 10
-601.094
 20
129.400
 30
-2.95801e-14
  70
    32
  0
VERTEX
  8
0
  5
22D9
 10
-602.002
 20
129.545
 30
-2.96089e-14
  70
    32
  0
VERTEX
  8
0
  5
22DA
 10
-602.907
 20
129.711
 30
-2.96422e-14
  70
    32
  0
VERTEX
  8
0
  5
22DB
 10
-603.808
 20
129.899
 30
-2.96798e-14
  70
    32
  0
VERTEX
  8
0
  5
22DC
 10
-604.703
 20
130.109
 30
-2.97218e-14
  70
    32
  0
VERTEX
  8
0
  5
22DD
 10
-605.593
 20
130.340
 30
-2.97681e-14
  70
    32
  0
VERTEX
  8
0
  5
22DE
 10
-606.477
 20
130.593
 30
-2.98186e-14
  70
    32
  0
VERTEX
  8
0
  5
22DF
 10
-607.354
 20
130.867
 30
-2.98735e-14
  70
    32
  0
VERTEX
  8
0
  5
22E0
 10
-608.225
 20
131.163
 30
-2.99326e-14
  70
    32
  0
VERTEX
  8
0
  5
22E1
 10
-609.087
 20
131.479
 30
-2.99959e-14
  70
    32
  0
VERTEX
  8
0
  5
22E2
 10
-609.942
 20
131.816
 30
-3.00633e-14
  70
    32
  0
VERTEX
  8
0
  5
22E3
 10
-610.788
 20
132.174
 30
-3.01348e-14
  70
    32
  0
VERTEX
  8
0
  5
22E4
 10
-611.625
 20
132.552
 30
-3.02105e-14
  70
    32
  0
VERTEX
  8
0
  5
22E5
 10
-612.452
 20
132.951
 30
-3.02901e-14
  70
    32
  0
VERTEX
  8
0
  5
22E6
 10
-613.269
 20
133.369
 30
-3.03738e-14
  70
    32
  0
VERTEX
  8
0
  5
22E7
 10
-614.075
 20
133.807
 30
-3.04614e-14
  70
    32
  0
VERTEX
  8
0
  5
22E8
 10
-614.870
 20
134.264
 30
-3.05528e-14
  70
    32
  0
VERTEX
  8
0
  5
22E9
 10
-615.654
 20
134.740
 30
-3.06481e-14
  70
    32
  0
VERTEX
  8
0
  5
22EA
 10
-616.425
 20
135.236
 30
-3.07471e-14
  70
    32
  0
VERTEX
  8
0
  5
22EB
 10
-617.184
 20
135.749
 30
-3.08499e-14
  70
    32
  0
VERTEX
  8
0
  5
22EC
 10
-617.930
 20
136.281
 30
-3.09563e-14
  70
    32
  0
VERTEX
  8
0
  5
22ED
 10
-618.662
 20
136.831
 30
-3.10662e-14
  70
    32
  0
VERTEX
  8
0
  5
22EE
 10
-619.381
 20
137.399
 30
-3.11797e-14
  70
    32
  0
VERTEX
  8
0
  5
22EF
 10
-620.085
 20
137.983
 30
-3.12967e-14
  70
    32
  0
VERTEX
  8
0
  5
22F0
 10
-620.775
 20
138.585
 30
-3.14170e-14
  70
    32
  0
VERTEX
  8
0
  5
22F1
 10
-621.449
 20
139.203
 30
-3.15406e-14
  70
    32
  0
VERTEX
  8
0
  5
22F2
 10
-622.108
 20
139.837
 30
-3.16674e-14
  70
    32
  0
VERTEX
  8
0
  5
22F3
 10
-622.751
 20
140.487
 30
-3.17974e-14
  70
    32
  0
VERTEX
  8
0
  5
22F4
 10
-623.377
 20
141.152
 30
-3.19305e-14
  70
    32
  0
VERTEX
  8
0
  5
22F5
 10
-623.987
 20
141.833
 30
-3.20665e-14
  70
    32
  0
VERTEX
  8
0
  5
22F6
 10
-624.579
 20
142.527
 30
-3.22055e-14
  70
    32
  0
VERTEX
  8
0
  5
22F7
 10
-625.154
 20
143.236
 30
-3.23473e-14
  70
    32
  0
VERTEX
  8
0
  5
22F8
 10
-625.712
 20
143.959
 30
-3.24918e-14
  70
    32
  0
VERTEX
  8
0
  5
22F9
 10
-626.251
 20
144.695
 30
-3.26390e-14
  70
    32
  0
VERTEX
  8
0
  5
22FA
 10
-626.771
 20
145.444
 30
-3.27888e-14
  70
    32
  0
VERTEX
  8
0
  5
22FB
 10
-627.273
 20
146.205
 30
-3.29410e-14
  70
    32
  0
VERTEX
  8
0
  5
22FC
 10
-627.756
 20
146.978
 30
-3.30956e-14
  70
    32
  0
VERTEX
  8
0
  5
22FD
 10
-628.220
 20
147.763
 30
-3.32526e-14
  70
    32
  0
VERTEX
  8
0
  5
22FE
 10
-628.663
 20
148.558
 30
-3.34117e-14
  70
    32
  0
VERTEX
  8
0
  5
22FF
 10
-629.087
 20
149.364
 30
-3.35729e-14
  70
    32
  0
VERTEX
  8
0
  5
2300
 10
-629.491
 20
150.180
 30
-3.37361e-14
  70
    32
  0
VERTEX
  8
0
  5
2301
 10
-629.874
 20
151.006
 30
-3.39012e-14
  70
    32
  0
VERTEX
  8
0
  5
2302
 10
-630.237
 20
151.841
 30
-3.40681e-14
  70
    32
  0
VERTEX
  8
0
  5
2303
 10
-630.579
 20
152.684
 30
-3.42368e-14
  70
    32
  0
VERTEX
  8
0
  5
2304
 10
-630.899
 20
153.535
 30
-3.44070e-14
  70
    32
  0
VERTEX
  8
0
  5
2305
 10
-631.199
 20
154.394
 30
-3.45788e-14
  70
    32
  0
VERTEX
  8
0
  5
2306
 10
-631.477
 20
155.259
 30
-3.47519e-14
  70
    32
  0
VERTEX
  8
0
  5
2307
 10
-631.733
 20
156.132
 30
-3.49263e-14
  70
    32
  0
VERTEX
  8
0
  5
2308
 10
-631.967
 20
157.010
 30
-3.51019e-14
  70
    32
  0
VERTEX
  8
0
  5
2309
 10
-632.180
 20
157.893
 30
-3.52787e-14
  70
    32
  0
VERTEX
  8
0
  5
230A
 10
-632.371
 20
158.782
 30
-3.54563e-14
  70
    32
  0
VERTEX
  8
0
  5
230B
 10
-632.539
 20
159.674
 30
-3.56349e-14
  70
    32
  0
VERTEX
  8
0
  5
230C
 10
-632.685
 20
160.571
 30
-3.58142e-14
  70
    32
  0
VERTEX
  8
0
  5
230D
 10
-632.809
 20
161.471
 30
-3.59942e-14
  70
    32
  0
VERTEX
  8
0
  5
230E
 10
-632.911
 20
162.373
 30
-3.61747e-14
  70
    32
  0
VERTEX
  8
0
  5
230F
 10
-632.990
 20
163.278
 30
-3.63556e-14
  70
    32
  0
VERTEX
  8
0
  5
2310
 10
-633.046
 20
164.184
 30
-3.65369e-14
  70
    32
  0
VERTEX
  8
0
  5
2311
 10
-633.080
 20
165.092
 30
-3.67184e-14
  70
    32
  0
VERTEX
  8
0
  5
2312
 10
-633.091
 20
166.000
 30
-3.69000e-14
  70
    32
  0
SEQEND
  8
0
  5
2313
  0
LINE
  5
219C
  8
0
  6
CONTINUOUS
 62
     3
 10
-633.0912933484075893
 20
165.999999999999801
 30
-0.0000000000000369
 11
-633.0912933484075893
 21
235.0
 31
-0.0000000000000522
210
-0.0000000000000002
220
1.0
230
-0.0000000000000002
  0
LINE
  5
219D
  8
0
  6
CONTINUOUS
 62
     3
 10
-558.0912933484075893
 20
235.0
 30
-0.0000000000000522
 11
-558.0912933484075893
 21
166.0
 31
-0.0000000000000369
210
-0.0000000000000002
220
1.0
230
-0.0000000000000002
  0
LINE
  5
219E
  8
0
  6
CONTINUOUS
 62
     3
 10
-543.0912933484074756
 20
235.0
 30
-0.0000000000000522
 11
-543.0912933484072482
 21
160.4999999999998863
 31
-0.0000000000000356
210
-0.0000000000000002
220
1.0
230
-0.0000000000000002
  0
ARC
  5
219F
  8
0
  6
CONTINUOUS
 62
     3
 10
595.5912933484072482
 20
160.499999999999801
 30
0.0
 40
52.5000000000000071
210
0.0
220
-0.0000000000000002
230
-1.0
 50
180.0
 51
360.0
  0
LINE
  5
21A0
  8
0
  6
CONTINUOUS
 62
     3
 10
-648.0912933484073619
 20
160.499999999999801
 30
-0.0000000000000356
 11
-648.0912933484074756
 21
235.0
 31
-0.0000000000000522
210
-0.0000000000000002
220
1.0
230
-0.0000000000000002
  0
LINE
  5
21A1
  8
0
  6
CONTINUOUS
 62
     3
 10
-750.5912933484075893
 20
234.9999999999998863
 30
-0.0000000000000522
 11
-750.5912933484075893
 21
74.999999999999801
 31
-0.0000000000000167
210
-0.0000000000000002
220
1.0
230
-0.0000000000000002
  0
LINE
  5
21A2
  8
0
  6
CONTINUOUS
 62
     3
 10
-750.5912933484075893
 20
74.999999999999801
 30
-0.0000000000000167
 11
-440.5912933484074756
 21
74.9999999999999716
 31
-0.0000000000000167
210
-0.0000000000000002
220
1.0
230
-0.0000000000000002
  0
LINE
  5
21A3
  8
0
  6
CONTINUOUS
 62
     3
 10
-440.5912933484075893
 20
235.0000000000001137
 30
-0.0000000000000522
 11
-440.5912933484074756
 21
74.9999999999999858
 31
-0.0000000000000167
210
-0.0000000000000002
220
1.0
230
-0.0000000000000002
  0
LINE
  5
21A4
  8
0
  6
VERDECKT
 62
     1
 10
-648.0912933484074756
 20
160.0
 30
-0.0000000000000355
 11
-543.0912933484074756
 21
160.0
 31
-0.0000000000000355
210
-0.0000000000000002
220
1.0
230
-0.0000000000000002
  0
LINE
  5
21A5
  8
0
  6
VERDECKT
 62
     1
 10
-648.0912933484074756
 20
107.9999999999999005
 30
-0.000000000000024
 11
-543.0912933484074756
 21
107.9999999999999005
 31
-0.000000000000024
210
-0.0000000000000002
220
1.0
230
-0.0000000000000002
  0
LINE
  5
21A6
  8
0
  6
VERDECKT
 62
     1
 10
-648.0912933484074756
 20
159.9999999999998863
 30
-0.0000000000000355
 11
-673.0912933484074756
 21
159.9999999999998863
 31
-0.0000000000000355
210
-0.0000000000000002
220
1.0
230
-0.0000000000000002
  0
LINE
  5
21A7
  8
0
  6
VERDECKT
 62
     1
 10
-673.0912933484074756
 20
159.9999999999998863
 30
-0.0000000000000355
 11
-673.0912933484074756
 21
199.9999999999998863
 31
-0.0000000000000444
210
-0.0000000000000002
220
1.0
230
-0.0000000000000002
  0
LINE
  5
21A8
  8
0
  6
VERDECKT
 62
     1
 10
-673.0912933484074756
 20
199.9999999999998863
 30
-0.0000000000000444
 11
-688.0912933484075893
 21
199.9999999999998863
 31
-0.0000000000000444
210
-0.0000000000000002
220
1.0
230
-0.0000000000000002
  0
LINE
  5
21A9
  8
0
  6
VERDECKT
 62
     1
 10
-688.091293348407703
 20
225.0
 30
-0.00000000000005
 11
-688.091293348407703
 21
199.9999999999998863
 31
-0.0000000000000444
210
-0.0000000000000002
220
1.0
230
-0.0000000000000002
  0
LINE
  5
21AA
  8
0
  6
VERDECKT
 62
     1
 10
-688.091293348407703
 20
225.0
 30
-0.00000000000005
 11
-733.0912933484073619
 21
224.9999999999998863
 31
-0.00000000000005
210
-0.0000000000000002
220
1.0
230
-0.0000000000000002
  0
LINE
  5
21AB
  8
0
  6
VERDECKT
 62
     1
 10
-733.0912933484073619
 20
234.9999999999998863
 30
-0.0000000000000522
 11
-733.0912933484073619
 21
224.9999999999998863
 31
-0.00000000000005
210
-0.0000000000000002
220
1.0
230
-0.0000000000000002
  0
LINE
  5
21AC
  8
0
  6
VERDECKT
 62
     1
 10
-458.0912933484078167
 20
235.0
 30
-0.0000000000000522
 11
-458.0912933484078167
 21
225.0
 31
-0.00000000000005
210
-0.0000000000000002
220
1.0
230
-0.0000000000000002
  0
LINE
  5
21AD
  8
0
  6
VERDECKT
 62
     1
 10
-458.0912933484078167
 20
225.0
 30
-0.00000000000005
 11
-503.0912933484073051
 21
225.0
 31
-0.00000000000005
210
-0.0000000000000002
220
1.0
230
-0.0000000000000002
  0
LINE
  5
21AE
  8
0
  6
VERDECKT
 62
     1
 10
-503.0912933484073051
 20
225.0
 30
-0.00000000000005
 11
-503.0912933484073051
 21
200.0
 31
-0.0000000000000444
210
-0.0000000000000002
220
1.0
230
-0.0000000000000002
  0
LINE
  5
21AF
  8
0
  6
VERDECKT
 62
     1
 10
-503.0912933484075893
 20
200.0
 30
-0.0000000000000444
 11
-518.0912933484074756
 21
200.0
 31
-0.0000000000000444
210
-0.0000000000000002
220
1.0
230
-0.0000000000000002
  0
LINE
  5
21B0
  8
0
  6
VERDECKT
 62
     1
 10
-518.0912933484074756
 20
160.0
 30
-0.0000000000000355
 11
-518.0912933484074756
 21
200.0
 31
-0.0000000000000444
210
-0.0000000000000002
220
1.0
230
-0.0000000000000002
  0
LINE
  5
21B1
  8
0
  6
VERDECKT
 62
     1
 10
-518.0912933484074756
 20
160.0
 30
-0.0000000000000355
 11
-543.0912933484074756
 21
160.0
 31
-0.0000000000000355
210
-0.0000000000000002
220
1.0
230
-0.0000000000000002
  0
LINE
  5
21B2
  8
0
  6
VERDECKT
 62
     1
 10
-543.0912933484074756
 20
160.0
 30
-0.0000000000000355
 11
-543.0912933484074756
 21
107.9999999999999005
 31
-0.000000000000024
210
-0.0000000000000002
220
1.0
230
-0.0000000000000002
  0
LINE
  5
21B3
  8
0
  6
VERDECKT
 62
     1
 10
-648.0912933484074756
 20
159.9999999999998863
 30
-0.0000000000000355
 11
-648.0912933484074756
 21
107.9999999999999005
 31
-0.000000000000024
210
-0.0000000000000002
220
1.0
230
-0.0000000000000002
  0
LINE
  5
21B4
  8
0
  6
VERDECKT
 62
     1
 10
-673.0912933484074756
 20
199.9999999999998863
 30
-0.0000000000000444
 11
-518.0912933484074756
 21
200.0
 31
-0.0000000000000444
210
-0.0000000000000002
220
1.0
230
-0.0000000000000002
  0
LINE
  5
21B5
  8
0
  6
VERDECKT
 62
     1
 10
-688.091293348407703
 20
225.0
 30
-0.00000000000005
 11
-503.0912933484073051
 21
225.0
 31
-0.00000000000005
210
-0.0000000000000002
220
1.0
230
-0.0000000000000002
  0
ENDBLK
  5
21B7
  8
0
  0
ENDSEC
  0
SECTION
  2
ENTITIES
  0
INSERT
  5
1E4C
  8
ADSK_ASSOC_ENTITY_BACKUPS
  2
*S30
 10
0.0
 20
0.0
 30
0.0
  0
INSERT
  5
216F
  8
0
  2
A$CE3BF9547
 10
430.8288685504948035
 20
-128.0942077858437074
 30
-51.4897959470609123
  0
INSERT
  5
218E
  8
0
  2
A$C7C869A8F
 10
430.828866614198887
 20
595.6830859143218504
 30
-51.4897959470609692
  0
INSERT
  5
21B8
  8
0
  2
A$C7310E7A3
 10
2112.9904547227260991
 20
595.6830859143218504
 30
-51.4897959470609479
  0
VIEWPORT
  5
1158
 67
     1
  8
0
 10
189.9974051436890932
 20
144.4848884922151058
 30
0.0
 40
533.9969448798290159
 41
299.1239570917758783
 68
     1
 69
     1
1001
ACAD
1000
MVIEW
1002
{
1070
    16
1010
0.0
1020
0.0
1030
0.0
1010
0.0
1020
0.0
1030
1.0
1040
0.0
1040
299.1239570917758783
1040
189.9974051436890932
1040
144.4848884922151058
1040
50.0
1040
0.0
1040
0.0
1070
     0
1070
  1500
1070
     1
1070
     1
1070
     0
1070
     0
1070
     0
1070
     0
1040
0.0
1040
0.0
1040
0.0
1040
10.0
1040
10.0
1040
10.0
1040
10.0
1070
     0
1002
{
1002
}
1002
}
  0
ENDSEC
  0
EOF
