  0
SECTION
  2
HEADER
  9
$ACADVER
  1
AC1009
  9
$INSBASE
 10
0.0
 20
0.0
 30
0.0
  9
$EXTMIN
 10
0.0
 20
-704.19728732362285
 30
-68.72426617291535
  9
$EXTMAX
 10
1929.363188836295
 20
598.62848099074176
 30
457.0
  9
$LIMMIN
 10
0.0
 20
0.0
  9
$LIMMAX
 10
840.00000000000023
 20
594.0
  9
$ORTHOMODE
 70
     1
  9
$REGENMODE
 70
     1
  9
$FILLMODE
 70
     1
  9
$QTEXTMODE
 70
     0
  9
$MIRRTEXT
 70
     1
  9
$DRAGMODE
 70
     2
  9
$LTSCALE
 40
20.0
  9
$OSMODE
 70
   311
  9
$ATTMODE
 70
     1
  9
$TEXTSIZE
 40
3.5
  9
$TRACEWID
 40
1.0
  9
$TEXTSTYLE
  7
STANDARD
  9
$CLAYER
  8
BEM
  9
$CELTYPE
  6
BYLAYER
  9
$CECOLOR
 62
   256
  9
$DIMSCALE
 40
2.0
  9
$DIMASZ
 40
3.5
  9
$DIMEXO
 40
1.0
  9
$DIMDLI
 40
8.0
  9
$DIMRND
 40
0.0
  9
$DIMDLE
 40
0.0
  9
$DIMEXE
 40
1.0
  9
$DIMTP
 40
1.1999999999999991
  9
$DIMTM
 40
1.1999999999999991
  9
$DIMTXT
 40
3.5
  9
$DIMCEN
 40
1.5
  9
$DIMTSZ
 40
0.0
  9
$DIMTOL
 70
     0
  9
$DIMLIM
 70
     0
  9
$DIMTIH
 70
     0
  9
$DIMTOH
 70
     0
  9
$DIMSE1
 70
     0
  9
$DIMSE2
 70
     0
  9
$DIMTAD
 70
     1
  9
$DIMZIN
 70
     8
  9
$DIMBLK
  1

  9
$DIMASO
 70
     1
  9
$DIMSHO
 70
     0
  9
$DIMPOST
  1

  9
$DIMAPOST
  1

  9
$DIMALT
 70
     0
  9
$DIMALTD
 70
     2
  9
$DIMALTF
 40
25.399999999999999
  9
$DIMLFAC
 40
1.0
  9
$DIMTOFL
 70
     1
  9
$DIMTVP
 40
0.5714285714285714
  9
$DIMTIX
 70
     0
  9
$DIMSOXD
 70
     0
  9
$DIMSAH
 70
     0
  9
$DIMBLK1
  1

  9
$DIMBLK2
  1

  9
$DIMSTYLE
  2
STANDARD
  9
$DIMCLRD
 70
   256
  9
$DIMCLRE
 70
   256
  9
$DIMCLRT
 70
     1
  9
$DIMTFAC
 40
0.5
  9
$DIMGAP
 40
1.5
  9
$LUNITS
 70
     2
  9
$LUPREC
 70
     2
  9
$SKETCHINC
 40
1.0
  9
$FILLETRAD
 40
4.0
  9
$AUNITS
 70
     0
  9
$AUPREC
 70
     0
  9
$MENU
  1
ACAD
  9
$ELEVATION
 40
0.0
  9
$PELEVATION
 40
0.0
  9
$THICKNESS
 40
0.0
  9
$LIMCHECK
 70
     0
  9
$BLIPMODE
 70
     0
  9
$CHAMFERA
 40
0.0
  9
$CHAMFERB
 40
0.0
  9
$SKPOLY
 70
     0
  9
$TDCREATE
 40
2455240.197929861
  9
$TDUPDATE
 40
2458422.4354915512
  9
$TDINDWG
 40
0.1966603125
  9
$TDUSRTIMER
 40
0.1966603125
  9
$USRTIMER
 70
     1
  9
$ANGBASE
 50
0.0
  9
$ANGDIR
 70
     0
  9
$PDMODE
 70
     0
  9
$PDSIZE
 40
0.0
  9
$PLINEWID
 40
0.0
  9
$COORDS
 70
     1
  9
$SPLFRAME
 70
     0
  9
$SPLINETYPE
 70
     6
  9
$SPLINESEGS
 70
     8
  9
$ATTDIA
 70
     0
  9
$ATTREQ
 70
     0
  9
$HANDLING
 70
     1
  9
$HANDSEED
  5
4FC5
  9
$SURFTAB1
 70
     6
  9
$SURFTAB2
 70
     6
  9
$SURFTYPE
 70
     6
  9
$SURFU
 70
     6
  9
$SURFV
 70
     6
  9
$UCSNAME
  2

  9
$UCSORG
 10
0.0
 20
0.0
 30
0.0
  9
$UCSXDIR
 10
1.0
 20
0.0
 30
0.0
  9
$UCSYDIR
 10
0.0
 20
1.0
 30
0.0
  9
$PUCSNAME
  2

  9
$PUCSORG
 10
0.0
 20
0.0
 30
0.0
  9
$PUCSXDIR
 10
1.0
 20
0.0
 30
0.0
  9
$PUCSYDIR
 10
0.0
 20
1.0
 30
0.0
  9
$USERI1
 70
     0
  9
$USERI2
 70
     0
  9
$USERI3
 70
     0
  9
$USERI4
 70
     0
  9
$USERI5
 70
     0
  9
$USERR1
 40
0.0
  9
$USERR2
 40
0.0
  9
$USERR3
 40
0.0
  9
$USERR4
 40
0.0
  9
$USERR5
 40
0.0
  9
$WORLDVIEW
 70
     1
  9
$SHADEDGE
 70
     3
  9
$SHADEDIF
 70
    70
  9
$TILEMODE
 70
     1
  9
$MAXACTVP
 70
    16
  9
$PLIMCHECK
 70
     0
  9
$PEXTMIN
 10
1.049636599258096
 20
2.8631820070305589
 30
-0.000000000000013
  9
$PEXTMAX
 10
4.8387753020348176
 20
5.6128157116663138
 30
0.0000000000000023
  9
$PLIMMIN
 10
-0.2500002402958907
 20
-0.2499999962453767
  9
$PLIMMAX
 10
10.74999951940822
 20
8.2499997634587334
  9
$UNITMODE
 70
     0
  9
$VISRETAIN
 70
     0
  9
$PLINEGEN
 70
     0
  9
$PSLTSCALE
 70
     0
  0
ENDSEC
  0
SECTION
  2
TABLES
  0
TABLE
  2
VPORT
 70
     1
  0
VPORT
  2
*ACTIVE
 70
     0
 10
0.0
 20
0.0
 11
1.0
 21
1.0
 12
0.0
 22
0.0
 13
0.0
 23
0.0
 14
2.5
 24
2.5
 15
20.0
 25
20.0
 16
-0.0000000000013642
 26
0.0
 36
3404.0076371860082
 17
1542.101378912605
 27
-181.39088852692419
 37
-170.77587087773591
 40
1219.0354360837889
 41
2.1217510259917911
 42
50.0
 43
0.0
 44
0.0
 50
0.0
 51
0.0
 71
     0
 72
   500
 73
     1
 74
     1
 75
     0
 76
     0
 77
     0
 78
     0
  0
ENDTAB
  0
TABLE
  2
LTYPE
 70
     4
  0
LTYPE
  2
CONTINUOUS
 70
     0
  3
Solid line
 72
    65
 73
     0
 40
0.0
  0
LTYPE
  2
PHANTOM2
 70
     0
  3
Phantom (.5x) ___ _ _ ___ _ _ ___ _ _ ___ _ _
 72
    65
 73
     6
 40
1.25
 49
0.625
 49
-0.125
 49
0.125
 49
-0.125
 49
0.125
 49
-0.125
  0
LTYPE
  2
VERDECKT
 70
     0
  3
Verdeckt __ __ __ __ __ __ __ __ __ __ __ __ __
 72
    65
 73
     2
 40
0.375
 49
0.25
 49
-0.125
  0
ENDTAB
  0
TABLE
  2
LAYER
 70
    11
  0
LAYER
  2
0
 70
     0
 62
     7
  6
CONTINUOUS
  0
LAYER
  2
BEM
 70
     0
 62
     7
  6
CONTINUOUS
  0
LAYER
  2
DEFPOINTS
 70
     0
 62
     7
  6
CONTINUOUS
  0
ENDTAB
  0
TABLE
  2
STYLE
 70
     4
  0
STYLE
  2
STANDARD
 70
     0
 40
0.0
 41
0.8
 50
0.0
 71
     0
 42
3.5
  3
simplex.shx
  4

  0
ENDTAB
  0
TABLE
  2
VIEW
 70
     4
  0
ENDTAB
  0
TABLE
  2
UCS
 70
     0
  0
ENDTAB
  0
TABLE
  2
APPID
 70
    14
  0
APPID
  2
ACAD
 70
     0
  0
APPID
  2
ACAD_EXEMPT_FROM_CAD_STANDARDS
 70
     0
  0
APPID
  2
ACAD_DSTYLE_DIMRADIAL_EXTENSION
 70
     0
  0
APPID
  2
ACAD_NAV_VCDISPLAY
 70
     0
  0
APPID
  2
ACAD_MLEADERVER
 70
     0
  0
APPID
  2
ACAECLAYERSTANDARD
 70
     0
  0
APPID
  2
ACCMTRANSPARENCY
 70
     0
  0
APPID
  2
ACAD_OBJECT_CHANGE_GUID
 70
     0
  0
APPID
  2
ACAD_STEPID
 70
     0
  0
APPID
  2
GRADIENTCOLOR1ACI
 70
     0
  0
APPID
  2
GRADIENTCOLOR2ACI
 70
     0
  0
APPID
  2
ACAD_PSEXT
 70
     0
  0
APPID
  2
ACAD_DSTYLE_DIMJAG
 70
     0
  0
APPID
  2
ACAD_DSTYLE_DIMTALN
 70
     0
  0
ENDTAB
  0
TABLE
  2
DIMSTYLE
 70
     2
  0
DIMSTYLE
  2
STANDARD
 70
     0
  3

  4

  5

  6

  7

 40
1.0
 41
0.18
 42
0.0625
 43
0.38
 44
0.18
 45
0.0
 46
0.0
 47
0.0
 48
0.0
140
0.18
141
0.09
142
0.0
143
25.399999999999999
144
1.0
145
0.0
146
1.0
147
0.09
 71
     0
 72
     0
 73
     1
 74
     1
 75
     0
 76
     0
 77
     0
 78
     0
170
     0
171
     2
172
     0
173
     0
174
     0
175
     0
176
     0
177
     0
178
     0
  0
ENDTAB
  0
ENDSEC
  0
SECTION
  2
BLOCKS
  0
BLOCK
  8
0
  2
$MODEL_SPACE
 70
     0
 10
0.0
 20
0.0
 30
0.0
  3
$MODEL_SPACE
  1

  0
ENDBLK
  5
59
  8
0
  0
BLOCK
 67
     1
  8
0
  2
$PAPER_SPACE
 70
     0
 10
0.0
 20
0.0
 30
0.0
  3
$PAPER_SPACE
  1

  0
ENDBLK
  5
57
 67
     1
  8
0
  0
BLOCK
  8
0
  2
A$C58C55520
 70
     0
 10
0.0
 20
0.0
 30
0.0
  3
A$C58C55520
  1

  0
LINE
  5
41BE
  8
0
  6
CONTINUOUS
 62
     3
 10
312.0000000000004
 20
104.0000000000021
 30
0.0000000000000231
 11
308.45320228627151
 21
100.4532022862732
 31
0.0000000000000223
210
0.0
220
1.0
230
0.0000000000000002
  0
LINE
  5
41BF
  8
0
  6
CONTINUOUS
 62
     3
 10
297.00000000000023
 20
89.000000000001805
 30
0.0000000000000198
 11
308.45320228627151
 21
100.4532022862733
 31
0.0000000000000223
210
0.0
220
1.0
230
0.0000000000000002
  0
LINE
  5
41C0
  8
0
  6
CONTINUOUS
 62
     3
 10
297.00000000000023
 20
89.000000000002174
 30
0.0000000000000198
 11
111.0
 21
89.000000000002174
 31
0.0000000000000198
210
0.0
220
1.0
230
0.0000000000000002
  0
LINE
  5
41C1
  8
0
  6
CONTINUOUS
 62
     3
 10
111.0
 20
100.4532022862733
 30
0.0000000000000223
 11
111.0
 21
89.000000000002174
 31
0.0000000000000198
210
0.0
220
1.0
230
0.0000000000000002
  0
LINE
  5
41C2
  8
0
  6
CONTINUOUS
 62
     3
 10
109.0
 20
100.00000000000171
 30
0.0000000000000222
 11
109.0
 21
89.000000000001805
 31
0.0000000000000198
210
0.0
220
1.0
230
0.0000000000000002
  0
ARC
  5
41C3
  8
0
  6
CONTINUOUS
 62
     3
 10
110.9999999999997
 20
100.00000000000171
 30
0.0000000000000222
 40
1.9999999999999429
 50
89.999999999993491
 51
180.00000000000151
  0
ARC
  5
41C4
  8
0
  6
CONTINUOUS
 62
     3
 10
-111.0
 20
100.0000000000018
 30
0.0
 40
4.0
210
0.0
220
0.0000000000000002
230
-1.0
 50
0.0
 51
90.00000000000081
  0
LINE
  5
41C5
  8
0
  6
CONTINUOUS
 62
     3
 10
107.0
 20
89.000000000001805
 30
0.0000000000000198
 11
107.0
 21
100.00000000000171
 31
0.0000000000000222
210
0.0
220
1.0
230
0.0000000000000002
  0
LINE
  5
41C6
  8
0
  6
CONTINUOUS
 62
     3
 10
109.0
 20
89.000000000001805
 30
0.0000000000000198
 11
107.0
 21
89.000000000001805
 31
0.0000000000000198
210
0.0
220
1.0
230
0.0000000000000002
  0
LINE
  5
41C7
  8
0
  6
CONTINUOUS
 62
     3
 10
111.0
 20
100.4532022862733
 30
0.0000000000000223
 11
111.0
 21
104.0000000000021
 31
0.0000000000000231
210
0.0
220
1.0
230
0.0000000000000002
  0
LINE
  5
41C8
  8
0
  6
CONTINUOUS
 62
     3
 10
312.0
 20
104.0000000000021
 30
0.0000000000000231
 11
111.0
 21
104.0000000000021
 31
0.0000000000000231
210
0.0
220
1.0
230
0.0000000000000002
  0
LINE
  5
41C9
  8
0
  6
CONTINUOUS
 62
     3
 10
311.00000000000011
 20
99.00000000000162
 30
0.000000000000022
 11
310.00000000000023
 21
98.000000000001805
 31
0.0000000000000218
210
0.0
220
1.0
230
0.0000000000000002
  0
LINE
  5
41CA
  8
0
  6
CONTINUOUS
 62
     3
 10
214.0
 20
2.0000000000018181
 30
0.0000000000000004
 11
310.00000000000023
 21
98.000000000001805
 31
0.0000000000000218
210
0.0
220
1.0
230
0.0000000000000002
  0
LINE
  5
41CB
  8
0
  6
CONTINUOUS
 62
     3
 10
193.99999999999969
 20
66.999999999998352
 30
0.0000000000000149
 11
271.9289321881331
 21
66.999999999998238
 31
0.0000000000000149
210
0.0
220
1.0
230
0.0000000000000002
  0
LINE
  5
41CC
  8
0
  6
CONTINUOUS
 62
     3
 10
271.9289321881331
 20
66.999999999998295
 30
0.0000000000000149
 11
261.92893218813361
 21
56.999999999998408
 31
0.0000000000000127
210
0.0
220
1.0
230
0.0000000000000002
  0
LINE
  5
41CD
  8
0
  6
CONTINUOUS
 62
     3
 10
261.92893218813361
 20
56.999999999998352
 30
0.0000000000000127
 11
193.99999999999969
 21
56.999999999998288
 31
0.0000000000000127
210
0.0
220
1.0
230
0.0000000000000002
  0
LINE
  5
41CE
  8
0
  6
CONTINUOUS
 62
     3
 10
193.99999999999969
 20
56.999999999998288
 30
0.0000000000000127
 11
193.99999999999969
 21
66.999999999998408
 31
0.0000000000000149
210
0.0
220
1.0
230
0.0000000000000002
  0
LINE
  5
41CF
  8
0
  6
CONTINUOUS
 62
     3
 10
114.0
 20
81.999999999998181
 30
0.0000000000000182
 11
183.9999999999998
 21
81.999999999998224
 31
0.0000000000000182
210
0.0
220
1.0
230
0.0000000000000002
  0
LINE
  5
41D0
  8
0
  6
CONTINUOUS
 62
     3
 10
183.9999999999998
 20
81.999999999998295
 30
0.0000000000000182
 11
183.9999999999998
 21
71.999999999998295
 31
0.000000000000016
210
0.0
220
1.0
230
0.0000000000000002
  0
LINE
  5
41D1
  8
0
  6
CONTINUOUS
 62
     3
 10
183.9999999999998
 20
71.999999999998238
 30
0.000000000000016
 11
114.0
 21
71.999999999998181
 31
0.000000000000016
210
0.0
220
1.0
230
0.0000000000000002
  0
LINE
  5
41D2
  8
0
  6
CONTINUOUS
 62
     3
 10
114.0
 20
71.999999999998181
 30
0.000000000000016
 11
114.0
 21
81.999999999998181
 31
0.0000000000000182
210
0.0
220
1.0
230
0.0000000000000002
  0
LINE
  5
41D3
  8
0
  6
CONTINUOUS
 62
     3
 10
183.9999999999998
 20
41.999999999998117
 30
0.0000000000000093
 11
113.9999999999997
 21
41.999999999998181
 31
0.0000000000000093
210
0.0
220
1.0
230
0.0000000000000002
  0
LINE
  5
41D4
  8
0
  6
CONTINUOUS
 62
     3
 10
113.9999999999997
 20
41.999999999998181
 30
0.0000000000000093
 11
113.9999999999997
 21
51.999999999998181
 31
0.0000000000000115
210
0.0
220
1.0
230
0.0000000000000002
  0
LINE
  5
41D5
  8
0
  6
CONTINUOUS
 62
     3
 10
113.9999999999997
 20
51.999999999998181
 30
0.0000000000000115
 11
183.9999999999998
 21
51.999999999998117
 31
0.0000000000000115
210
0.0
220
1.0
230
0.0000000000000002
  0
LINE
  5
41D6
  8
0
  6
CONTINUOUS
 62
     3
 10
183.9999999999998
 20
51.999999999998181
 30
0.0000000000000115
 11
183.9999999999998
 21
41.999999999998181
 31
0.0000000000000093
210
0.0
220
1.0
230
0.0000000000000002
  0
LINE
  5
41D7
  8
0
  6
CONTINUOUS
 62
     3
 10
114.0
 20
66.999999999998295
 30
0.0000000000000149
 11
183.9999999999998
 21
66.999999999998352
 31
0.0000000000000149
210
0.0
220
1.0
230
0.0000000000000002
  0
LINE
  5
41D8
  8
0
  6
CONTINUOUS
 62
     3
 10
183.9999999999998
 20
66.999999999998352
 30
0.0000000000000149
 11
183.9999999999998
 21
56.999999999998288
 31
0.0000000000000127
210
0.0
220
1.0
230
0.0000000000000002
  0
LINE
  5
41D9
  8
0
  6
CONTINUOUS
 62
     3
 10
183.9999999999998
 20
56.999999999998352
 30
0.0000000000000127
 11
114.0
 21
56.999999999998288
 31
0.0000000000000127
210
0.0
220
1.0
230
0.0000000000000002
  0
LINE
  5
41DA
  8
0
  6
CONTINUOUS
 62
     3
 10
114.0
 20
56.999999999998181
 30
0.0000000000000127
 11
114.0
 21
66.999999999998238
 31
0.0000000000000149
210
0.0
220
1.0
230
0.0000000000000002
  0
LINE
  5
41DB
  8
0
  6
CONTINUOUS
 62
     3
 10
193.99999999999969
 20
51.999999999998181
 30
0.0000000000000115
 11
256.92893218813327
 21
51.999999999998181
 31
0.0000000000000115
210
0.0
220
1.0
230
0.0000000000000002
  0
LINE
  5
41DC
  8
0
  6
CONTINUOUS
 62
     3
 10
256.92893218813327
 20
51.999999999998117
 30
0.0000000000000115
 11
246.92893218813359
 21
41.999999999998181
 31
0.0000000000000093
210
0.0
220
1.0
230
0.0000000000000002
  0
LINE
  5
41DD
  8
0
  6
CONTINUOUS
 62
     3
 10
246.92893218813359
 20
41.999999999998238
 30
0.0000000000000093
 11
193.99999999999969
 21
41.999999999998181
 31
0.0000000000000093
210
0.0
220
1.0
230
0.0000000000000002
  0
LINE
  5
41DE
  8
0
  6
CONTINUOUS
 62
     3
 10
193.99999999999969
 20
41.999999999998181
 30
0.0000000000000093
 11
193.99999999999969
 21
51.999999999998181
 31
0.0000000000000115
210
0.0
220
1.0
230
0.0000000000000002
  0
LINE
  5
41DF
  8
0
  6
CONTINUOUS
 62
     3
 10
193.99999999999969
 20
81.999999999998295
 30
0.0000000000000182
 11
286.92893218813271
 21
81.999999999998295
 31
0.0000000000000182
210
0.0
220
1.0
230
0.0000000000000002
  0
LINE
  5
41E0
  8
0
  6
CONTINUOUS
 62
     3
 10
286.92893218813271
 20
81.999999999998181
 30
0.0000000000000182
 11
276.9289321881331
 21
71.999999999998181
 31
0.000000000000016
210
0.0
220
1.0
230
0.0000000000000002
  0
LINE
  5
41E1
  8
0
  6
CONTINUOUS
 62
     3
 10
276.9289321881331
 20
71.999999999998238
 30
0.000000000000016
 11
193.99999999999969
 21
71.999999999998181
 31
0.000000000000016
210
0.0
220
1.0
230
0.0000000000000002
  0
LINE
  5
41E2
  8
0
  6
CONTINUOUS
 62
     3
 10
193.99999999999969
 20
71.999999999998181
 30
0.000000000000016
 11
193.99999999999969
 21
81.999999999998224
 31
0.0000000000000182
210
0.0
220
1.0
230
0.0000000000000002
  0
LINE
  5
41E3
  8
0
  6
CONTINUOUS
 62
     3
 10
311.0
 20
102.0000000000018
 30
0.0000000000000226
 11
311.0
 21
99.000000000001648
 31
0.000000000000022
210
0.0
220
1.0
230
0.0000000000000002
  0
LINE
  5
41E4
  8
0
  6
CONTINUOUS
 62
     3
 10
310.0000000000004
 20
102.0000000000018
 30
0.0000000000000226
 11
311.0
 21
102.0000000000018
 31
0.0000000000000226
210
0.0
220
1.0
230
0.0000000000000002
  0
ARC
  5
41E5
  8
0
  6
CONTINUOUS
 62
     3
 10
-113.0000000000002
 20
98.000000000001606
 30
0.0
 40
4.0000000000002274
210
0.0
220
0.0000000000000002
230
-1.0
 50
0.0000000000032569
 51
59.999999999998671
  0
LINE
  5
41E6
  8
0
  6
CONTINUOUS
 62
     3
 10
108.9999999999999
 20
98.000000000001805
 30
0.0000000000000218
 11
111.0
 21
98.000000000001805
 31
0.0000000000000218
210
0.0
220
1.0
230
0.0000000000000002
  0
LINE
  5
41E7
  8
0
  6
CONTINUOUS
 62
     3
 10
109.0
 20
89.000000000001805
 30
0.0000000000000198
 11
109.0
 21
2.0000000000018181
 31
0.0000000000000004
210
0.0
220
1.0
230
0.0000000000000002
  0
LINE
  5
41E8
  8
0
  6
CONTINUOUS
 62
     3
 10
316.99786454863602
 20
-48.611067192628177
 30
-0.0000000000000108
 11
316.99786454863602
 21
-44.473832592844751
 31
-0.0000000000000099
210
0.0
220
1.0
230
0.0000000000000002
  0
LINE
  5
41E9
  8
0
  6
CONTINUOUS
 62
     3
 10
716.05933837453472
 20
31.738899176090111
 30
0.000000000000007
 11
710.8126468950752
 21
-68.373938101812712
 31
-0.0000000000000152
210
0.0
220
1.0
230
0.0000000000000002
  0
LINE
  5
41EA
  8
0
  6
CONTINUOUS
 62
     3
 10
710.81264689507498
 20
-68.373938101812755
 30
-0.0000000000000152
 11
700.78056351886926
 21
-68.72426617291535
 31
-0.0000000000000153
210
0.0
220
1.0
230
0.0000000000000002
  0
LINE
  5
41EB
  8
0
  6
CONTINUOUS
 62
     3
 10
716.05933837453472
 20
31.738899176090079
 30
0.000000000000007
 11
706.11883105564993
 21
33.135946372051563
 31
0.0000000000000074
210
0.0
220
1.0
230
0.0000000000000002
  0
LINE
  5
41EC
  8
0
  6
CONTINUOUS
 62
     3
 10
700.78056351886937
 20
-68.724266172911314
 30
-0.0000000000000153
 11
316.99786454863602
 21
-48.611067192628177
 31
-0.0000000000000108
210
0.0
220
1.0
230
0.0000000000000002
  0
LINE
  5
41ED
  8
0
  6
CONTINUOUS
 62
     3
 10
706.11883105564971
 20
33.135946372047627
 30
0.0000000000000074
 11
316.99786454863619
 21
53.52891209915218
 31
0.0000000000000119
210
0.0
220
1.0
230
0.0000000000000002
  0
ARC
  5
41EE
  8
0
  6
CONTINUOUS
 62
     3
 10
-313.00000000000068
 20
102.8284271247459
 30
0.0
 40
3.999999999999317
210
0.0
220
0.0000000000000002
230
-1.0
 50
179.99999999999511
 51
225.00000000000341
  0
ARC
  5
41EF
  8
0
  6
CONTINUOUS
 62
     3
 10
313.00000000000028
 20
102.8284271247457
 30
0.0000000000000228
 40
1.999999999999051
 50
315.00000000001842
 51
0.000000000029298
  0
LINE
  5
41F0
  8
0
  6
CONTINUOUS
 62
     3
 10
315.82842712474621
 20
100.0
 30
0.0000000000000222
 11
216.99999999999949
 21
1.1715728752539001
 31
0.0000000000000003
210
0.0
220
1.0
230
0.0000000000000002
  0
LINE
  5
41F1
  8
0
  6
CONTINUOUS
 62
     3
 10
215.58578643762669
 20
2.5857864376267221
 30
0.0000000000000006
 11
314.41421356237311
 21
101.4142135623736
 31
0.0000000000000225
210
0.0
220
1.0
230
0.0000000000000002
  0
ARC
  5
41F2
  8
0
  6
CONTINUOUS
 62
     3
 10
-214.1715728752533
 20
4.0000000000001128
 30
0.0
 40
4.0000000000000311
210
0.0
220
0.0000000000000002
230
-1.0
 50
225.0
 51
270.0
  0
LINE
  5
41F3
  8
0
  6
CONTINUOUS
 62
     3
 10
0.0
 20
2.000000000000056
 30
0.0000000000000004
 11
214.1715728752533
 21
2.000000000000056
 31
0.0000000000000004
210
0.0
220
1.0
230
0.0000000000000002
  0
LINE
  5
41F4
  8
0
  6
CONTINUOUS
 62
     3
 10
214.1715728752533
 20
0.0000000000000568
 30
0.0
 11
0.0
 21
0.0000000000000568
 31
0.0
210
0.0
220
1.0
230
0.0000000000000002
  0
LINE
  5
41F5
  8
0
  6
CONTINUOUS
 62
     3
 10
0.0
 20
0.0000000000000568
 30
0.0
 11
0.0
 21
2.000000000000056
 31
0.0000000000000004
210
0.0
220
1.0
230
0.0000000000000002
  0
ARC
  5
41F6
  8
0
  6
CONTINUOUS
 62
     3
 10
214.17157287525399
 20
3.9999999999996581
 30
0.0000000000000009
 40
1.9999999999996021
 50
270.0
 51
315.00000000001381
  0
LINE
  5
41F7
  8
0
  6
CONTINUOUS
 62
     3
 10
314.99999999999949
 20
102.8284271247467
 30
0.0000000000000228
 11
315.0
 21
217.00000000000011
 31
0.0000000000000482
210
0.0
220
1.0
230
0.0000000000000002
  0
LINE
  5
41F8
  8
0
  6
CONTINUOUS
 62
     3
 10
315.0
 20
217.00000000000011
 30
0.0000000000000482
 11
317.0
 21
217.00000000000011
 31
0.0000000000000482
210
0.0
220
1.0
230
0.0000000000000002
  0
LINE
  5
41F9
  8
0
  6
CONTINUOUS
 62
     3
 10
317.0
 20
217.00000000000011
 30
0.0000000000000482
 11
317.0
 21
102.8284271247462
 31
0.0000000000000228
210
0.0
220
1.0
230
0.0000000000000002
  0
LINE
  5
41FA
  8
0
  6
CONTINUOUS
 62
     3
 10
316.9979277213792
 20
102.6996873304828
 30
0.0000000000000228
 11
317.82629167339383
 21
102.69774028241
 31
0.0000000000000228
210
0.0
220
1.0
230
0.0000000000000002
  0
LINE
  5
41FB
  8
0
  6
CONTINUOUS
 62
     3
 10
317.82629167339343
 20
102.6977402824099
 30
0.0000000000000228
 11
316.99786454863602
 21
102.1119538447748
 31
0.0000000000000227
210
0.0
220
1.0
230
0.0000000000000002
  0
LINE
  5
41FC
  8
0
  6
CONTINUOUS
 62
     3
 10
316.99786454863602
 20
102.6977402824092
 30
0.0000000000000228
 11
316.99786454863602
 21
-44.473832592844751
 31
-0.0000000000000099
210
0.0
220
1.0
230
0.0000000000000002
  0
LINE
  5
41FD
  8
0
  6
CONTINUOUS
 62
     3
 10
116.997864548636
 20
-48.473832592844758
 30
-0.0000000000000108
 11
312.99786454863602
 21
-48.473832592844758
 31
-0.0000000000000108
210
0.0
220
1.0
230
0.0000000000000002
  0
ARC
  5
41FE
  8
0
  6
CONTINUOUS
 62
     3
 10
312.99786454863602
 20
-44.473832592844751
 30
-0.0000000000000099
 40
4.0
 50
270.0
 51
0.0
  0
ARC
  5
41FF
  8
0
  6
CONTINUOUS
 62
     3
 10
116.997864548636
 20
-44.473832592844751
 30
-0.0000000000000099
 40
4.0
 50
180.0
 51
270.0
  0
LINE
  5
4200
  8
0
  6
CONTINUOUS
 62
     3
 10
112.997864548636
 20
-44.473832592844751
 30
-0.0000000000000099
 11
112.997864548636
 21
0.0000000000000568
 31
0.0
210
0.0
220
1.0
230
0.0000000000000002
  0
LINE
  5
4201
  8
0
  6
VERDECKT
 62
     1
 10
310.0000000000004
 20
102.0000000000021
 30
0.0000000000000226
 11
111.0
 21
102.0000000000021
 31
0.0000000000000226
210
0.0
220
1.0
230
0.0000000000000002
  0
LINE
  5
4202
  8
0
  6
VERDECKT
 62
     1
 10
113.0000000000025
 20
98.000000000001805
 30
0.0000000000000218
 11
113.0000000000025
 21
102.0000000000018
 31
0.0000000000000226
210
0.0
220
1.0
230
0.0000000000000002
  0
ARC
  5
4203
  8
0
  6
VERDECKT
 62
     1
 10
-112.9999999999997
 20
98.000000000002444
 30
0.0
 40
3.9999999999993281
210
0.0
220
0.0000000000000002
230
-1.0
 50
59.999999999998202
 51
90.000000000003254
  0
ARC
  5
4204
  8
0
  6
VERDECKT
 62
     1
 10
112.9999999999997
 20
98.00000000000189
 30
0.0000000000000218
 40
1.9999999999999429
 50
89.999999999993491
 51
180.00000000000151
  0
LINE
  5
4205
  8
0
  6
VERDECKT
 62
     1
 10
111.0
 20
98.000000000001805
 30
0.0000000000000218
 11
113.0
 21
98.000000000001805
 31
0.0000000000000218
210
0.0
220
1.0
230
0.0000000000000002
  0
LINE
  5
4206
  8
0
  6
VERDECKT
 62
     1
 10
111.0
 20
2.0000000000018181
 30
0.0000000000000004
 11
111.0
 21
89.000000000002174
 31
0.0000000000000198
210
0.0
220
1.0
230
0.0000000000000002
  0
LINE
  5
4207
  8
0
  6
VERDECKT
 62
     1
 10
113.0
 20
100.0000000000018
 30
0.0000000000000222
 11
311.0
 21
100.0000000000018
 31
0.0000000000000222
210
0.0
220
1.0
230
0.0000000000000002
  0
LINE
  5
4208
  8
0
  6
VERDECKT
 62
     1
 10
119.0000000000025
 20
102.0000000000018
 30
0.0000000000000226
 11
119.0000000000025
 21
100.0000000000018
 31
0.0000000000000222
210
0.0
220
1.0
230
0.0000000000000002
  0
LINE
  5
4209
  8
0
  6
VERDECKT
 62
     1
 10
111.0
 20
66.999999999999886
 30
0.0000000000000149
 11
109.0
 21
66.999999999999886
 31
0.0000000000000149
210
0.0
220
1.0
230
0.0000000000000002
  0
LINE
  5
420A
  8
0
  6
VERDECKT
 62
     1
 10
111.0
 20
56.999999999999879
 30
0.0000000000000127
 11
109.0
 21
56.999999999999879
 31
0.0000000000000127
210
0.0
220
1.0
230
0.0000000000000002
  0
LINE
  5
420B
  8
0
  6
VERDECKT
 62
     1
 10
111.0
 20
71.999999999999886
 30
0.000000000000016
 11
109.0
 21
71.999999999999886
 31
0.000000000000016
210
0.0
220
1.0
230
0.0000000000000002
  0
LINE
  5
420C
  8
0
  6
VERDECKT
 62
     1
 10
111.0
 20
81.999999999999886
 30
0.0000000000000182
 11
109.0
 21
81.999999999999886
 31
0.0000000000000182
210
0.0
220
1.0
230
0.0000000000000002
  0
LINE
  5
420D
  8
0
  6
VERDECKT
 62
     1
 10
111.0
 20
42.0
 30
0.0000000000000093
 11
109.0
 21
42.0
 31
0.0000000000000093
210
0.0
220
1.0
230
0.0000000000000002
  0
LINE
  5
420E
  8
0
  6
VERDECKT
 62
     1
 10
111.0
 20
51.999999999999879
 30
0.0000000000000115
 11
109.0
 21
51.999999999999879
 31
0.0000000000000115
210
0.0
220
1.0
230
0.0000000000000002
  0
LINE
  5
420F
  8
0
  6
VERDECKT
 62
     1
 10
700.79803321715212
 20
-66.72243702900613
 30
-0.0000000000000148
 11
316.99786454863602
 21
-46.608322500631239
 31
-0.0000000000000103
210
0.0
220
1.0
230
0.0000000000000002
  0
LINE
  5
4210
  8
0
  6
VERDECKT
 62
     1
 10
705.92695692896041
 20
31.143257376932311
 30
0.0000000000000069
 11
316.99786454863602
 21
51.526167407155206
 31
0.0000000000000114
210
0.0
220
1.0
230
0.0000000000000002
  0
LINE
  5
4211
  8
0
  6
VERDECKT
 62
     1
 10
710.91771863726206
 20
-66.369049827125934
 30
-0.0000000000000147
 11
700.79803321715167
 21
-66.722437029011203
 31
-0.0000000000000148
210
0.0
220
1.0
230
0.0000000000000002
  0
LINE
  5
4212
  8
0
  6
VERDECKT
 62
     1
 10
715.95426663234775
 20
29.734010901403259
 30
0.0000000000000066
 11
705.92695692896064
 21
31.143257376937338
 31
0.0000000000000069
210
0.0
220
1.0
230
0.0000000000000002
  0
LINE
  5
4213
  8
0
  6
VERDECKT
 62
     1
 10
314.99786454864761
 20
102.6977402824092
 30
0.0000000000000228
 11
314.99572566983471
 21
102.6977402824092
 31
0.0000000000000228
210
0.0
220
1.0
230
0.0000000000000002
  0
LINE
  5
4214
  8
0
  6
VERDECKT
 62
     1
 10
316.92567357816978
 20
102.0609071200177
 30
0.0000000000000227
 11
314.99786454864721
 21
100.6977402824091
 31
0.0000000000000224
210
0.0
220
1.0
230
0.0000000000000002
  0
LINE
  5
4215
  8
0
  6
VERDECKT
 62
     1
 10
314.99786454864761
 20
100.6977402824092
 30
0.0000000000000224
 11
314.99786454864761
 21
102.6977402824092
 31
0.0000000000000228
210
0.0
220
1.0
230
0.0000000000000002
  0
LINE
  5
4216
  8
0
  6
VERDECKT
 62
     1
 10
127.0
 20
2.0
 30
0.0000000000000004
 11
127.0
 21
0.0
 31
0.0
210
0.0
220
1.0
230
0.0000000000000002
  0
LINE
  5
4217
  8
0
  6
VERDECKT
 62
     1
 10
115.0
 20
2.0
 30
0.0000000000000004
 11
115.0
 21
0.0
 31
0.0
210
0.0
220
1.0
230
0.0000000000000002
  0
LINE
  5
4218
  8
0
  6
VERDECKT
 62
     1
 10
212.0
 20
2.0
 30
0.0000000000000004
 11
212.0
 21
0.0
 31
0.0
210
0.0
220
1.0
230
0.0000000000000002
  0
LINE
  5
4219
  8
0
  6
VERDECKT
 62
     1
 10
193.99999999999969
 20
2.0
 30
0.0000000000000004
 11
193.99999999999969
 21
0.0
 31
0.0
210
0.0
220
1.0
230
0.0000000000000002
  0
LINE
  5
421A
  8
0
  6
VERDECKT
 62
     1
 10
316.99786454863602
 20
102.1119538447748
 30
0.0000000000000227
 11
316.92567357816978
 21
102.0609071200177
 31
0.0000000000000227
210
0.0
220
1.0
230
0.0000000000000002
  0
LINE
  5
421B
  8
0
  6
VERDECKT
 62
     1
 10
317.0
 20
163.5
 30
0.0000000000000363
 11
314.99999999999977
 21
161.4999999999998
 31
0.0000000000000359
210
0.0
220
1.0
230
0.0000000000000002
  0
LINE
  5
421C
  8
0
  6
VERDECKT
 62
     1
 10
317.0
 20
170.5
 30
0.0000000000000379
 11
315.0
 21
172.5
 31
0.0000000000000383
210
0.0
220
1.0
230
0.0000000000000002
  0
LINE
  5
421D
  8
0
  6
VERDECKT
 62
     1
 10
46.499999999999979
 20
0.0000000000000717
 30
0.0
 11
44.5
 21
2.000000000000056
 31
0.0000000000000004
210
0.0
220
1.0
230
0.0000000000000002
  0
LINE
  5
421E
  8
0
  6
VERDECKT
 62
     1
 10
53.5
 20
0.0000000000000573
 30
0.0
 11
55.5
 21
2.000000000000056
 31
0.0000000000000004
210
0.0
220
1.0
230
0.0000000000000002
  0
LINE
  5
421F
  8
0
  6
VERDECKT
 62
     1
 10
161.5
 20
0.0000000000000717
 30
0.0
 11
159.5
 21
2.000000000000056
 31
0.0000000000000004
210
0.0
220
1.0
230
0.0000000000000002
  0
LINE
  5
4220
  8
0
  6
VERDECKT
 62
     1
 10
168.5
 20
0.0000000000000573
 30
0.0
 11
170.5
 21
2.000000000000056
 31
0.0000000000000004
210
0.0
220
1.0
230
0.0000000000000002
  0
LINE
  5
4221
  8
0
  6
VERDECKT
 62
     1
 10
123.40000000000001
 20
2.0
 30
0.0000000000000004
 11
123.40000000000001
 21
0.0
 31
0.0
210
0.0
220
1.0
230
0.0000000000000002
  0
LINE
  5
4222
  8
0
  6
VERDECKT
 62
     1
 10
118.59999999999999
 20
2.0
 30
0.0000000000000004
 11
118.59999999999999
 21
0.0
 31
0.0
210
0.0
220
1.0
230
0.0000000000000002
  0
LINE
  5
4223
  8
0
  6
VERDECKT
 62
     1
 10
314.99786454863562
 20
100.6977402824083
 30
0.0000000000000224
 11
314.99786454863653
 21
-44.473832592844751
 31
-0.0000000000000099
210
0.0
220
1.0
230
0.0000000000000002
  0
ARC
  5
4224
  8
0
  6
VERDECKT
 62
     1
 10
312.99786454863653
 20
-44.473832592844751
 30
-0.0000000000000099
 40
2.0
 50
270.0
 51
0.0000000000002036
  0
LINE
  5
4225
  8
0
  6
VERDECKT
 62
     1
 10
312.99786454863653
 20
-46.473832592844758
 30
-0.0000000000000103
 11
116.9978645486364
 21
-46.473832592844758
 31
-0.0000000000000103
210
0.0
220
1.0
230
0.0000000000000002
  0
ARC
  5
4226
  8
0
  6
VERDECKT
 62
     1
 10
116.9978645486364
 20
-44.473832592844751
 30
-0.0000000000000099
 40
2.0
 50
180.0000000000006
 51
270.0
  0
LINE
  5
4227
  8
0
  6
VERDECKT
 62
     1
 10
114.9978645486364
 20
-44.473832592844751
 30
-0.0000000000000099
 11
114.997864548636
 21
1.5261674071551281
 31
0.0000000000000003
210
0.0
220
1.0
230
0.0000000000000002
  0
LINE
  5
4228
  8
0
  6
VERDECKT
 62
     1
 10
216.99786454863559
 20
2.6977402824089718
 30
0.0000000000000006
 11
316.99786454863602
 21
102.6977402824092
 31
0.0000000000000228
210
0.0
220
1.0
230
0.0000000000000002
  0
ARC
  5
4229
  8
0
  6
VERDECKT
 62
     1
 10
214.16943742388929
 20
5.5261674071554694
 30
0.0000000000000012
 40
4.0000000000002842
 50
270.0
 51
314.9999999999971
  0
LINE
  5
422A
  8
0
  6
VERDECKT
 62
     1
 10
112.997864548636
 20
0.0000000000000568
 30
0.0
 11
112.997864548636
 21
1.5261674071551281
 31
0.0000000000000003
210
0.0
220
1.0
230
0.0000000000000002
  0
LINE
  5
422B
  8
0
  6
VERDECKT
 62
     1
 10
112.997864548636
 20
1.5261674071551281
 30
0.0000000000000003
 11
214.16943742388929
 21
1.5261674071551281
 31
0.0000000000000003
210
0.0
220
1.0
230
0.0000000000000002
  0
LINE
  5
422C
  8
0
  6
VERDECKT
 62
     1
 10
316.4619661637737
 20
-46.473832592844758
 30
-0.0000000000000103
 11
312.99786454863653
 21
-46.473832592844758
 31
-0.0000000000000103
210
0.0
220
1.0
230
0.0000000000000002
  0
LINE
  5
422D
  8
0
  6
VERDECKT
 62
     1
 10
316.99786454863602
 20
51.526167407155242
 30
0.0000000000000114
 11
314.99786454863528
 21
51.526167407155242
 31
0.0000000000000114
210
0.0
220
1.0
230
0.0000000000000002
  0
ENDBLK
  5
422F
  8
0
  0
BLOCK
  8
0
  2
A$C64592669
 70
     0
 10
0.0
 20
0.0
 30
0.0
  3
A$C64592669
  1

  0
ARC
  5
4233
  8
0
  6
CONTINUOUS
 62
     3
 10
308.59999999999991
 20
129.10000000000011
 30
0.0000000000000711
 40
3.3999999999998871
 50
0.0
 51
90.000000000000469
  0
LINE
  5
4234
  8
0
  6
CONTINUOUS
 62
     3
 10
312.0
 20
-129.10000000000011
 30
0.0000000000000711
 11
312.0
 21
129.10000000000011
 31
0.0000000000000711
  0
ARC
  5
4235
  8
0
  6
CONTINUOUS
 62
     3
 10
308.60000000000059
 20
-129.10000000000011
 30
0.0000000000000711
 40
3.3999999999999022
 50
269.99999999999949
 51
0.0
  0
LINE
  5
4236
  8
0
  6
CONTINUOUS
 62
     3
 10
107.0000000000001
 20
128.5
 30
0.0000000000000284
 11
111.0
 21
128.5
 31
0.0000000000000284
  0
LINE
  5
4237
  8
0
  6
CONTINUOUS
 62
     3
 10
111.0
 20
-128.5
 30
0.0000000000000284
 11
107.0
 21
-128.5
 31
0.0000000000000284
  0
LINE
  5
4238
  8
0
  6
CONTINUOUS
 62
     3
 10
107.0
 20
128.5
 30
0.0000000000000284
 11
107.0
 21
-128.5
 31
0.0000000000000284
  0
LINE
  5
4239
  8
0
  6
CONTINUOUS
 62
     3
 10
111.0
 20
-132.5
 30
0.0000000000000284
 11
111.0
 21
-129.10000000000011
 31
0.0000000000000284
  0
LINE
  5
423A
  8
0
  6
CONTINUOUS
 62
     3
 10
111.0
 20
-128.5
 30
0.0000000000000284
 11
111.0
 21
-129.10000000000011
 31
0.0000000000000284
  0
LINE
  5
423B
  8
0
  6
CONTINUOUS
 62
     3
 10
111.0
 20
129.10000000000011
 30
0.0000000000000284
 11
111.0
 21
132.5
 31
0.0000000000000284
  0
LINE
  5
423C
  8
0
  6
CONTINUOUS
 62
     3
 10
111.0
 20
129.10000000000011
 30
0.0000000000000284
 11
111.0
 21
128.5
 31
0.0000000000000284
  0
LINE
  5
423D
  8
0
  6
CONTINUOUS
 62
     3
 10
308.60000000000059
 20
-132.5
 30
0.0000000000000711
 11
111.0
 21
-132.5
 31
0.0000000000000216
  0
LINE
  5
423E
  8
0
  6
CONTINUOUS
 62
     3
 10
308.59999999999991
 20
132.5
 30
0.0000000000000711
 11
111.0
 21
132.5
 31
0.0000000000000216
  0
ARC
  5
423F
  8
0
  6
CONTINUOUS
 62
     3
 10
-112.9999999999977
 20
-126.0000000000033
 30
-0.0000000000000001
 40
3.9999999999963851
210
0.0000000000000003
220
0.0
230
-1.0
 50
299.99999999999233
 51
321.3178125465289
  0
ARC
  5
4240
  8
0
  6
CONTINUOUS
 62
     3
 10
-112.9999999999982
 20
126.0000000000027
 30
-0.0000000000000001
 40
3.9999999999970841
210
0.0000000000000003
220
0.0
230
-1.0
 50
38.682187453472558
 51
60.000000000005826
  0
POLYLINE
  5
4241
  8
0
  6
CONTINUOUS
 62
     3
 10
716.0593383745346
 20
0.0000000000003581
 30
0.0000000000001776
 66
     1
 70
     8
  0
VERTEX
  8
0
  5
4367
 10
716.059
 20
3.58115e-013
 30
1.77600e-013
  70
    32
  0
VERTEX
  8
0
  5
4368
 10
716.059
 20
0.613317
 30
1.77600e-013
  70
    32
  0
VERTEX
  8
0
  5
4369
 10
716.059
 20
1.22654
 30
1.77600e-013
  70
    32
  0
VERTEX
  8
0
  5
436A
 10
716.058
 20
1.83958
 30
1.77600e-013
  70
    32
  0
VERTEX
  8
0
  5
436B
 10
716.056
 20
2.45235
 30
1.77600e-013
  70
    32
  0
VERTEX
  8
0
  5
436C
 10
716.054
 20
3.06475
 30
1.77600e-013
  70
    32
  0
VERTEX
  8
0
  5
436D
 10
716.052
 20
3.67669
 30
1.77600e-013
  70
    32
  0
VERTEX
  8
0
  5
436E
 10
716.050
 20
4.28808
 30
1.77600e-013
  70
    32
  0
VERTEX
  8
0
  5
436F
 10
716.047
 20
4.89882
 30
1.77600e-013
  70
    32
  0
VERTEX
  8
0
  5
4370
 10
716.043
 20
5.50884
 30
1.77600e-013
  70
    32
  0
VERTEX
  8
0
  5
4371
 10
716.040
 20
6.11803
 30
1.77600e-013
  70
    32
  0
VERTEX
  8
0
  5
4372
 10
716.036
 20
6.72630
 30
1.77600e-013
  70
    32
  0
VERTEX
  8
0
  5
4373
 10
716.031
 20
7.33357
 30
1.77600e-013
  70
    32
  0
VERTEX
  8
0
  5
4374
 10
716.026
 20
7.93974
 30
1.77600e-013
  70
    32
  0
VERTEX
  8
0
  5
4375
 10
716.021
 20
8.54472
 30
1.77600e-013
  70
    32
  0
VERTEX
  8
0
  5
4376
 10
716.015
 20
9.14842
 30
1.77600e-013
  70
    32
  0
VERTEX
  8
0
  5
4377
 10
716.009
 20
9.75075
 30
1.77600e-013
  70
    32
  0
VERTEX
  8
0
  5
4378
 10
716.003
 20
10.3516
 30
1.77600e-013
  70
    32
  0
VERTEX
  8
0
  5
4379
 10
715.996
 20
10.9509
 30
1.77600e-013
  70
    32
  0
VERTEX
  8
0
  5
437A
 10
715.989
 20
11.5486
 30
1.77600e-013
  70
    32
  0
VERTEX
  8
0
  5
437B
 10
715.981
 20
12.1446
 30
1.77600e-013
  70
    32
  0
VERTEX
  8
0
  5
437C
 10
715.973
 20
12.7387
 30
1.77600e-013
  70
    32
  0
VERTEX
  8
0
  5
437D
 10
715.965
 20
13.3309
 30
1.77600e-013
  70
    32
  0
VERTEX
  8
0
  5
437E
 10
715.956
 20
13.9212
 30
1.77600e-013
  70
    32
  0
VERTEX
  8
0
  5
437F
 10
715.947
 20
14.5093
 30
1.77600e-013
  70
    32
  0
VERTEX
  8
0
  5
4380
 10
715.938
 20
15.0953
 30
1.77600e-013
  70
    32
  0
VERTEX
  8
0
  5
4381
 10
715.928
 20
15.6790
 30
1.77600e-013
  70
    32
  0
VERTEX
  8
0
  5
4382
 10
715.917
 20
16.2604
 30
1.77600e-013
  70
    32
  0
VERTEX
  8
0
  5
4383
 10
715.907
 20
16.8393
 30
1.77600e-013
  70
    32
  0
VERTEX
  8
0
  5
4384
 10
715.896
 20
17.4157
 30
1.77600e-013
  70
    32
  0
VERTEX
  8
0
  5
4385
 10
715.885
 20
17.9895
 30
1.77600e-013
  70
    32
  0
VERTEX
  8
0
  5
4386
 10
715.873
 20
18.5606
 30
1.77600e-013
  70
    32
  0
VERTEX
  8
0
  5
4387
 10
715.861
 20
19.1290
 30
1.77600e-013
  70
    32
  0
VERTEX
  8
0
  5
4388
 10
715.848
 20
19.6944
 30
1.77600e-013
  70
    32
  0
VERTEX
  8
0
  5
4389
 10
715.836
 20
20.2569
 30
1.77600e-013
  70
    32
  0
VERTEX
  8
0
  5
438A
 10
715.822
 20
20.8164
 30
1.77600e-013
  70
    32
  0
VERTEX
  8
0
  5
438B
 10
715.809
 20
21.3728
 30
1.77600e-013
  70
    32
  0
VERTEX
  8
0
  5
438C
 10
715.795
 20
21.9260
 30
1.77600e-013
  70
    32
  0
VERTEX
  8
0
  5
438D
 10
715.781
 20
22.4759
 30
1.77600e-013
  70
    32
  0
VERTEX
  8
0
  5
438E
 10
715.766
 20
23.0224
 30
1.77600e-013
  70
    32
  0
VERTEX
  8
0
  5
438F
 10
715.751
 20
23.5654
 30
1.77600e-013
  70
    32
  0
VERTEX
  8
0
  5
4390
 10
715.736
 20
24.1050
 30
1.77600e-013
  70
    32
  0
VERTEX
  8
0
  5
4391
 10
715.720
 20
24.6409
 30
1.77600e-013
  70
    32
  0
VERTEX
  8
0
  5
4392
 10
715.705
 20
25.1732
 30
1.77600e-013
  70
    32
  0
VERTEX
  8
0
  5
4393
 10
715.688
 20
25.7017
 30
1.77600e-013
  70
    32
  0
VERTEX
  8
0
  5
4394
 10
715.672
 20
26.2263
 30
1.77600e-013
  70
    32
  0
VERTEX
  8
0
  5
4395
 10
715.655
 20
26.7470
 30
1.77600e-013
  70
    32
  0
VERTEX
  8
0
  5
4396
 10
715.637
 20
27.2637
 30
1.77600e-013
  70
    32
  0
VERTEX
  8
0
  5
4397
 10
715.620
 20
27.7763
 30
1.77600e-013
  70
    32
  0
VERTEX
  8
0
  5
4398
 10
715.602
 20
28.2848
 30
1.77600e-013
  70
    32
  0
VERTEX
  8
0
  5
4399
 10
715.584
 20
28.7890
 30
1.77600e-013
  70
    32
  0
VERTEX
  8
0
  5
439A
 10
715.565
 20
29.2889
 30
1.77600e-013
  70
    32
  0
VERTEX
  8
0
  5
439B
 10
715.546
 20
29.7844
 30
1.77600e-013
  70
    32
  0
VERTEX
  8
0
  5
439C
 10
715.527
 20
30.2755
 30
1.77600e-013
  70
    32
  0
VERTEX
  8
0
  5
439D
 10
715.507
 20
30.7621
 30
1.77600e-013
  70
    32
  0
VERTEX
  8
0
  5
439E
 10
715.487
 20
31.2440
 30
1.77600e-013
  70
    32
  0
VERTEX
  8
0
  5
439F
 10
715.467
 20
31.7212
 30
1.77600e-013
  70
    32
  0
VERTEX
  8
0
  5
43A0
 10
715.447
 20
32.1938
 30
1.77600e-013
  70
    32
  0
VERTEX
  8
0
  5
43A1
 10
715.426
 20
32.6614
 30
1.77600e-013
  70
    32
  0
VERTEX
  8
0
  5
43A2
 10
715.405
 20
33.1242
 30
1.77600e-013
  70
    32
  0
VERTEX
  8
0
  5
43A3
 10
715.384
 20
33.5821
 30
1.77600e-013
  70
    32
  0
VERTEX
  8
0
  5
43A4
 10
715.362
 20
34.0349
 30
1.77600e-013
  70
    32
  0
VERTEX
  8
0
  5
43A5
 10
715.340
 20
34.4826
 30
1.77600e-013
  70
    32
  0
VERTEX
  8
0
  5
43A6
 10
715.318
 20
34.9251
 30
1.77600e-013
  70
    32
  0
VERTEX
  8
0
  5
43A7
 10
715.295
 20
35.3625
 30
1.77600e-013
  70
    32
  0
VERTEX
  8
0
  5
43A8
 10
715.272
 20
35.7945
 30
1.77600e-013
  70
    32
  0
VERTEX
  8
0
  5
43A9
 10
715.249
 20
36.2212
 30
1.77600e-013
  70
    32
  0
VERTEX
  8
0
  5
43AA
 10
715.226
 20
36.6424
 30
1.77600e-013
  70
    32
  0
VERTEX
  8
0
  5
43AB
 10
715.202
 20
37.0582
 30
1.77600e-013
  70
    32
  0
VERTEX
  8
0
  5
43AC
 10
715.179
 20
37.4684
 30
1.77600e-013
  70
    32
  0
VERTEX
  8
0
  5
43AD
 10
715.154
 20
37.8730
 30
1.77600e-013
  70
    32
  0
VERTEX
  8
0
  5
43AE
 10
715.130
 20
38.2719
 30
1.77600e-013
  70
    32
  0
VERTEX
  8
0
  5
43AF
 10
715.105
 20
38.6651
 30
1.77600e-013
  70
    32
  0
VERTEX
  8
0
  5
43B0
 10
715.081
 20
39.0525
 30
1.77600e-013
  70
    32
  0
VERTEX
  8
0
  5
43B1
 10
715.055
 20
39.4341
 30
1.77600e-013
  70
    32
  0
VERTEX
  8
0
  5
43B2
 10
715.030
 20
39.8097
 30
1.77600e-013
  70
    32
  0
VERTEX
  8
0
  5
43B3
 10
715.004
 20
40.1794
 30
1.77600e-013
  70
    32
  0
VERTEX
  8
0
  5
43B4
 10
714.979
 20
40.5431
 30
1.77600e-013
  70
    32
  0
VERTEX
  8
0
  5
43B5
 10
714.953
 20
40.9007
 30
1.77600e-013
  70
    32
  0
VERTEX
  8
0
  5
43B6
 10
714.926
 20
41.2522
 30
1.77600e-013
  70
    32
  0
VERTEX
  8
0
  5
43B7
 10
714.900
 20
41.5975
 30
1.77600e-013
  70
    32
  0
VERTEX
  8
0
  5
43B8
 10
714.873
 20
41.9366
 30
1.77600e-013
  70
    32
  0
VERTEX
  8
0
  5
43B9
 10
714.846
 20
42.2694
 30
1.77600e-013
  70
    32
  0
VERTEX
  8
0
  5
43BA
 10
714.819
 20
42.5959
 30
1.77600e-013
  70
    32
  0
VERTEX
  8
0
  5
43BB
 10
714.791
 20
42.9160
 30
1.77600e-013
  70
    32
  0
VERTEX
  8
0
  5
43BC
 10
714.764
 20
43.2297
 30
1.77600e-013
  70
    32
  0
VERTEX
  8
0
  5
43BD
 10
714.736
 20
43.5369
 30
1.77600e-013
  70
    32
  0
VERTEX
  8
0
  5
43BE
 10
714.708
 20
43.8376
 30
1.77600e-013
  70
    32
  0
VERTEX
  8
0
  5
43BF
 10
714.680
 20
44.1317
 30
1.77600e-013
  70
    32
  0
VERTEX
  8
0
  5
43C0
 10
714.652
 20
44.4192
 30
1.77600e-013
  70
    32
  0
VERTEX
  8
0
  5
43C1
 10
714.623
 20
44.7001
 30
1.77600e-013
  70
    32
  0
VERTEX
  8
0
  5
43C2
 10
714.594
 20
44.9743
 30
1.77600e-013
  70
    32
  0
VERTEX
  8
0
  5
43C3
 10
714.565
 20
45.2417
 30
1.77600e-013
  70
    32
  0
VERTEX
  8
0
  5
43C4
 10
714.536
 20
45.5024
 30
1.77600e-013
  70
    32
  0
VERTEX
  8
0
  5
43C5
 10
714.507
 20
45.7562
 30
1.77600e-013
  70
    32
  0
VERTEX
  8
0
  5
43C6
 10
714.478
 20
46.0032
 30
1.77600e-013
  70
    32
  0
VERTEX
  8
0
  5
43C7
 10
714.448
 20
46.2433
 30
1.77600e-013
  70
    32
  0
VERTEX
  8
0
  5
43C8
 10
714.419
 20
46.4765
 30
1.77600e-013
  70
    32
  0
VERTEX
  8
0
  5
43C9
 10
714.389
 20
46.7028
 30
1.77600e-013
  70
    32
  0
VERTEX
  8
0
  5
43CA
 10
714.359
 20
46.9220
 30
1.77600e-013
  70
    32
  0
VERTEX
  8
0
  5
43CB
 10
714.329
 20
47.1342
 30
1.77600e-013
  70
    32
  0
VERTEX
  8
0
  5
43CC
 10
714.298
 20
47.3394
 30
1.77600e-013
  70
    32
  0
VERTEX
  8
0
  5
43CD
 10
714.268
 20
47.5374
 30
1.77600e-013
  70
    32
  0
VERTEX
  8
0
  5
43CE
 10
714.237
 20
47.7284
 30
1.77600e-013
  70
    32
  0
VERTEX
  8
0
  5
43CF
 10
714.207
 20
47.9122
 30
1.77600e-013
  70
    32
  0
VERTEX
  8
0
  5
43D0
 10
714.176
 20
48.0888
 30
1.77600e-013
  70
    32
  0
VERTEX
  8
0
  5
43D1
 10
714.145
 20
48.2583
 30
1.77600e-013
  70
    32
  0
VERTEX
  8
0
  5
43D2
 10
714.114
 20
48.4205
 30
1.77600e-013
  70
    32
  0
VERTEX
  8
0
  5
43D3
 10
714.083
 20
48.5754
 30
1.77600e-013
  70
    32
  0
VERTEX
  8
0
  5
43D4
 10
714.052
 20
48.7231
 30
1.77600e-013
  70
    32
  0
VERTEX
  8
0
  5
43D5
 10
714.021
 20
48.8635
 30
1.77600e-013
  70
    32
  0
VERTEX
  8
0
  5
43D6
 10
713.990
 20
48.9966
 30
1.77600e-013
  70
    32
  0
VERTEX
  8
0
  5
43D7
 10
713.958
 20
49.1223
 30
1.77600e-013
  70
    32
  0
VERTEX
  8
0
  5
43D8
 10
713.927
 20
49.2407
 30
1.77600e-013
  70
    32
  0
VERTEX
  8
0
  5
43D9
 10
713.895
 20
49.3517
 30
1.77600e-013
  70
    32
  0
VERTEX
  8
0
  5
43DA
 10
713.863
 20
49.4554
 30
1.77600e-013
  70
    32
  0
VERTEX
  8
0
  5
43DB
 10
713.832
 20
49.5516
 30
1.77600e-013
  70
    32
  0
VERTEX
  8
0
  5
43DC
 10
713.800
 20
49.6404
 30
1.77600e-013
  70
    32
  0
VERTEX
  8
0
  5
43DD
 10
713.768
 20
49.7218
 30
1.77600e-013
  70
    32
  0
VERTEX
  8
0
  5
43DE
 10
713.736
 20
49.7957
 30
1.77600e-013
  70
    32
  0
VERTEX
  8
0
  5
43DF
 10
713.704
 20
49.8622
 30
1.77600e-013
  70
    32
  0
VERTEX
  8
0
  5
43E0
 10
713.672
 20
49.9212
 30
1.77600e-013
  70
    32
  0
VERTEX
  8
0
  5
43E1
 10
713.640
 20
49.9727
 30
1.77600e-013
  70
    32
  0
VERTEX
  8
0
  5
43E2
 10
713.608
 20
50.0168
 30
1.77600e-013
  70
    32
  0
VERTEX
  8
0
  5
43E3
 10
713.576
 20
50.0533
 30
1.77600e-013
  70
    32
  0
VERTEX
  8
0
  5
43E4
 10
713.544
 20
50.0824
 30
1.77600e-013
  70
    32
  0
VERTEX
  8
0
  5
43E5
 10
713.512
 20
50.1040
 30
1.77600e-013
  70
    32
  0
VERTEX
  8
0
  5
43E6
 10
713.480
 20
50.1180
 30
1.77600e-013
  70
    32
  0
VERTEX
  8
0
  5
43E7
 10
713.448
 20
50.1246
 30
1.77600e-013
  70
    32
  0
SEQEND
  8
0
  5
43E8
  0
POLYLINE
  5
4242
  8
0
  6
CONTINUOUS
 62
     3
 10
713.44802090211886
 20
-50.124586471370108
 30
0.0000000000001776
 66
     1
 70
     8
  0
VERTEX
  8
0
  5
43E9
 10
713.448
 20
-50.1246
 30
1.77600e-013
  70
    32
  0
VERTEX
  8
0
  5
43EA
 10
713.480
 20
-50.1180
 30
1.77600e-013
  70
    32
  0
VERTEX
  8
0
  5
43EB
 10
713.512
 20
-50.1040
 30
1.77600e-013
  70
    32
  0
VERTEX
  8
0
  5
43EC
 10
713.544
 20
-50.0824
 30
1.77600e-013
  70
    32
  0
VERTEX
  8
0
  5
43ED
 10
713.576
 20
-50.0533
 30
1.77600e-013
  70
    32
  0
VERTEX
  8
0
  5
43EE
 10
713.608
 20
-50.0168
 30
1.77600e-013
  70
    32
  0
VERTEX
  8
0
  5
43EF
 10
713.640
 20
-49.9727
 30
1.77600e-013
  70
    32
  0
VERTEX
  8
0
  5
43F0
 10
713.672
 20
-49.9212
 30
1.77600e-013
  70
    32
  0
VERTEX
  8
0
  5
43F1
 10
713.704
 20
-49.8622
 30
1.77600e-013
  70
    32
  0
VERTEX
  8
0
  5
43F2
 10
713.736
 20
-49.7957
 30
1.77600e-013
  70
    32
  0
VERTEX
  8
0
  5
43F3
 10
713.768
 20
-49.7218
 30
1.77600e-013
  70
    32
  0
VERTEX
  8
0
  5
43F4
 10
713.800
 20
-49.6404
 30
1.77600e-013
  70
    32
  0
VERTEX
  8
0
  5
43F5
 10
713.832
 20
-49.5516
 30
1.77600e-013
  70
    32
  0
VERTEX
  8
0
  5
43F6
 10
713.863
 20
-49.4554
 30
1.77600e-013
  70
    32
  0
VERTEX
  8
0
  5
43F7
 10
713.895
 20
-49.3517
 30
1.77600e-013
  70
    32
  0
VERTEX
  8
0
  5
43F8
 10
713.927
 20
-49.2407
 30
1.77600e-013
  70
    32
  0
VERTEX
  8
0
  5
43F9
 10
713.958
 20
-49.1223
 30
1.77600e-013
  70
    32
  0
VERTEX
  8
0
  5
43FA
 10
713.990
 20
-48.9966
 30
1.77600e-013
  70
    32
  0
VERTEX
  8
0
  5
43FB
 10
714.021
 20
-48.8635
 30
1.77600e-013
  70
    32
  0
VERTEX
  8
0
  5
43FC
 10
714.052
 20
-48.7231
 30
1.77600e-013
  70
    32
  0
VERTEX
  8
0
  5
43FD
 10
714.083
 20
-48.5754
 30
1.77600e-013
  70
    32
  0
VERTEX
  8
0
  5
43FE
 10
714.114
 20
-48.4205
 30
1.77600e-013
  70
    32
  0
VERTEX
  8
0
  5
43FF
 10
714.145
 20
-48.2583
 30
1.77600e-013
  70
    32
  0
VERTEX
  8
0
  5
4400
 10
714.176
 20
-48.0888
 30
1.77600e-013
  70
    32
  0
VERTEX
  8
0
  5
4401
 10
714.207
 20
-47.9122
 30
1.77600e-013
  70
    32
  0
VERTEX
  8
0
  5
4402
 10
714.237
 20
-47.7284
 30
1.77600e-013
  70
    32
  0
VERTEX
  8
0
  5
4403
 10
714.268
 20
-47.5374
 30
1.77600e-013
  70
    32
  0
VERTEX
  8
0
  5
4404
 10
714.298
 20
-47.3394
 30
1.77600e-013
  70
    32
  0
VERTEX
  8
0
  5
4405
 10
714.329
 20
-47.1342
 30
1.77600e-013
  70
    32
  0
VERTEX
  8
0
  5
4406
 10
714.359
 20
-46.9220
 30
1.77600e-013
  70
    32
  0
VERTEX
  8
0
  5
4407
 10
714.389
 20
-46.7028
 30
1.77600e-013
  70
    32
  0
VERTEX
  8
0
  5
4408
 10
714.419
 20
-46.4765
 30
1.77600e-013
  70
    32
  0
VERTEX
  8
0
  5
4409
 10
714.448
 20
-46.2433
 30
1.77600e-013
  70
    32
  0
VERTEX
  8
0
  5
440A
 10
714.478
 20
-46.0032
 30
1.77600e-013
  70
    32
  0
VERTEX
  8
0
  5
440B
 10
714.507
 20
-45.7562
 30
1.77600e-013
  70
    32
  0
VERTEX
  8
0
  5
440C
 10
714.536
 20
-45.5024
 30
1.77600e-013
  70
    32
  0
VERTEX
  8
0
  5
440D
 10
714.565
 20
-45.2417
 30
1.77600e-013
  70
    32
  0
VERTEX
  8
0
  5
440E
 10
714.594
 20
-44.9743
 30
1.77600e-013
  70
    32
  0
VERTEX
  8
0
  5
440F
 10
714.623
 20
-44.7001
 30
1.77600e-013
  70
    32
  0
VERTEX
  8
0
  5
4410
 10
714.652
 20
-44.4192
 30
1.77600e-013
  70
    32
  0
VERTEX
  8
0
  5
4411
 10
714.680
 20
-44.1317
 30
1.77600e-013
  70
    32
  0
VERTEX
  8
0
  5
4412
 10
714.708
 20
-43.8376
 30
1.77600e-013
  70
    32
  0
VERTEX
  8
0
  5
4413
 10
714.736
 20
-43.5369
 30
1.77600e-013
  70
    32
  0
VERTEX
  8
0
  5
4414
 10
714.764
 20
-43.2297
 30
1.77600e-013
  70
    32
  0
VERTEX
  8
0
  5
4415
 10
714.791
 20
-42.9160
 30
1.77600e-013
  70
    32
  0
VERTEX
  8
0
  5
4416
 10
714.819
 20
-42.5959
 30
1.77600e-013
  70
    32
  0
VERTEX
  8
0
  5
4417
 10
714.846
 20
-42.2694
 30
1.77600e-013
  70
    32
  0
VERTEX
  8
0
  5
4418
 10
714.873
 20
-41.9366
 30
1.77600e-013
  70
    32
  0
VERTEX
  8
0
  5
4419
 10
714.900
 20
-41.5975
 30
1.77600e-013
  70
    32
  0
VERTEX
  8
0
  5
441A
 10
714.926
 20
-41.2522
 30
1.77600e-013
  70
    32
  0
VERTEX
  8
0
  5
441B
 10
714.953
 20
-40.9007
 30
1.77600e-013
  70
    32
  0
VERTEX
  8
0
  5
441C
 10
714.979
 20
-40.5431
 30
1.77600e-013
  70
    32
  0
VERTEX
  8
0
  5
441D
 10
715.004
 20
-40.1794
 30
1.77600e-013
  70
    32
  0
VERTEX
  8
0
  5
441E
 10
715.030
 20
-39.8097
 30
1.77600e-013
  70
    32
  0
VERTEX
  8
0
  5
441F
 10
715.055
 20
-39.4341
 30
1.77600e-013
  70
    32
  0
VERTEX
  8
0
  5
4420
 10
715.081
 20
-39.0525
 30
1.77600e-013
  70
    32
  0
VERTEX
  8
0
  5
4421
 10
715.105
 20
-38.6651
 30
1.77600e-013
  70
    32
  0
VERTEX
  8
0
  5
4422
 10
715.130
 20
-38.2719
 30
1.77600e-013
  70
    32
  0
VERTEX
  8
0
  5
4423
 10
715.154
 20
-37.8730
 30
1.77600e-013
  70
    32
  0
VERTEX
  8
0
  5
4424
 10
715.179
 20
-37.4684
 30
1.77600e-013
  70
    32
  0
VERTEX
  8
0
  5
4425
 10
715.202
 20
-37.0582
 30
1.77600e-013
  70
    32
  0
VERTEX
  8
0
  5
4426
 10
715.226
 20
-36.6424
 30
1.77600e-013
  70
    32
  0
VERTEX
  8
0
  5
4427
 10
715.249
 20
-36.2212
 30
1.77600e-013
  70
    32
  0
VERTEX
  8
0
  5
4428
 10
715.272
 20
-35.7945
 30
1.77600e-013
  70
    32
  0
VERTEX
  8
0
  5
4429
 10
715.295
 20
-35.3625
 30
1.77600e-013
  70
    32
  0
VERTEX
  8
0
  5
442A
 10
715.318
 20
-34.9251
 30
1.77600e-013
  70
    32
  0
VERTEX
  8
0
  5
442B
 10
715.340
 20
-34.4826
 30
1.77600e-013
  70
    32
  0
VERTEX
  8
0
  5
442C
 10
715.362
 20
-34.0349
 30
1.77600e-013
  70
    32
  0
VERTEX
  8
0
  5
442D
 10
715.384
 20
-33.5821
 30
1.77600e-013
  70
    32
  0
VERTEX
  8
0
  5
442E
 10
715.405
 20
-33.1242
 30
1.77600e-013
  70
    32
  0
VERTEX
  8
0
  5
442F
 10
715.426
 20
-32.6614
 30
1.77600e-013
  70
    32
  0
VERTEX
  8
0
  5
4430
 10
715.447
 20
-32.1938
 30
1.77600e-013
  70
    32
  0
VERTEX
  8
0
  5
4431
 10
715.467
 20
-31.7212
 30
1.77600e-013
  70
    32
  0
VERTEX
  8
0
  5
4432
 10
715.487
 20
-31.2440
 30
1.77600e-013
  70
    32
  0
VERTEX
  8
0
  5
4433
 10
715.507
 20
-30.7621
 30
1.77600e-013
  70
    32
  0
VERTEX
  8
0
  5
4434
 10
715.527
 20
-30.2755
 30
1.77600e-013
  70
    32
  0
VERTEX
  8
0
  5
4435
 10
715.546
 20
-29.7844
 30
1.77600e-013
  70
    32
  0
VERTEX
  8
0
  5
4436
 10
715.565
 20
-29.2889
 30
1.77600e-013
  70
    32
  0
VERTEX
  8
0
  5
4437
 10
715.584
 20
-28.7890
 30
1.77600e-013
  70
    32
  0
VERTEX
  8
0
  5
4438
 10
715.602
 20
-28.2848
 30
1.77600e-013
  70
    32
  0
VERTEX
  8
0
  5
4439
 10
715.620
 20
-27.7763
 30
1.77600e-013
  70
    32
  0
VERTEX
  8
0
  5
443A
 10
715.637
 20
-27.2637
 30
1.77600e-013
  70
    32
  0
VERTEX
  8
0
  5
443B
 10
715.655
 20
-26.7470
 30
1.77600e-013
  70
    32
  0
VERTEX
  8
0
  5
443C
 10
715.672
 20
-26.2263
 30
1.77600e-013
  70
    32
  0
VERTEX
  8
0
  5
443D
 10
715.688
 20
-25.7017
 30
1.77600e-013
  70
    32
  0
VERTEX
  8
0
  5
443E
 10
715.705
 20
-25.1732
 30
1.77600e-013
  70
    32
  0
VERTEX
  8
0
  5
443F
 10
715.720
 20
-24.6409
 30
1.77600e-013
  70
    32
  0
VERTEX
  8
0
  5
4440
 10
715.736
 20
-24.1050
 30
1.77600e-013
  70
    32
  0
VERTEX
  8
0
  5
4441
 10
715.751
 20
-23.5654
 30
1.77600e-013
  70
    32
  0
VERTEX
  8
0
  5
4442
 10
715.766
 20
-23.0224
 30
1.77600e-013
  70
    32
  0
VERTEX
  8
0
  5
4443
 10
715.781
 20
-22.4759
 30
1.77600e-013
  70
    32
  0
VERTEX
  8
0
  5
4444
 10
715.795
 20
-21.9260
 30
1.77600e-013
  70
    32
  0
VERTEX
  8
0
  5
4445
 10
715.809
 20
-21.3728
 30
1.77600e-013
  70
    32
  0
VERTEX
  8
0
  5
4446
 10
715.822
 20
-20.8164
 30
1.77600e-013
  70
    32
  0
VERTEX
  8
0
  5
4447
 10
715.836
 20
-20.2569
 30
1.77600e-013
  70
    32
  0
VERTEX
  8
0
  5
4448
 10
715.848
 20
-19.6944
 30
1.77600e-013
  70
    32
  0
VERTEX
  8
0
  5
4449
 10
715.861
 20
-19.1290
 30
1.77600e-013
  70
    32
  0
VERTEX
  8
0
  5
444A
 10
715.873
 20
-18.5606
 30
1.77600e-013
  70
    32
  0
VERTEX
  8
0
  5
444B
 10
715.885
 20
-17.9895
 30
1.77600e-013
  70
    32
  0
VERTEX
  8
0
  5
444C
 10
715.896
 20
-17.4157
 30
1.77600e-013
  70
    32
  0
VERTEX
  8
0
  5
444D
 10
715.907
 20
-16.8393
 30
1.77600e-013
  70
    32
  0
VERTEX
  8
0
  5
444E
 10
715.917
 20
-16.2604
 30
1.77600e-013
  70
    32
  0
VERTEX
  8
0
  5
444F
 10
715.928
 20
-15.6790
 30
1.77600e-013
  70
    32
  0
VERTEX
  8
0
  5
4450
 10
715.938
 20
-15.0953
 30
1.77600e-013
  70
    32
  0
VERTEX
  8
0
  5
4451
 10
715.947
 20
-14.5093
 30
1.77600e-013
  70
    32
  0
VERTEX
  8
0
  5
4452
 10
715.956
 20
-13.9212
 30
1.77600e-013
  70
    32
  0
VERTEX
  8
0
  5
4453
 10
715.965
 20
-13.3309
 30
1.77600e-013
  70
    32
  0
VERTEX
  8
0
  5
4454
 10
715.973
 20
-12.7387
 30
1.77600e-013
  70
    32
  0
VERTEX
  8
0
  5
4455
 10
715.981
 20
-12.1446
 30
1.77600e-013
  70
    32
  0
VERTEX
  8
0
  5
4456
 10
715.989
 20
-11.5486
 30
1.77600e-013
  70
    32
  0
VERTEX
  8
0
  5
4457
 10
715.996
 20
-10.9509
 30
1.77600e-013
  70
    32
  0
VERTEX
  8
0
  5
4458
 10
716.003
 20
-10.3516
 30
1.77600e-013
  70
    32
  0
VERTEX
  8
0
  5
4459
 10
716.009
 20
-9.75075
 30
1.77600e-013
  70
    32
  0
VERTEX
  8
0
  5
445A
 10
716.015
 20
-9.14842
 30
1.77600e-013
  70
    32
  0
VERTEX
  8
0
  5
445B
 10
716.021
 20
-8.54472
 30
1.77600e-013
  70
    32
  0
VERTEX
  8
0
  5
445C
 10
716.026
 20
-7.93974
 30
1.77600e-013
  70
    32
  0
VERTEX
  8
0
  5
445D
 10
716.031
 20
-7.33357
 30
1.77600e-013
  70
    32
  0
VERTEX
  8
0
  5
445E
 10
716.036
 20
-6.72630
 30
1.77600e-013
  70
    32
  0
VERTEX
  8
0
  5
445F
 10
716.040
 20
-6.11803
 30
1.77600e-013
  70
    32
  0
VERTEX
  8
0
  5
4460
 10
716.043
 20
-5.50884
 30
1.77600e-013
  70
    32
  0
VERTEX
  8
0
  5
4461
 10
716.047
 20
-4.89882
 30
1.77600e-013
  70
    32
  0
VERTEX
  8
0
  5
4462
 10
716.050
 20
-4.28808
 30
1.77600e-013
  70
    32
  0
VERTEX
  8
0
  5
4463
 10
716.052
 20
-3.67669
 30
1.77600e-013
  70
    32
  0
VERTEX
  8
0
  5
4464
 10
716.054
 20
-3.06475
 30
1.77600e-013
  70
    32
  0
VERTEX
  8
0
  5
4465
 10
716.056
 20
-2.45235
 30
1.77600e-013
  70
    32
  0
VERTEX
  8
0
  5
4466
 10
716.058
 20
-1.83958
 30
1.77600e-013
  70
    32
  0
VERTEX
  8
0
  5
4467
 10
716.059
 20
-1.22654
 30
1.77600e-013
  70
    32
  0
VERTEX
  8
0
  5
4468
 10
716.059
 20
-0.613317
 30
1.77600e-013
  70
    32
  0
VERTEX
  8
0
  5
4469
 10
716.059
 20
1.36125e-012
 30
1.77600e-013
  70
    32
  0
SEQEND
  8
0
  5
446A
  0
POLYLINE
  5
4243
  8
0
  6
CONTINUOUS
 62
     3
 10
703.46193549664872
 20
50.999463910202685
 30
0.0000000000001776
 66
     1
 70
     8
  0
VERTEX
  8
0
  5
446B
 10
703.462
 20
50.9995
 30
1.77600e-013
  70
    32
  0
VERTEX
  8
0
  5
446C
 10
703.462
 20
50.9995
 30
1.77600e-013
  70
    32
  0
VERTEX
  8
0
  5
446D
 10
703.462
 20
50.9995
 30
1.77600e-013
  70
    32
  0
VERTEX
  8
0
  5
446E
 10
703.462
 20
50.9995
 30
1.77600e-013
  70
    32
  0
VERTEX
  8
0
  5
446F
 10
703.462
 20
50.9995
 30
1.77600e-013
  70
    32
  0
VERTEX
  8
0
  5
4470
 10
703.461
 20
50.9995
 30
1.77600e-013
  70
    32
  0
VERTEX
  8
0
  5
4471
 10
703.461
 20
50.9995
 30
1.77600e-013
  70
    32
  0
VERTEX
  8
0
  5
4472
 10
703.461
 20
50.9995
 30
1.77600e-013
  70
    32
  0
VERTEX
  8
0
  5
4473
 10
703.461
 20
50.9995
 30
1.77600e-013
  70
    32
  0
VERTEX
  8
0
  5
4474
 10
703.461
 20
50.9995
 30
1.77600e-013
  70
    32
  0
VERTEX
  8
0
  5
4475
 10
703.461
 20
50.9995
 30
1.77600e-013
  70
    32
  0
VERTEX
  8
0
  5
4476
 10
703.461
 20
50.9996
 30
1.77600e-013
  70
    32
  0
VERTEX
  8
0
  5
4477
 10
703.461
 20
50.9996
 30
1.77600e-013
  70
    32
  0
VERTEX
  8
0
  5
4478
 10
703.461
 20
50.9996
 30
1.77600e-013
  70
    32
  0
VERTEX
  8
0
  5
4479
 10
703.461
 20
50.9996
 30
1.77600e-013
  70
    32
  0
VERTEX
  8
0
  5
447A
 10
703.461
 20
50.9996
 30
1.77600e-013
  70
    32
  0
VERTEX
  8
0
  5
447B
 10
703.460
 20
50.9996
 30
1.77600e-013
  70
    32
  0
VERTEX
  8
0
  5
447C
 10
703.460
 20
50.9996
 30
1.77600e-013
  70
    32
  0
VERTEX
  8
0
  5
447D
 10
703.460
 20
50.9996
 30
1.77600e-013
  70
    32
  0
VERTEX
  8
0
  5
447E
 10
703.460
 20
50.9996
 30
1.77600e-013
  70
    32
  0
VERTEX
  8
0
  5
447F
 10
703.460
 20
50.9996
 30
1.77600e-013
  70
    32
  0
VERTEX
  8
0
  5
4480
 10
703.460
 20
50.9996
 30
1.77600e-013
  70
    32
  0
VERTEX
  8
0
  5
4481
 10
703.460
 20
50.9996
 30
1.77600e-013
  70
    32
  0
VERTEX
  8
0
  5
4482
 10
703.460
 20
50.9996
 30
1.77600e-013
  70
    32
  0
VERTEX
  8
0
  5
4483
 10
703.460
 20
50.9996
 30
1.77600e-013
  70
    32
  0
VERTEX
  8
0
  5
4484
 10
703.460
 20
50.9997
 30
1.77600e-013
  70
    32
  0
VERTEX
  8
0
  5
4485
 10
703.459
 20
50.9997
 30
1.77600e-013
  70
    32
  0
VERTEX
  8
0
  5
4486
 10
703.459
 20
50.9997
 30
1.77600e-013
  70
    32
  0
VERTEX
  8
0
  5
4487
 10
703.459
 20
50.9997
 30
1.77600e-013
  70
    32
  0
VERTEX
  8
0
  5
4488
 10
703.459
 20
50.9997
 30
1.77600e-013
  70
    32
  0
VERTEX
  8
0
  5
4489
 10
703.459
 20
50.9997
 30
1.77600e-013
  70
    32
  0
VERTEX
  8
0
  5
448A
 10
703.459
 20
50.9997
 30
1.77600e-013
  70
    32
  0
VERTEX
  8
0
  5
448B
 10
703.459
 20
50.9997
 30
1.77600e-013
  70
    32
  0
VERTEX
  8
0
  5
448C
 10
703.459
 20
50.9997
 30
1.77600e-013
  70
    32
  0
VERTEX
  8
0
  5
448D
 10
703.459
 20
50.9997
 30
1.77600e-013
  70
    32
  0
VERTEX
  8
0
  5
448E
 10
703.459
 20
50.9997
 30
1.77600e-013
  70
    32
  0
VERTEX
  8
0
  5
448F
 10
703.458
 20
50.9997
 30
1.77600e-013
  70
    32
  0
VERTEX
  8
0
  5
4490
 10
703.458
 20
50.9997
 30
1.77600e-013
  70
    32
  0
VERTEX
  8
0
  5
4491
 10
703.458
 20
50.9997
 30
1.77600e-013
  70
    32
  0
VERTEX
  8
0
  5
4492
 10
703.458
 20
50.9997
 30
1.77600e-013
  70
    32
  0
VERTEX
  8
0
  5
4493
 10
703.458
 20
50.9997
 30
1.77600e-013
  70
    32
  0
VERTEX
  8
0
  5
4494
 10
703.458
 20
50.9998
 30
1.77600e-013
  70
    32
  0
VERTEX
  8
0
  5
4495
 10
703.458
 20
50.9998
 30
1.77600e-013
  70
    32
  0
VERTEX
  8
0
  5
4496
 10
703.458
 20
50.9998
 30
1.77600e-013
  70
    32
  0
VERTEX
  8
0
  5
4497
 10
703.458
 20
50.9998
 30
1.77600e-013
  70
    32
  0
VERTEX
  8
0
  5
4498
 10
703.458
 20
50.9998
 30
1.77600e-013
  70
    32
  0
VERTEX
  8
0
  5
4499
 10
703.458
 20
50.9998
 30
1.77600e-013
  70
    32
  0
VERTEX
  8
0
  5
449A
 10
703.457
 20
50.9998
 30
1.77600e-013
  70
    32
  0
VERTEX
  8
0
  5
449B
 10
703.457
 20
50.9998
 30
1.77600e-013
  70
    32
  0
VERTEX
  8
0
  5
449C
 10
703.457
 20
50.9998
 30
1.77600e-013
  70
    32
  0
VERTEX
  8
0
  5
449D
 10
703.457
 20
50.9998
 30
1.77600e-013
  70
    32
  0
VERTEX
  8
0
  5
449E
 10
703.457
 20
50.9998
 30
1.77600e-013
  70
    32
  0
VERTEX
  8
0
  5
449F
 10
703.457
 20
50.9998
 30
1.77600e-013
  70
    32
  0
VERTEX
  8
0
  5
44A0
 10
703.457
 20
50.9998
 30
1.77600e-013
  70
    32
  0
VERTEX
  8
0
  5
44A1
 10
703.457
 20
50.9998
 30
1.77600e-013
  70
    32
  0
VERTEX
  8
0
  5
44A2
 10
703.457
 20
50.9998
 30
1.77600e-013
  70
    32
  0
VERTEX
  8
0
  5
44A3
 10
703.457
 20
50.9998
 30
1.77600e-013
  70
    32
  0
VERTEX
  8
0
  5
44A4
 10
703.456
 20
50.9998
 30
1.77600e-013
  70
    32
  0
VERTEX
  8
0
  5
44A5
 10
703.456
 20
50.9998
 30
1.77600e-013
  70
    32
  0
VERTEX
  8
0
  5
44A6
 10
703.456
 20
50.9998
 30
1.77600e-013
  70
    32
  0
VERTEX
  8
0
  5
44A7
 10
703.456
 20
50.9998
 30
1.77600e-013
  70
    32
  0
VERTEX
  8
0
  5
44A8
 10
703.456
 20
50.9999
 30
1.77600e-013
  70
    32
  0
VERTEX
  8
0
  5
44A9
 10
703.456
 20
50.9999
 30
1.77600e-013
  70
    32
  0
VERTEX
  8
0
  5
44AA
 10
703.456
 20
50.9999
 30
1.77600e-013
  70
    32
  0
VERTEX
  8
0
  5
44AB
 10
703.456
 20
50.9999
 30
1.77600e-013
  70
    32
  0
VERTEX
  8
0
  5
44AC
 10
703.456
 20
50.9999
 30
1.77600e-013
  70
    32
  0
VERTEX
  8
0
  5
44AD
 10
703.456
 20
50.9999
 30
1.77600e-013
  70
    32
  0
VERTEX
  8
0
  5
44AE
 10
703.456
 20
50.9999
 30
1.77600e-013
  70
    32
  0
VERTEX
  8
0
  5
44AF
 10
703.455
 20
50.9999
 30
1.77600e-013
  70
    32
  0
VERTEX
  8
0
  5
44B0
 10
703.455
 20
50.9999
 30
1.77600e-013
  70
    32
  0
VERTEX
  8
0
  5
44B1
 10
703.455
 20
50.9999
 30
1.77600e-013
  70
    32
  0
VERTEX
  8
0
  5
44B2
 10
703.455
 20
50.9999
 30
1.77600e-013
  70
    32
  0
VERTEX
  8
0
  5
44B3
 10
703.455
 20
50.9999
 30
1.77600e-013
  70
    32
  0
VERTEX
  8
0
  5
44B4
 10
703.455
 20
50.9999
 30
1.77600e-013
  70
    32
  0
VERTEX
  8
0
  5
44B5
 10
703.455
 20
50.9999
 30
1.77600e-013
  70
    32
  0
VERTEX
  8
0
  5
44B6
 10
703.455
 20
50.9999
 30
1.77600e-013
  70
    32
  0
VERTEX
  8
0
  5
44B7
 10
703.455
 20
50.9999
 30
1.77600e-013
  70
    32
  0
VERTEX
  8
0
  5
44B8
 10
703.455
 20
50.9999
 30
1.77600e-013
  70
    32
  0
VERTEX
  8
0
  5
44B9
 10
703.454
 20
50.9999
 30
1.77600e-013
  70
    32
  0
VERTEX
  8
0
  5
44BA
 10
703.454
 20
50.9999
 30
1.77600e-013
  70
    32
  0
VERTEX
  8
0
  5
44BB
 10
703.454
 20
50.9999
 30
1.77600e-013
  70
    32
  0
VERTEX
  8
0
  5
44BC
 10
703.454
 20
50.9999
 30
1.77600e-013
  70
    32
  0
VERTEX
  8
0
  5
44BD
 10
703.454
 20
50.9999
 30
1.77600e-013
  70
    32
  0
VERTEX
  8
0
  5
44BE
 10
703.454
 20
50.9999
 30
1.77600e-013
  70
    32
  0
VERTEX
  8
0
  5
44BF
 10
703.454
 20
50.9999
 30
1.77600e-013
  70
    32
  0
VERTEX
  8
0
  5
44C0
 10
703.454
 20
50.9999
 30
1.77600e-013
  70
    32
  0
VERTEX
  8
0
  5
44C1
 10
703.454
 20
50.9999
 30
1.77600e-013
  70
    32
  0
VERTEX
  8
0
  5
44C2
 10
703.454
 20
50.9999
 30
1.77600e-013
  70
    32
  0
VERTEX
  8
0
  5
44C3
 10
703.454
 20
50.9999
 30
1.77600e-013
  70
    32
  0
VERTEX
  8
0
  5
44C4
 10
703.453
 20
51.0000
 30
1.77600e-013
  70
    32
  0
VERTEX
  8
0
  5
44C5
 10
703.453
 20
51.0000
 30
1.77600e-013
  70
    32
  0
VERTEX
  8
0
  5
44C6
 10
703.453
 20
51.0000
 30
1.77600e-013
  70
    32
  0
VERTEX
  8
0
  5
44C7
 10
703.453
 20
51.0000
 30
1.77600e-013
  70
    32
  0
VERTEX
  8
0
  5
44C8
 10
703.453
 20
51.0000
 30
1.77600e-013
  70
    32
  0
VERTEX
  8
0
  5
44C9
 10
703.453
 20
51.0000
 30
1.77600e-013
  70
    32
  0
VERTEX
  8
0
  5
44CA
 10
703.453
 20
51.0000
 30
1.77600e-013
  70
    32
  0
VERTEX
  8
0
  5
44CB
 10
703.453
 20
51.0000
 30
1.77600e-013
  70
    32
  0
VERTEX
  8
0
  5
44CC
 10
703.453
 20
51.0000
 30
1.77600e-013
  70
    32
  0
VERTEX
  8
0
  5
44CD
 10
703.453
 20
51.0000
 30
1.77600e-013
  70
    32
  0
VERTEX
  8
0
  5
44CE
 10
703.452
 20
51.0000
 30
1.77600e-013
  70
    32
  0
VERTEX
  8
0
  5
44CF
 10
703.452
 20
51.0000
 30
1.77600e-013
  70
    32
  0
VERTEX
  8
0
  5
44D0
 10
703.452
 20
51.0000
 30
1.77600e-013
  70
    32
  0
VERTEX
  8
0
  5
44D1
 10
703.452
 20
51.0000
 30
1.77600e-013
  70
    32
  0
VERTEX
  8
0
  5
44D2
 10
703.452
 20
51.0000
 30
1.77600e-013
  70
    32
  0
VERTEX
  8
0
  5
44D3
 10
703.452
 20
51.0000
 30
1.77600e-013
  70
    32
  0
VERTEX
  8
0
  5
44D4
 10
703.452
 20
51.0000
 30
1.77600e-013
  70
    32
  0
VERTEX
  8
0
  5
44D5
 10
703.452
 20
51.0000
 30
1.77600e-013
  70
    32
  0
VERTEX
  8
0
  5
44D6
 10
703.452
 20
51.0000
 30
1.77600e-013
  70
    32
  0
VERTEX
  8
0
  5
44D7
 10
703.452
 20
51.0000
 30
1.77600e-013
  70
    32
  0
VERTEX
  8
0
  5
44D8
 10
703.452
 20
51.0000
 30
1.77600e-013
  70
    32
  0
VERTEX
  8
0
  5
44D9
 10
703.451
 20
51.0000
 30
1.77600e-013
  70
    32
  0
VERTEX
  8
0
  5
44DA
 10
703.451
 20
51.0000
 30
1.77600e-013
  70
    32
  0
VERTEX
  8
0
  5
44DB
 10
703.451
 20
51.0000
 30
1.77600e-013
  70
    32
  0
VERTEX
  8
0
  5
44DC
 10
703.451
 20
51.0000
 30
1.77600e-013
  70
    32
  0
VERTEX
  8
0
  5
44DD
 10
703.451
 20
51.0000
 30
1.77600e-013
  70
    32
  0
VERTEX
  8
0
  5
44DE
 10
703.451
 20
51.0000
 30
1.77600e-013
  70
    32
  0
VERTEX
  8
0
  5
44DF
 10
703.451
 20
51.0000
 30
1.77600e-013
  70
    32
  0
VERTEX
  8
0
  5
44E0
 10
703.451
 20
51.0000
 30
1.77600e-013
  70
    32
  0
VERTEX
  8
0
  5
44E1
 10
703.451
 20
51.0000
 30
1.77600e-013
  70
    32
  0
VERTEX
  8
0
  5
44E2
 10
703.451
 20
51.0000
 30
1.77600e-013
  70
    32
  0
VERTEX
  8
0
  5
44E3
 10
703.450
 20
51.0000
 30
1.77600e-013
  70
    32
  0
VERTEX
  8
0
  5
44E4
 10
703.450
 20
51.0000
 30
1.77600e-013
  70
    32
  0
VERTEX
  8
0
  5
44E5
 10
703.450
 20
51.0000
 30
1.77600e-013
  70
    32
  0
VERTEX
  8
0
  5
44E6
 10
703.450
 20
51.0000
 30
1.77600e-013
  70
    32
  0
VERTEX
  8
0
  5
44E7
 10
703.450
 20
51.0000
 30
1.77600e-013
  70
    32
  0
VERTEX
  8
0
  5
44E8
 10
703.450
 20
51.0000
 30
1.77600e-013
  70
    32
  0
VERTEX
  8
0
  5
44E9
 10
703.450
 20
51.0000
 30
1.77600e-013
  70
    32
  0
VERTEX
  8
0
  5
44EA
 10
703.450
 20
51.0000
 30
1.77600e-013
  70
    32
  0
VERTEX
  8
0
  5
44EB
 10
703.450
 20
51.0000
 30
1.77600e-013
  70
    32
  0
SEQEND
  8
0
  5
44EC
  0
POLYLINE
  5
4244
  8
0
  6
CONTINUOUS
 62
     3
 10
703.4496972872596
 20
-50.999999999999908
 30
0.0000000000001776
 66
     1
 70
     8
  0
VERTEX
  8
0
  5
44ED
 10
703.450
 20
-51.0000
 30
1.77600e-013
  70
    32
  0
VERTEX
  8
0
  5
44EE
 10
703.450
 20
-51.0000
 30
1.77600e-013
  70
    32
  0
VERTEX
  8
0
  5
44EF
 10
703.450
 20
-51.0000
 30
1.77600e-013
  70
    32
  0
VERTEX
  8
0
  5
44F0
 10
703.450
 20
-51.0000
 30
1.77600e-013
  70
    32
  0
VERTEX
  8
0
  5
44F1
 10
703.450
 20
-51.0000
 30
1.77600e-013
  70
    32
  0
VERTEX
  8
0
  5
44F2
 10
703.450
 20
-51.0000
 30
1.77600e-013
  70
    32
  0
VERTEX
  8
0
  5
44F3
 10
703.450
 20
-51.0000
 30
1.77600e-013
  70
    32
  0
VERTEX
  8
0
  5
44F4
 10
703.450
 20
-51.0000
 30
1.77600e-013
  70
    32
  0
VERTEX
  8
0
  5
44F5
 10
703.450
 20
-51.0000
 30
1.77600e-013
  70
    32
  0
VERTEX
  8
0
  5
44F6
 10
703.451
 20
-51.0000
 30
1.77600e-013
  70
    32
  0
VERTEX
  8
0
  5
44F7
 10
703.451
 20
-51.0000
 30
1.77600e-013
  70
    32
  0
VERTEX
  8
0
  5
44F8
 10
703.451
 20
-51.0000
 30
1.77600e-013
  70
    32
  0
VERTEX
  8
0
  5
44F9
 10
703.451
 20
-51.0000
 30
1.77600e-013
  70
    32
  0
VERTEX
  8
0
  5
44FA
 10
703.451
 20
-51.0000
 30
1.77600e-013
  70
    32
  0
VERTEX
  8
0
  5
44FB
 10
703.451
 20
-51.0000
 30
1.77600e-013
  70
    32
  0
VERTEX
  8
0
  5
44FC
 10
703.451
 20
-51.0000
 30
1.77600e-013
  70
    32
  0
VERTEX
  8
0
  5
44FD
 10
703.451
 20
-51.0000
 30
1.77600e-013
  70
    32
  0
VERTEX
  8
0
  5
44FE
 10
703.451
 20
-51.0000
 30
1.77600e-013
  70
    32
  0
VERTEX
  8
0
  5
44FF
 10
703.451
 20
-51.0000
 30
1.77600e-013
  70
    32
  0
VERTEX
  8
0
  5
4500
 10
703.452
 20
-51.0000
 30
1.77600e-013
  70
    32
  0
VERTEX
  8
0
  5
4501
 10
703.452
 20
-51.0000
 30
1.77600e-013
  70
    32
  0
VERTEX
  8
0
  5
4502
 10
703.452
 20
-51.0000
 30
1.77600e-013
  70
    32
  0
VERTEX
  8
0
  5
4503
 10
703.452
 20
-51.0000
 30
1.77600e-013
  70
    32
  0
VERTEX
  8
0
  5
4504
 10
703.452
 20
-51.0000
 30
1.77600e-013
  70
    32
  0
VERTEX
  8
0
  5
4505
 10
703.452
 20
-51.0000
 30
1.77600e-013
  70
    32
  0
VERTEX
  8
0
  5
4506
 10
703.452
 20
-51.0000
 30
1.77600e-013
  70
    32
  0
VERTEX
  8
0
  5
4507
 10
703.452
 20
-51.0000
 30
1.77600e-013
  70
    32
  0
VERTEX
  8
0
  5
4508
 10
703.452
 20
-51.0000
 30
1.77600e-013
  70
    32
  0
VERTEX
  8
0
  5
4509
 10
703.452
 20
-51.0000
 30
1.77600e-013
  70
    32
  0
VERTEX
  8
0
  5
450A
 10
703.452
 20
-51.0000
 30
1.77600e-013
  70
    32
  0
VERTEX
  8
0
  5
450B
 10
703.453
 20
-51.0000
 30
1.77600e-013
  70
    32
  0
VERTEX
  8
0
  5
450C
 10
703.453
 20
-51.0000
 30
1.77600e-013
  70
    32
  0
VERTEX
  8
0
  5
450D
 10
703.453
 20
-51.0000
 30
1.77600e-013
  70
    32
  0
VERTEX
  8
0
  5
450E
 10
703.453
 20
-51.0000
 30
1.77600e-013
  70
    32
  0
VERTEX
  8
0
  5
450F
 10
703.453
 20
-51.0000
 30
1.77600e-013
  70
    32
  0
VERTEX
  8
0
  5
4510
 10
703.453
 20
-51.0000
 30
1.77600e-013
  70
    32
  0
VERTEX
  8
0
  5
4511
 10
703.453
 20
-51.0000
 30
1.77600e-013
  70
    32
  0
VERTEX
  8
0
  5
4512
 10
703.453
 20
-51.0000
 30
1.77600e-013
  70
    32
  0
VERTEX
  8
0
  5
4513
 10
703.453
 20
-51.0000
 30
1.77600e-013
  70
    32
  0
VERTEX
  8
0
  5
4514
 10
703.453
 20
-51.0000
 30
1.77600e-013
  70
    32
  0
VERTEX
  8
0
  5
4515
 10
703.454
 20
-50.9999
 30
1.77600e-013
  70
    32
  0
VERTEX
  8
0
  5
4516
 10
703.454
 20
-50.9999
 30
1.77600e-013
  70
    32
  0
VERTEX
  8
0
  5
4517
 10
703.454
 20
-50.9999
 30
1.77600e-013
  70
    32
  0
VERTEX
  8
0
  5
4518
 10
703.454
 20
-50.9999
 30
1.77600e-013
  70
    32
  0
VERTEX
  8
0
  5
4519
 10
703.454
 20
-50.9999
 30
1.77600e-013
  70
    32
  0
VERTEX
  8
0
  5
451A
 10
703.454
 20
-50.9999
 30
1.77600e-013
  70
    32
  0
VERTEX
  8
0
  5
451B
 10
703.454
 20
-50.9999
 30
1.77600e-013
  70
    32
  0
VERTEX
  8
0
  5
451C
 10
703.454
 20
-50.9999
 30
1.77600e-013
  70
    32
  0
VERTEX
  8
0
  5
451D
 10
703.454
 20
-50.9999
 30
1.77600e-013
  70
    32
  0
VERTEX
  8
0
  5
451E
 10
703.454
 20
-50.9999
 30
1.77600e-013
  70
    32
  0
VERTEX
  8
0
  5
451F
 10
703.454
 20
-50.9999
 30
1.77600e-013
  70
    32
  0
VERTEX
  8
0
  5
4520
 10
703.455
 20
-50.9999
 30
1.77600e-013
  70
    32
  0
VERTEX
  8
0
  5
4521
 10
703.455
 20
-50.9999
 30
1.77600e-013
  70
    32
  0
VERTEX
  8
0
  5
4522
 10
703.455
 20
-50.9999
 30
1.77600e-013
  70
    32
  0
VERTEX
  8
0
  5
4523
 10
703.455
 20
-50.9999
 30
1.77600e-013
  70
    32
  0
VERTEX
  8
0
  5
4524
 10
703.455
 20
-50.9999
 30
1.77600e-013
  70
    32
  0
VERTEX
  8
0
  5
4525
 10
703.455
 20
-50.9999
 30
1.77600e-013
  70
    32
  0
VERTEX
  8
0
  5
4526
 10
703.455
 20
-50.9999
 30
1.77600e-013
  70
    32
  0
VERTEX
  8
0
  5
4527
 10
703.455
 20
-50.9999
 30
1.77600e-013
  70
    32
  0
VERTEX
  8
0
  5
4528
 10
703.455
 20
-50.9999
 30
1.77600e-013
  70
    32
  0
VERTEX
  8
0
  5
4529
 10
703.455
 20
-50.9999
 30
1.77600e-013
  70
    32
  0
VERTEX
  8
0
  5
452A
 10
703.456
 20
-50.9999
 30
1.77600e-013
  70
    32
  0
VERTEX
  8
0
  5
452B
 10
703.456
 20
-50.9999
 30
1.77600e-013
  70
    32
  0
VERTEX
  8
0
  5
452C
 10
703.456
 20
-50.9999
 30
1.77600e-013
  70
    32
  0
VERTEX
  8
0
  5
452D
 10
703.456
 20
-50.9999
 30
1.77600e-013
  70
    32
  0
VERTEX
  8
0
  5
452E
 10
703.456
 20
-50.9999
 30
1.77600e-013
  70
    32
  0
VERTEX
  8
0
  5
452F
 10
703.456
 20
-50.9999
 30
1.77600e-013
  70
    32
  0
VERTEX
  8
0
  5
4530
 10
703.456
 20
-50.9999
 30
1.77600e-013
  70
    32
  0
VERTEX
  8
0
  5
4531
 10
703.456
 20
-50.9998
 30
1.77600e-013
  70
    32
  0
VERTEX
  8
0
  5
4532
 10
703.456
 20
-50.9998
 30
1.77600e-013
  70
    32
  0
VERTEX
  8
0
  5
4533
 10
703.456
 20
-50.9998
 30
1.77600e-013
  70
    32
  0
VERTEX
  8
0
  5
4534
 10
703.456
 20
-50.9998
 30
1.77600e-013
  70
    32
  0
VERTEX
  8
0
  5
4535
 10
703.457
 20
-50.9998
 30
1.77600e-013
  70
    32
  0
VERTEX
  8
0
  5
4536
 10
703.457
 20
-50.9998
 30
1.77600e-013
  70
    32
  0
VERTEX
  8
0
  5
4537
 10
703.457
 20
-50.9998
 30
1.77600e-013
  70
    32
  0
VERTEX
  8
0
  5
4538
 10
703.457
 20
-50.9998
 30
1.77600e-013
  70
    32
  0
VERTEX
  8
0
  5
4539
 10
703.457
 20
-50.9998
 30
1.77600e-013
  70
    32
  0
VERTEX
  8
0
  5
453A
 10
703.457
 20
-50.9998
 30
1.77600e-013
  70
    32
  0
VERTEX
  8
0
  5
453B
 10
703.457
 20
-50.9998
 30
1.77600e-013
  70
    32
  0
VERTEX
  8
0
  5
453C
 10
703.457
 20
-50.9998
 30
1.77600e-013
  70
    32
  0
VERTEX
  8
0
  5
453D
 10
703.457
 20
-50.9998
 30
1.77600e-013
  70
    32
  0
VERTEX
  8
0
  5
453E
 10
703.457
 20
-50.9998
 30
1.77600e-013
  70
    32
  0
VERTEX
  8
0
  5
453F
 10
703.458
 20
-50.9998
 30
1.77600e-013
  70
    32
  0
VERTEX
  8
0
  5
4540
 10
703.458
 20
-50.9998
 30
1.77600e-013
  70
    32
  0
VERTEX
  8
0
  5
4541
 10
703.458
 20
-50.9998
 30
1.77600e-013
  70
    32
  0
VERTEX
  8
0
  5
4542
 10
703.458
 20
-50.9998
 30
1.77600e-013
  70
    32
  0
VERTEX
  8
0
  5
4543
 10
703.458
 20
-50.9998
 30
1.77600e-013
  70
    32
  0
VERTEX
  8
0
  5
4544
 10
703.458
 20
-50.9998
 30
1.77600e-013
  70
    32
  0
VERTEX
  8
0
  5
4545
 10
703.458
 20
-50.9997
 30
1.77600e-013
  70
    32
  0
VERTEX
  8
0
  5
4546
 10
703.458
 20
-50.9997
 30
1.77600e-013
  70
    32
  0
VERTEX
  8
0
  5
4547
 10
703.458
 20
-50.9997
 30
1.77600e-013
  70
    32
  0
VERTEX
  8
0
  5
4548
 10
703.458
 20
-50.9997
 30
1.77600e-013
  70
    32
  0
VERTEX
  8
0
  5
4549
 10
703.458
 20
-50.9997
 30
1.77600e-013
  70
    32
  0
VERTEX
  8
0
  5
454A
 10
703.459
 20
-50.9997
 30
1.77600e-013
  70
    32
  0
VERTEX
  8
0
  5
454B
 10
703.459
 20
-50.9997
 30
1.77600e-013
  70
    32
  0
VERTEX
  8
0
  5
454C
 10
703.459
 20
-50.9997
 30
1.77600e-013
  70
    32
  0
VERTEX
  8
0
  5
454D
 10
703.459
 20
-50.9997
 30
1.77600e-013
  70
    32
  0
VERTEX
  8
0
  5
454E
 10
703.459
 20
-50.9997
 30
1.77600e-013
  70
    32
  0
VERTEX
  8
0
  5
454F
 10
703.459
 20
-50.9997
 30
1.77600e-013
  70
    32
  0
VERTEX
  8
0
  5
4550
 10
703.459
 20
-50.9997
 30
1.77600e-013
  70
    32
  0
VERTEX
  8
0
  5
4551
 10
703.459
 20
-50.9997
 30
1.77600e-013
  70
    32
  0
VERTEX
  8
0
  5
4552
 10
703.459
 20
-50.9997
 30
1.77600e-013
  70
    32
  0
VERTEX
  8
0
  5
4553
 10
703.459
 20
-50.9997
 30
1.77600e-013
  70
    32
  0
VERTEX
  8
0
  5
4554
 10
703.460
 20
-50.9997
 30
1.77600e-013
  70
    32
  0
VERTEX
  8
0
  5
4555
 10
703.460
 20
-50.9996
 30
1.77600e-013
  70
    32
  0
VERTEX
  8
0
  5
4556
 10
703.460
 20
-50.9996
 30
1.77600e-013
  70
    32
  0
VERTEX
  8
0
  5
4557
 10
703.460
 20
-50.9996
 30
1.77600e-013
  70
    32
  0
VERTEX
  8
0
  5
4558
 10
703.460
 20
-50.9996
 30
1.77600e-013
  70
    32
  0
VERTEX
  8
0
  5
4559
 10
703.460
 20
-50.9996
 30
1.77600e-013
  70
    32
  0
VERTEX
  8
0
  5
455A
 10
703.460
 20
-50.9996
 30
1.77600e-013
  70
    32
  0
VERTEX
  8
0
  5
455B
 10
703.460
 20
-50.9996
 30
1.77600e-013
  70
    32
  0
VERTEX
  8
0
  5
455C
 10
703.460
 20
-50.9996
 30
1.77600e-013
  70
    32
  0
VERTEX
  8
0
  5
455D
 10
703.460
 20
-50.9996
 30
1.77600e-013
  70
    32
  0
VERTEX
  8
0
  5
455E
 10
703.461
 20
-50.9996
 30
1.77600e-013
  70
    32
  0
VERTEX
  8
0
  5
455F
 10
703.461
 20
-50.9996
 30
1.77600e-013
  70
    32
  0
VERTEX
  8
0
  5
4560
 10
703.461
 20
-50.9996
 30
1.77600e-013
  70
    32
  0
VERTEX
  8
0
  5
4561
 10
703.461
 20
-50.9996
 30
1.77600e-013
  70
    32
  0
VERTEX
  8
0
  5
4562
 10
703.461
 20
-50.9996
 30
1.77600e-013
  70
    32
  0
VERTEX
  8
0
  5
4563
 10
703.461
 20
-50.9995
 30
1.77600e-013
  70
    32
  0
VERTEX
  8
0
  5
4564
 10
703.461
 20
-50.9995
 30
1.77600e-013
  70
    32
  0
VERTEX
  8
0
  5
4565
 10
703.461
 20
-50.9995
 30
1.77600e-013
  70
    32
  0
VERTEX
  8
0
  5
4566
 10
703.461
 20
-50.9995
 30
1.77600e-013
  70
    32
  0
VERTEX
  8
0
  5
4567
 10
703.461
 20
-50.9995
 30
1.77600e-013
  70
    32
  0
VERTEX
  8
0
  5
4568
 10
703.461
 20
-50.9995
 30
1.77600e-013
  70
    32
  0
VERTEX
  8
0
  5
4569
 10
703.462
 20
-50.9995
 30
1.77600e-013
  70
    32
  0
VERTEX
  8
0
  5
456A
 10
703.462
 20
-50.9995
 30
1.77600e-013
  70
    32
  0
VERTEX
  8
0
  5
456B
 10
703.462
 20
-50.9995
 30
1.77600e-013
  70
    32
  0
VERTEX
  8
0
  5
456C
 10
703.462
 20
-50.9995
 30
1.77600e-013
  70
    32
  0
VERTEX
  8
0
  5
456D
 10
703.462
 20
-50.9995
 30
1.77600e-013
  70
    32
  0
SEQEND
  8
0
  5
456E
  0
LINE
  5
4245
  8
0
  6
CONTINUOUS
 62
     3
 10
713.44802090211886
 20
-50.124586471370108
 30
0.0000000000001776
 11
703.46193549664872
 21
-50.999463910202017
 31
0.0000000000001751
  0
LINE
  5
4246
  8
0
  6
CONTINUOUS
 62
     3
 10
713.44802090211886
 20
50.124586471370733
 30
0.0000000000001776
 11
703.46193549664872
 21
50.99946391020265
 31
0.0000000000001751
  0
LINE
  5
4247
  8
0
  6
CONTINUOUS
 62
     3
 10
703.44969728725948
 20
-50.9999999999959
 30
0.0000000000001776
 11
317.82629167338638
 21
-50.999999999995893
 31
0.0000000000000817
  0
LINE
  5
4248
  8
0
  6
CONTINUOUS
 62
     3
 10
703.44969728725948
 20
50.999999999996533
 30
0.0000000000001776
 11
317.82629167337711
 21
50.999999999996533
 31
0.0000000000000817
  0
CIRCLE
  5
4249
  8
0
  6
CONTINUOUS
 62
     3
 10
50.0
 20
-200.0
 30
0.0000000000000125
 40
3.5000000000000262
  0
CIRCLE
  5
424A
  8
0
  6
CONTINUOUS
 62
     3
 10
-50.0
 20
-200.0
 30
0.0000000000000001
 40
5.5
210
0.0000000000000003
220
0.0
230
-1.0
  0
CIRCLE
  5
424B
  8
0
  6
CONTINUOUS
 62
     3
 10
165.0
 20
199.99999999999989
 30
0.0000000000000413
 40
3.5000000000000022
  0
CIRCLE
  5
424C
  8
0
  6
CONTINUOUS
 62
     3
 10
-165.0
 20
199.99999999999989
 30
0.0
 40
5.5
210
0.0000000000000003
220
0.0
230
-1.0
  0
CIRCLE
  5
424D
  8
0
  6
CONTINUOUS
 62
     3
 10
50.0
 20
199.99999999999989
 30
0.0000000000000125
 40
3.5000000000000022
  0
CIRCLE
  5
424E
  8
0
  6
CONTINUOUS
 62
     3
 10
-50.0
 20
199.99999999999989
 30
0.0000000000000001
 40
5.5
210
0.0000000000000003
220
0.0
230
-1.0
  0
CIRCLE
  5
424F
  8
0
  6
CONTINUOUS
 62
     3
 10
165.0
 20
-200.0
 30
0.0000000000000413
 40
3.5000000000000262
  0
CIRCLE
  5
4250
  8
0
  6
CONTINUOUS
 62
     3
 10
-165.0
 20
-200.0
 30
0.0
 40
5.5
210
0.0000000000000003
220
0.0
230
-1.0
  0
LINE
  5
4251
  8
0
  6
CONTINUOUS
 62
     3
 10
314.41421356237311
 20
125.0000000000004
 30
0.0000000000000853
 11
314.99572566983471
 21
125.0000000000004
 31
0.0000000000000853
  0
LINE
  5
4252
  8
0
  6
CONTINUOUS
 62
     3
 10
312.0
 20
124.9999999999997
 30
0.0000000000000711
 11
314.41421356237311
 21
124.9999999999997
 31
0.0000000000000715
  0
LINE
  5
4253
  8
0
  6
CONTINUOUS
 62
     3
 10
314.99572566983471
 20
125.0000000000004
 30
0.0000000000000853
 11
314.99572566983471
 21
-124.9999999999995
 31
0.0000000000000853
  0
LINE
  5
4254
  8
0
  6
CONTINUOUS
 62
     3
 10
314.99572566983471
 20
-124.9999999999995
 30
0.0000000000000853
 11
314.41421356237322
 21
-124.9999999999995
 31
0.0000000000000853
  0
LINE
  5
4255
  8
0
  6
CONTINUOUS
 62
     3
 10
314.41421356237311
 20
-240.0
 30
0.0000000000000853
 11
314.99999999999932
 21
-240.0
 31
0.0000000000000853
  0
LINE
  5
4256
  8
0
  6
CONTINUOUS
 62
     3
 10
314.99999999999932
 20
240.0
 30
0.0000000000000853
 11
314.41421356237322
 21
240.0
 31
0.0000000000000853
  0
LINE
  5
4257
  8
0
  6
CONTINUOUS
 62
     3
 10
314.41421356237311
 20
-124.9999999999998
 30
0.0000000000000853
 11
312.0
 21
-124.9999999999998
 31
0.0000000000000848
  0
LINE
  5
4258
  8
0
  6
CONTINUOUS
 62
     3
 10
215.58578643762669
 20
-240.00000000000011
 30
0.0000000000000542
 11
314.41421356237311
 21
-240.0
 31
0.0000000000000826
  0
LINE
  5
4259
  8
0
  6
CONTINUOUS
 62
     3
 10
314.41421356237311
 20
240.0
 30
0.0000000000000853
 11
215.58578643762661
 21
240.0
 31
0.0000000000000568
  0
LINE
  5
425A
  8
0
  6
CONTINUOUS
 62
     3
 10
214.1715728752533
 20
240.0
 30
0.0000000000000537
 11
0.0
 21
240.0
 31
0.0000000000000001
  0
LINE
  5
425B
  8
0
  6
CONTINUOUS
 62
     3
 10
0.0000000000000005
 20
240.0
 30
0.0
 11
0.0000000000000005
 21
-240.0
 31
0.0
  0
LINE
  5
425C
  8
0
  6
CONTINUOUS
 62
     3
 10
0.0000000000000005
 20
-240.00000000000011
 30
0.0
 11
214.1715728752533
 21
-240.00000000000011
 31
0.0000000000000536
  0
LINE
  5
425D
  8
0
  6
CONTINUOUS
 62
     3
 10
215.58578643762669
 20
240.0
 30
0.0000000000000542
 11
214.1715728752533
 21
240.0
 31
0.0000000000000537
  0
LINE
  5
425E
  8
0
  6
CONTINUOUS
 62
     3
 10
214.1715728752533
 20
-240.00000000000011
 30
0.0000000000000537
 11
215.58578643762669
 21
-240.00000000000011
 31
0.0000000000000542
  0
LINE
  5
425F
  8
0
  6
CONTINUOUS
 62
     3
 10
315.00000000000011
 20
240.0
 30
0.0000000000000853
 11
315.00000000000011
 21
-240.0
 31
0.0000000000000853
  0
LINE
  5
4260
  8
0
  6
CONTINUOUS
 62
     3
 10
315.00000000000011
 20
-240.0
 30
0.0000000000000853
 11
317.00000000000011
 21
-240.0
 31
0.0000000000000858
  0
LINE
  5
4261
  8
0
  6
CONTINUOUS
 62
     3
 10
317.00000000000011
 20
240.0
 30
0.0000000000000853
 11
317.00000000000011
 21
-240.0
 31
0.0000000000000853
  0
LINE
  5
4262
  8
0
  6
CONTINUOUS
 62
     3
 10
317.00000000000011
 20
240.0
 30
0.0000000000000853
 11
315.00000000000011
 21
240.0
 31
0.0000000000000848
  0
LINE
  5
4263
  8
0
  6
CONTINUOUS
 62
     3
 10
317.82629167336972
 20
125.0000000000009
 30
0.0000000000000853
 11
317.0
 21
125.0000000000007
 31
0.0000000000000851
  0
LINE
  5
4264
  8
0
  6
CONTINUOUS
 62
     3
 10
317.0
 20
-124.9999999999996
 30
0.0000000000000853
 11
317.82629167339383
 21
-124.9999999999995
 31
0.0000000000000855
  0
LINE
  5
4265
  8
0
  6
CONTINUOUS
 62
     3
 10
317.82629167339343
 20
-124.9999999999994
 30
0.0000000000000853
 11
317.82629167336972
 21
125.0000000000009
 31
0.0000000000000853
  0
POLYLINE
  8
0
  5
456F
  62
3
  66
     1
 10
0.000000
 20
0.000000
 30
0.000000
  70
     8
  0
VERTEX
  8
0
  5
4570
 10
312.998
 20
2.84200e-013
 30
7.84000e-014
  70
    32
  0
VERTEX
  8
0
  5
4571
 10
313.006
 20
0.0401946
 30
7.84000e-014
  70
    32
  0
VERTEX
  8
0
  5
4572
 10
313.014
 20
0.0804361
 30
7.84002e-014
  70
    32
  0
VERTEX
  8
0
  5
4573
 10
313.022
 20
0.120724
 30
7.84004e-014
  70
    32
  0
VERTEX
  8
0
  5
4574
 10
313.030
 20
0.161058
 30
7.84007e-014
  70
    32
  0
VERTEX
  8
0
  5
4575
 10
313.039
 20
0.201438
 30
7.84011e-014
  70
    32
  0
VERTEX
  8
0
  5
4576
 10
313.047
 20
0.241864
 30
7.84016e-014
  70
    32
  0
VERTEX
  8
0
  5
4577
 10
313.055
 20
0.282334
 30
7.84021e-014
  70
    32
  0
VERTEX
  8
0
  5
4578
 10
313.063
 20
0.322850
 30
7.84027e-014
  70
    32
  0
VERTEX
  8
0
  5
4579
 10
313.071
 20
0.363410
 30
7.84034e-014
  70
    32
  0
VERTEX
  8
0
  5
457A
 10
313.079
 20
0.404015
 30
7.84042e-014
  70
    32
  0
VERTEX
  8
0
  5
457B
 10
313.088
 20
0.444663
 30
7.84051e-014
  70
    32
  0
VERTEX
  8
0
  5
457C
 10
313.096
 20
0.485355
 30
7.84060e-014
  70
    32
  0
VERTEX
  8
0
  5
457D
 10
313.104
 20
0.526091
 30
7.84070e-014
  70
    32
  0
VERTEX
  8
0
  5
457E
 10
313.112
 20
0.566869
 30
7.84080e-014
  70
    32
  0
VERTEX
  8
0
  5
457F
 10
313.121
 20
0.607690
 30
7.84092e-014
  70
    32
  0
VERTEX
  8
0
  5
4580
 10
313.129
 20
0.648554
 30
7.84104e-014
  70
    32
  0
VERTEX
  8
0
  5
4581
 10
313.137
 20
0.689459
 30
7.84116e-014
  70
    32
  0
VERTEX
  8
0
  5
4582
 10
313.145
 20
0.730407
 30
7.84129e-014
  70
    32
  0
VERTEX
  8
0
  5
4583
 10
313.154
 20
0.771395
 30
7.84143e-014
  70
    32
  0
VERTEX
  8
0
  5
4584
 10
313.162
 20
0.812425
 30
7.84158e-014
  70
    32
  0
VERTEX
  8
0
  5
4585
 10
313.170
 20
0.853496
 30
7.84172e-014
  70
    32
  0
VERTEX
  8
0
  5
4586
 10
313.178
 20
0.894607
 30
7.84188e-014
  70
    32
  0
VERTEX
  8
0
  5
4587
 10
313.187
 20
0.935758
 30
7.84204e-014
  70
    32
  0
VERTEX
  8
0
  5
4588
 10
313.195
 20
0.976949
 30
7.84221e-014
  70
    32
  0
VERTEX
  8
0
  5
4589
 10
313.203
 20
1.01818
 30
7.84238e-014
  70
    32
  0
VERTEX
  8
0
  5
458A
 10
313.212
 20
1.05945
 30
7.84255e-014
  70
    32
  0
VERTEX
  8
0
  5
458B
 10
313.220
 20
1.10076
 30
7.84273e-014
  70
    32
  0
VERTEX
  8
0
  5
458C
 10
313.228
 20
1.14211
 30
7.84292e-014
  70
    32
  0
VERTEX
  8
0
  5
458D
 10
313.237
 20
1.18349
 30
7.84310e-014
  70
    32
  0
VERTEX
  8
0
  5
458E
 10
313.245
 20
1.22491
 30
7.84330e-014
  70
    32
  0
VERTEX
  8
0
  5
458F
 10
313.253
 20
1.26638
 30
7.84350e-014
  70
    32
  0
VERTEX
  8
0
  5
4590
 10
313.262
 20
1.30787
 30
7.84370e-014
  70
    32
  0
VERTEX
  8
0
  5
4591
 10
313.270
 20
1.34941
 30
7.84390e-014
  70
    32
  0
VERTEX
  8
0
  5
4592
 10
313.278
 20
1.39098
 30
7.84411e-014
  70
    32
  0
VERTEX
  8
0
  5
4593
 10
313.287
 20
1.43259
 30
7.84432e-014
  70
    32
  0
VERTEX
  8
0
  5
4594
 10
313.295
 20
1.47423
 30
7.84454e-014
  70
    32
  0
VERTEX
  8
0
  5
4595
 10
313.303
 20
1.51592
 30
7.84475e-014
  70
    32
  0
VERTEX
  8
0
  5
4596
 10
313.312
 20
1.55763
 30
7.84497e-014
  70
    32
  0
VERTEX
  8
0
  5
4597
 10
313.320
 20
1.59938
 30
7.84520e-014
  70
    32
  0
VERTEX
  8
0
  5
4598
 10
313.328
 20
1.64117
 30
7.84542e-014
  70
    32
  0
VERTEX
  8
0
  5
4599
 10
313.337
 20
1.68299
 30
7.84565e-014
  70
    32
  0
VERTEX
  8
0
  5
459A
 10
313.345
 20
1.72484
 30
7.84588e-014
  70
    32
  0
VERTEX
  8
0
  5
459B
 10
313.353
 20
1.76673
 30
7.84612e-014
  70
    32
  0
VERTEX
  8
0
  5
459C
 10
313.362
 20
1.80865
 30
7.84635e-014
  70
    32
  0
VERTEX
  8
0
  5
459D
 10
313.370
 20
1.85061
 30
7.84659e-014
  70
    32
  0
VERTEX
  8
0
  5
459E
 10
313.379
 20
1.89259
 30
7.84682e-014
  70
    32
  0
VERTEX
  8
0
  5
459F
 10
313.387
 20
1.93461
 30
7.84706e-014
  70
    32
  0
VERTEX
  8
0
  5
45A0
 10
313.395
 20
1.97667
 30
7.84730e-014
  70
    32
  0
VERTEX
  8
0
  5
45A1
 10
313.404
 20
2.01875
 30
7.84755e-014
  70
    32
  0
VERTEX
  8
0
  5
45A2
 10
313.412
 20
2.06087
 30
7.84779e-014
  70
    32
  0
VERTEX
  8
0
  5
45A3
 10
313.420
 20
2.10301
 30
7.84803e-014
  70
    32
  0
VERTEX
  8
0
  5
45A4
 10
313.429
 20
2.14519
 30
7.84828e-014
  70
    32
  0
VERTEX
  8
0
  5
45A5
 10
313.437
 20
2.18740
 30
7.84852e-014
  70
    32
  0
VERTEX
  8
0
  5
45A6
 10
313.446
 20
2.22964
 30
7.84876e-014
  70
    32
  0
VERTEX
  8
0
  5
45A7
 10
313.454
 20
2.27191
 30
7.84901e-014
  70
    32
  0
VERTEX
  8
0
  5
45A8
 10
313.462
 20
2.31421
 30
7.84925e-014
  70
    32
  0
VERTEX
  8
0
  5
45A9
 10
313.471
 20
2.35653
 30
7.84950e-014
  70
    32
  0
VERTEX
  8
0
  5
45AA
 10
313.479
 20
2.39889
 30
7.84974e-014
  70
    32
  0
VERTEX
  8
0
  5
45AB
 10
313.488
 20
2.44128
 30
7.84999e-014
  70
    32
  0
VERTEX
  8
0
  5
45AC
 10
313.496
 20
2.48369
 30
7.85023e-014
  70
    32
  0
VERTEX
  8
0
  5
45AD
 10
313.504
 20
2.52614
 30
7.85047e-014
  70
    32
  0
VERTEX
  8
0
  5
45AE
 10
313.513
 20
2.56861
 30
7.85071e-014
  70
    32
  0
VERTEX
  8
0
  5
45AF
 10
313.521
 20
2.61110
 30
7.85095e-014
  70
    32
  0
VERTEX
  8
0
  5
45B0
 10
313.529
 20
2.65363
 30
7.85119e-014
  70
    32
  0
VERTEX
  8
0
  5
45B1
 10
313.538
 20
2.69618
 30
7.85142e-014
  70
    32
  0
VERTEX
  8
0
  5
45B2
 10
313.546
 20
2.73876
 30
7.85166e-014
  70
    32
  0
VERTEX
  8
0
  5
45B3
 10
313.554
 20
2.78136
 30
7.85189e-014
  70
    32
  0
VERTEX
  8
0
  5
45B4
 10
313.563
 20
2.82400
 30
7.85212e-014
  70
    32
  0
VERTEX
  8
0
  5
45B5
 10
313.571
 20
2.86665
 30
7.85235e-014
  70
    32
  0
VERTEX
  8
0
  5
45B6
 10
313.580
 20
2.90933
 30
7.85258e-014
  70
    32
  0
VERTEX
  8
0
  5
45B7
 10
313.588
 20
2.95204
 30
7.85280e-014
  70
    32
  0
VERTEX
  8
0
  5
45B8
 10
313.596
 20
2.99477
 30
7.85302e-014
  70
    32
  0
VERTEX
  8
0
  5
45B9
 10
313.605
 20
3.03753
 30
7.85324e-014
  70
    32
  0
VERTEX
  8
0
  5
45BA
 10
313.613
 20
3.08031
 30
7.85345e-014
  70
    32
  0
VERTEX
  8
0
  5
45BB
 10
313.621
 20
3.12311
 30
7.85367e-014
  70
    32
  0
VERTEX
  8
0
  5
45BC
 10
313.630
 20
3.16594
 30
7.85387e-014
  70
    32
  0
VERTEX
  8
0
  5
45BD
 10
313.638
 20
3.20879
 30
7.85408e-014
  70
    32
  0
VERTEX
  8
0
  5
45BE
 10
313.646
 20
3.25166
 30
7.85428e-014
  70
    32
  0
VERTEX
  8
0
  5
45BF
 10
313.655
 20
3.29455
 30
7.85448e-014
  70
    32
  0
VERTEX
  8
0
  5
45C0
 10
313.663
 20
3.33747
 30
7.85467e-014
  70
    32
  0
VERTEX
  8
0
  5
45C1
 10
313.671
 20
3.38041
 30
7.85486e-014
  70
    32
  0
VERTEX
  8
0
  5
45C2
 10
313.679
 20
3.42337
 30
7.85504e-014
  70
    32
  0
VERTEX
  8
0
  5
45C3
 10
313.688
 20
3.46635
 30
7.85523e-014
  70
    32
  0
VERTEX
  8
0
  5
45C4
 10
313.696
 20
3.50935
 30
7.85542e-014
  70
    32
  0
VERTEX
  8
0
  5
45C5
 10
313.704
 20
3.55237
 30
7.85562e-014
  70
    32
  0
VERTEX
  8
0
  5
45C6
 10
313.713
 20
3.59542
 30
7.85582e-014
  70
    32
  0
VERTEX
  8
0
  5
45C7
 10
313.721
 20
3.63848
 30
7.85602e-014
  70
    32
  0
VERTEX
  8
0
  5
45C8
 10
313.729
 20
3.68156
 30
7.85623e-014
  70
    32
  0
VERTEX
  8
0
  5
45C9
 10
313.737
 20
3.72467
 30
7.85644e-014
  70
    32
  0
VERTEX
  8
0
  5
45CA
 10
313.746
 20
3.76779
 30
7.85665e-014
  70
    32
  0
VERTEX
  8
0
  5
45CB
 10
313.754
 20
3.81093
 30
7.85687e-014
  70
    32
  0
VERTEX
  8
0
  5
45CC
 10
313.762
 20
3.85408
 30
7.85709e-014
  70
    32
  0
VERTEX
  8
0
  5
45CD
 10
313.770
 20
3.89726
 30
7.85732e-014
  70
    32
  0
VERTEX
  8
0
  5
45CE
 10
313.779
 20
3.94045
 30
7.85755e-014
  70
    32
  0
VERTEX
  8
0
  5
45CF
 10
313.787
 20
3.98367
 30
7.85778e-014
  70
    32
  0
VERTEX
  8
0
  5
45D0
 10
313.795
 20
4.02690
 30
7.85801e-014
  70
    32
  0
VERTEX
  8
0
  5
45D1
 10
313.803
 20
4.07014
 30
7.85825e-014
  70
    32
  0
VERTEX
  8
0
  5
45D2
 10
313.811
 20
4.11340
 30
7.85849e-014
  70
    32
  0
VERTEX
  8
0
  5
45D3
 10
313.820
 20
4.15668
 30
7.85874e-014
  70
    32
  0
VERTEX
  8
0
  5
45D4
 10
313.828
 20
4.19998
 30
7.85898e-014
  70
    32
  0
VERTEX
  8
0
  5
45D5
 10
313.836
 20
4.24329
 30
7.85923e-014
  70
    32
  0
VERTEX
  8
0
  5
45D6
 10
313.844
 20
4.28661
 30
7.85948e-014
  70
    32
  0
VERTEX
  8
0
  5
45D7
 10
313.852
 20
4.32995
 30
7.85973e-014
  70
    32
  0
VERTEX
  8
0
  5
45D8
 10
313.860
 20
4.37331
 30
7.85999e-014
  70
    32
  0
VERTEX
  8
0
  5
45D9
 10
313.869
 20
4.41668
 30
7.86025e-014
  70
    32
  0
VERTEX
  8
0
  5
45DA
 10
313.877
 20
4.46006
 30
7.86051e-014
  70
    32
  0
VERTEX
  8
0
  5
45DB
 10
313.885
 20
4.50346
 30
7.86077e-014
  70
    32
  0
VERTEX
  8
0
  5
45DC
 10
313.893
 20
4.54687
 30
7.86103e-014
  70
    32
  0
VERTEX
  8
0
  5
45DD
 10
313.901
 20
4.59030
 30
7.86129e-014
  70
    32
  0
VERTEX
  8
0
  5
45DE
 10
313.909
 20
4.63374
 30
7.86156e-014
  70
    32
  0
VERTEX
  8
0
  5
45DF
 10
313.917
 20
4.67719
 30
7.86183e-014
  70
    32
  0
VERTEX
  8
0
  5
45E0
 10
313.925
 20
4.72065
 30
7.86209e-014
  70
    32
  0
VERTEX
  8
0
  5
45E1
 10
313.933
 20
4.76413
 30
7.86236e-014
  70
    32
  0
VERTEX
  8
0
  5
45E2
 10
313.941
 20
4.80761
 30
7.86263e-014
  70
    32
  0
VERTEX
  8
0
  5
45E3
 10
313.949
 20
4.85111
 30
7.86291e-014
  70
    32
  0
VERTEX
  8
0
  5
45E4
 10
313.957
 20
4.89462
 30
7.86318e-014
  70
    32
  0
VERTEX
  8
0
  5
45E5
 10
313.965
 20
4.93814
 30
7.86345e-014
  70
    32
  0
VERTEX
  8
0
  5
45E6
 10
313.973
 20
4.98167
 30
7.86372e-014
  70
    32
  0
VERTEX
  8
0
  5
45E7
 10
313.981
 20
5.02521
 30
7.86400e-014
  70
    32
  0
VERTEX
  8
0
  5
45E8
 10
313.989
 20
5.06876
 30
7.86427e-014
  70
    32
  0
VERTEX
  8
0
  5
45E9
 10
313.997
 20
5.11232
 30
7.86455e-014
  70
    32
  0
VERTEX
  8
0
  5
45EA
 10
314.005
 20
5.15589
 30
7.86482e-014
  70
    32
  0
VERTEX
  8
0
  5
45EB
 10
314.013
 20
5.19947
 30
7.86510e-014
  70
    32
  0
VERTEX
  8
0
  5
45EC
 10
314.021
 20
5.24306
 30
7.86537e-014
  70
    32
  0
VERTEX
  8
0
  5
45ED
 10
314.029
 20
5.28665
 30
7.86565e-014
  70
    32
  0
VERTEX
  8
0
  5
45EE
 10
314.036
 20
5.33026
 30
7.86592e-014
  70
    32
  0
VERTEX
  8
0
  5
45EF
 10
314.044
 20
5.37387
 30
7.86620e-014
  70
    32
  0
VERTEX
  8
0
  5
45F0
 10
314.052
 20
5.41749
 30
7.86647e-014
  70
    32
  0
VERTEX
  8
0
  5
45F1
 10
314.060
 20
5.46111
 30
7.86675e-014
  70
    32
  0
VERTEX
  8
0
  5
45F2
 10
314.068
 20
5.50475
 30
7.86702e-014
  70
    32
  0
VERTEX
  8
0
  5
45F3
 10
314.076
 20
5.54839
 30
7.86729e-014
  70
    32
  0
VERTEX
  8
0
  5
45F4
 10
314.083
 20
5.59203
 30
7.86756e-014
  70
    32
  0
VERTEX
  8
0
  5
45F5
 10
314.091
 20
5.63568
 30
7.86783e-014
  70
    32
  0
VERTEX
  8
0
  5
45F6
 10
314.099
 20
5.67934
 30
7.86810e-014
  70
    32
  0
VERTEX
  8
0
  5
45F7
 10
314.106
 20
5.72300
 30
7.86837e-014
  70
    32
  0
VERTEX
  8
0
  5
45F8
 10
314.114
 20
5.76667
 30
7.86863e-014
  70
    32
  0
VERTEX
  8
0
  5
45F9
 10
314.122
 20
5.81034
 30
7.86890e-014
  70
    32
  0
VERTEX
  8
0
  5
45FA
 10
314.130
 20
5.85402
 30
7.86916e-014
  70
    32
  0
VERTEX
  8
0
  5
45FB
 10
314.137
 20
5.89770
 30
7.86942e-014
  70
    32
  0
VERTEX
  8
0
  5
45FC
 10
314.145
 20
5.94139
 30
7.86968e-014
  70
    32
  0
VERTEX
  8
0
  5
45FD
 10
314.152
 20
5.98507
 30
7.86994e-014
  70
    32
  0
VERTEX
  8
0
  5
45FE
 10
314.160
 20
6.02876
 30
7.87020e-014
  70
    32
  0
VERTEX
  8
0
  5
45FF
 10
314.168
 20
6.07246
 30
7.87045e-014
  70
    32
  0
VERTEX
  8
0
  5
4600
 10
314.175
 20
6.11616
 30
7.87070e-014
  70
    32
  0
VERTEX
  8
0
  5
4601
 10
314.183
 20
6.15986
 30
7.87095e-014
  70
    32
  0
VERTEX
  8
0
  5
4602
 10
314.190
 20
6.20356
 30
7.87120e-014
  70
    32
  0
VERTEX
  8
0
  5
4603
 10
314.198
 20
6.24726
 30
7.87144e-014
  70
    32
  0
VERTEX
  8
0
  5
4604
 10
314.205
 20
6.29096
 30
7.87168e-014
  70
    32
  0
VERTEX
  8
0
  5
4605
 10
314.213
 20
6.33467
 30
7.87192e-014
  70
    32
  0
VERTEX
  8
0
  5
4606
 10
314.220
 20
6.37837
 30
7.87215e-014
  70
    32
  0
VERTEX
  8
0
  5
4607
 10
314.228
 20
6.42208
 30
7.87239e-014
  70
    32
  0
VERTEX
  8
0
  5
4608
 10
314.235
 20
6.46579
 30
7.87262e-014
  70
    32
  0
VERTEX
  8
0
  5
4609
 10
314.242
 20
6.50949
 30
7.87284e-014
  70
    32
  0
VERTEX
  8
0
  5
460A
 10
314.250
 20
6.55320
 30
7.87307e-014
  70
    32
  0
VERTEX
  8
0
  5
460B
 10
314.257
 20
6.59690
 30
7.87329e-014
  70
    32
  0
VERTEX
  8
0
  5
460C
 10
314.264
 20
6.64061
 30
7.87350e-014
  70
    32
  0
VERTEX
  8
0
  5
460D
 10
314.272
 20
6.68431
 30
7.87371e-014
  70
    32
  0
VERTEX
  8
0
  5
460E
 10
314.279
 20
6.72801
 30
7.87392e-014
  70
    32
  0
VERTEX
  8
0
  5
460F
 10
314.286
 20
6.77171
 30
7.87413e-014
  70
    32
  0
VERTEX
  8
0
  5
4610
 10
314.293
 20
6.81541
 30
7.87433e-014
  70
    32
  0
VERTEX
  8
0
  5
4611
 10
314.301
 20
6.85910
 30
7.87452e-014
  70
    32
  0
VERTEX
  8
0
  5
4612
 10
314.308
 20
6.90279
 30
7.87472e-014
  70
    32
  0
VERTEX
  8
0
  5
4613
 10
314.315
 20
6.94648
 30
7.87490e-014
  70
    32
  0
VERTEX
  8
0
  5
4614
 10
314.322
 20
6.99017
 30
7.87509e-014
  70
    32
  0
VERTEX
  8
0
  5
4615
 10
314.329
 20
7.03385
 30
7.87527e-014
  70
    32
  0
VERTEX
  8
0
  5
4616
 10
314.336
 20
7.07752
 30
7.87544e-014
  70
    32
  0
VERTEX
  8
0
  5
4617
 10
314.343
 20
7.12120
 30
7.87561e-014
  70
    32
  0
VERTEX
  8
0
  5
4618
 10
314.350
 20
7.16486
 30
7.87578e-014
  70
    32
  0
VERTEX
  8
0
  5
4619
 10
314.357
 20
7.20853
 30
7.87594e-014
  70
    32
  0
VERTEX
  8
0
  5
461A
 10
314.364
 20
7.25219
 30
7.87610e-014
  70
    32
  0
VERTEX
  8
0
  5
461B
 10
314.371
 20
7.29584
 30
7.87625e-014
  70
    32
  0
VERTEX
  8
0
  5
461C
 10
314.378
 20
7.33949
 30
7.87641e-014
  70
    32
  0
VERTEX
  8
0
  5
461D
 10
314.385
 20
7.38313
 30
7.87655e-014
  70
    32
  0
VERTEX
  8
0
  5
461E
 10
314.392
 20
7.42676
 30
7.87670e-014
  70
    32
  0
VERTEX
  8
0
  5
461F
 10
314.399
 20
7.47039
 30
7.87684e-014
  70
    32
  0
VERTEX
  8
0
  5
4620
 10
314.406
 20
7.51401
 30
7.87698e-014
  70
    32
  0
VERTEX
  8
0
  5
4621
 10
314.413
 20
7.55763
 30
7.87711e-014
  70
    32
  0
VERTEX
  8
0
  5
4622
 10
314.419
 20
7.60123
 30
7.87724e-014
  70
    32
  0
VERTEX
  8
0
  5
4623
 10
314.426
 20
7.64483
 30
7.87737e-014
  70
    32
  0
VERTEX
  8
0
  5
4624
 10
314.433
 20
7.68842
 30
7.87750e-014
  70
    32
  0
VERTEX
  8
0
  5
4625
 10
314.440
 20
7.73201
 30
7.87762e-014
  70
    32
  0
VERTEX
  8
0
  5
4626
 10
314.446
 20
7.77558
 30
7.87774e-014
  70
    32
  0
VERTEX
  8
0
  5
4627
 10
314.453
 20
7.81914
 30
7.87786e-014
  70
    32
  0
VERTEX
  8
0
  5
4628
 10
314.460
 20
7.86270
 30
7.87798e-014
  70
    32
  0
VERTEX
  8
0
  5
4629
 10
314.466
 20
7.90625
 30
7.87809e-014
  70
    32
  0
VERTEX
  8
0
  5
462A
 10
314.473
 20
7.94979
 30
7.87820e-014
  70
    32
  0
VERTEX
  8
0
  5
462B
 10
314.479
 20
7.99331
 30
7.87831e-014
  70
    32
  0
VERTEX
  8
0
  5
462C
 10
314.486
 20
8.03683
 30
7.87842e-014
  70
    32
  0
VERTEX
  8
0
  5
462D
 10
314.492
 20
8.08034
 30
7.87853e-014
  70
    32
  0
VERTEX
  8
0
  5
462E
 10
314.499
 20
8.12383
 30
7.87863e-014
  70
    32
  0
VERTEX
  8
0
  5
462F
 10
314.505
 20
8.16731
 30
7.87874e-014
  70
    32
  0
VERTEX
  8
0
  5
4630
 10
314.512
 20
8.21079
 30
7.87884e-014
  70
    32
  0
VERTEX
  8
0
  5
4631
 10
314.518
 20
8.25425
 30
7.87894e-014
  70
    32
  0
VERTEX
  8
0
  5
4632
 10
314.524
 20
8.29770
 30
7.87904e-014
  70
    32
  0
VERTEX
  8
0
  5
4633
 10
314.531
 20
8.34113
 30
7.87914e-014
  70
    32
  0
VERTEX
  8
0
  5
4634
 10
314.537
 20
8.38456
 30
7.87923e-014
  70
    32
  0
VERTEX
  8
0
  5
4635
 10
314.543
 20
8.42797
 30
7.87933e-014
  70
    32
  0
VERTEX
  8
0
  5
4636
 10
314.549
 20
8.47137
 30
7.87943e-014
  70
    32
  0
VERTEX
  8
0
  5
4637
 10
314.556
 20
8.51475
 30
7.87952e-014
  70
    32
  0
VERTEX
  8
0
  5
4638
 10
314.562
 20
8.55812
 30
7.87962e-014
  70
    32
  0
VERTEX
  8
0
  5
4639
 10
314.568
 20
8.60148
 30
7.87971e-014
  70
    32
  0
VERTEX
  8
0
  5
463A
 10
314.574
 20
8.64482
 30
7.87981e-014
  70
    32
  0
VERTEX
  8
0
  5
463B
 10
314.580
 20
8.68815
 30
7.87990e-014
  70
    32
  0
VERTEX
  8
0
  5
463C
 10
314.586
 20
8.73146
 30
7.87999e-014
  70
    32
  0
VERTEX
  8
0
  5
463D
 10
314.592
 20
8.77476
 30
7.88009e-014
  70
    32
  0
VERTEX
  8
0
  5
463E
 10
314.598
 20
8.81804
 30
7.88018e-014
  70
    32
  0
VERTEX
  8
0
  5
463F
 10
314.604
 20
8.86130
 30
7.88028e-014
  70
    32
  0
VERTEX
  8
0
  5
4640
 10
314.610
 20
8.90455
 30
7.88037e-014
  70
    32
  0
VERTEX
  8
0
  5
4641
 10
314.616
 20
8.94779
 30
7.88047e-014
  70
    32
  0
VERTEX
  8
0
  5
4642
 10
314.621
 20
8.99100
 30
7.88056e-014
  70
    32
  0
VERTEX
  8
0
  5
4643
 10
314.627
 20
9.03420
 30
7.88066e-014
  70
    32
  0
VERTEX
  8
0
  5
4644
 10
314.633
 20
9.07738
 30
7.88076e-014
  70
    32
  0
VERTEX
  8
0
  5
4645
 10
314.639
 20
9.12055
 30
7.88086e-014
  70
    32
  0
VERTEX
  8
0
  5
4646
 10
314.644
 20
9.16370
 30
7.88096e-014
  70
    32
  0
VERTEX
  8
0
  5
4647
 10
314.650
 20
9.20683
 30
7.88106e-014
  70
    32
  0
VERTEX
  8
0
  5
4648
 10
314.656
 20
9.24994
 30
7.88116e-014
  70
    32
  0
VERTEX
  8
0
  5
4649
 10
314.661
 20
9.29303
 30
7.88126e-014
  70
    32
  0
VERTEX
  8
0
  5
464A
 10
314.667
 20
9.33610
 30
7.88137e-014
  70
    32
  0
VERTEX
  8
0
  5
464B
 10
314.672
 20
9.37915
 30
7.88148e-014
  70
    32
  0
VERTEX
  8
0
  5
464C
 10
314.678
 20
9.42219
 30
7.88159e-014
  70
    32
  0
VERTEX
  8
0
  5
464D
 10
314.683
 20
9.46520
 30
7.88170e-014
  70
    32
  0
VERTEX
  8
0
  5
464E
 10
314.688
 20
9.50820
 30
7.88181e-014
  70
    32
  0
VERTEX
  8
0
  5
464F
 10
314.694
 20
9.55117
 30
7.88192e-014
  70
    32
  0
VERTEX
  8
0
  5
4650
 10
314.699
 20
9.59412
 30
7.88204e-014
  70
    32
  0
VERTEX
  8
0
  5
4651
 10
314.704
 20
9.63705
 30
7.88216e-014
  70
    32
  0
VERTEX
  8
0
  5
4652
 10
314.710
 20
9.67996
 30
7.88228e-014
  70
    32
  0
VERTEX
  8
0
  5
4653
 10
314.715
 20
9.72285
 30
7.88241e-014
  70
    32
  0
VERTEX
  8
0
  5
4654
 10
314.720
 20
9.76572
 30
7.88253e-014
  70
    32
  0
VERTEX
  8
0
  5
4655
 10
314.725
 20
9.80856
 30
7.88266e-014
  70
    32
  0
VERTEX
  8
0
  5
4656
 10
314.730
 20
9.85139
 30
7.88279e-014
  70
    32
  0
VERTEX
  8
0
  5
4657
 10
314.735
 20
9.89419
 30
7.88293e-014
  70
    32
  0
VERTEX
  8
0
  5
4658
 10
314.740
 20
9.93696
 30
7.88307e-014
  70
    32
  0
VERTEX
  8
0
  5
4659
 10
314.745
 20
9.97972
 30
7.88321e-014
  70
    32
  0
VERTEX
  8
0
  5
465A
 10
314.750
 20
10.0224
 30
7.88336e-014
  70
    32
  0
VERTEX
  8
0
  5
465B
 10
314.755
 20
10.0652
 30
7.88350e-014
  70
    32
  0
VERTEX
  8
0
  5
465C
 10
314.760
 20
10.1078
 30
7.88366e-014
  70
    32
  0
VERTEX
  8
0
  5
465D
 10
314.765
 20
10.1505
 30
7.88381e-014
  70
    32
  0
VERTEX
  8
0
  5
465E
 10
314.770
 20
10.1931
 30
7.88397e-014
  70
    32
  0
VERTEX
  8
0
  5
465F
 10
314.774
 20
10.2357
 30
7.88414e-014
  70
    32
  0
VERTEX
  8
0
  5
4660
 10
314.779
 20
10.2783
 30
7.88430e-014
  70
    32
  0
VERTEX
  8
0
  5
4661
 10
314.784
 20
10.3209
 30
7.88447e-014
  70
    32
  0
VERTEX
  8
0
  5
4662
 10
314.788
 20
10.3634
 30
7.88465e-014
  70
    32
  0
VERTEX
  8
0
  5
4663
 10
314.793
 20
10.4059
 30
7.88483e-014
  70
    32
  0
VERTEX
  8
0
  5
4664
 10
314.797
 20
10.4484
 30
7.88502e-014
  70
    32
  0
VERTEX
  8
0
  5
4665
 10
314.802
 20
10.4908
 30
7.88520e-014
  70
    32
  0
VERTEX
  8
0
  5
4666
 10
314.806
 20
10.5333
 30
7.88540e-014
  70
    32
  0
VERTEX
  8
0
  5
4667
 10
314.811
 20
10.5756
 30
7.88558e-014
  70
    32
  0
VERTEX
  8
0
  5
4668
 10
314.815
 20
10.6180
 30
7.88576e-014
  70
    32
  0
VERTEX
  8
0
  5
4669
 10
314.819
 20
10.6604
 30
7.88594e-014
  70
    32
  0
VERTEX
  8
0
  5
466A
 10
314.823
 20
10.7027
 30
7.88611e-014
  70
    32
  0
VERTEX
  8
0
  5
466B
 10
314.828
 20
10.7450
 30
7.88628e-014
  70
    32
  0
VERTEX
  8
0
  5
466C
 10
314.832
 20
10.7872
 30
7.88644e-014
  70
    32
  0
VERTEX
  8
0
  5
466D
 10
314.836
 20
10.8294
 30
7.88660e-014
  70
    32
  0
VERTEX
  8
0
  5
466E
 10
314.840
 20
10.8716
 30
7.88675e-014
  70
    32
  0
VERTEX
  8
0
  5
466F
 10
314.844
 20
10.9138
 30
7.88690e-014
  70
    32
  0
VERTEX
  8
0
  5
4670
 10
314.848
 20
10.9559
 30
7.88704e-014
  70
    32
  0
VERTEX
  8
0
  5
4671
 10
314.852
 20
10.9980
 30
7.88718e-014
  70
    32
  0
VERTEX
  8
0
  5
4672
 10
314.856
 20
11.0401
 30
7.88731e-014
  70
    32
  0
VERTEX
  8
0
  5
4673
 10
314.860
 20
11.0822
 30
7.88744e-014
  70
    32
  0
VERTEX
  8
0
  5
4674
 10
314.864
 20
11.1242
 30
7.88757e-014
  70
    32
  0
VERTEX
  8
0
  5
4675
 10
314.867
 20
11.1662
 30
7.88769e-014
  70
    32
  0
VERTEX
  8
0
  5
4676
 10
314.871
 20
11.2081
 30
7.88781e-014
  70
    32
  0
VERTEX
  8
0
  5
4677
 10
314.875
 20
11.2500
 30
7.88792e-014
  70
    32
  0
VERTEX
  8
0
  5
4678
 10
314.878
 20
11.2919
 30
7.88803e-014
  70
    32
  0
VERTEX
  8
0
  5
4679
 10
314.882
 20
11.3338
 30
7.88814e-014
  70
    32
  0
VERTEX
  8
0
  5
467A
 10
314.885
 20
11.3756
 30
7.88824e-014
  70
    32
  0
VERTEX
  8
0
  5
467B
 10
314.889
 20
11.4174
 30
7.88834e-014
  70
    32
  0
VERTEX
  8
0
  5
467C
 10
314.892
 20
11.4592
 30
7.88843e-014
  70
    32
  0
VERTEX
  8
0
  5
467D
 10
314.896
 20
11.5009
 30
7.88852e-014
  70
    32
  0
VERTEX
  8
0
  5
467E
 10
314.899
 20
11.5426
 30
7.88861e-014
  70
    32
  0
VERTEX
  8
0
  5
467F
 10
314.902
 20
11.5842
 30
7.88869e-014
  70
    32
  0
VERTEX
  8
0
  5
4680
 10
314.906
 20
11.6259
 30
7.88877e-014
  70
    32
  0
VERTEX
  8
0
  5
4681
 10
314.909
 20
11.6675
 30
7.88885e-014
  70
    32
  0
VERTEX
  8
0
  5
4682
 10
314.912
 20
11.7090
 30
7.88892e-014
  70
    32
  0
VERTEX
  8
0
  5
4683
 10
314.915
 20
11.7505
 30
7.88899e-014
  70
    32
  0
VERTEX
  8
0
  5
4684
 10
314.918
 20
11.7920
 30
7.88906e-014
  70
    32
  0
VERTEX
  8
0
  5
4685
 10
314.921
 20
11.8335
 30
7.88912e-014
  70
    32
  0
VERTEX
  8
0
  5
4686
 10
314.924
 20
11.8749
 30
7.88918e-014
  70
    32
  0
VERTEX
  8
0
  5
4687
 10
314.927
 20
11.9163
 30
7.88924e-014
  70
    32
  0
VERTEX
  8
0
  5
4688
 10
314.930
 20
11.9576
 30
7.88930e-014
  70
    32
  0
VERTEX
  8
0
  5
4689
 10
314.932
 20
11.9989
 30
7.88935e-014
  70
    32
  0
VERTEX
  8
0
  5
468A
 10
314.935
 20
12.0402
 30
7.88940e-014
  70
    32
  0
VERTEX
  8
0
  5
468B
 10
314.938
 20
12.0814
 30
7.88945e-014
  70
    32
  0
VERTEX
  8
0
  5
468C
 10
314.940
 20
12.1226
 30
7.88949e-014
  70
    32
  0
VERTEX
  8
0
  5
468D
 10
314.943
 20
12.1638
 30
7.88953e-014
  70
    32
  0
VERTEX
  8
0
  5
468E
 10
314.945
 20
12.2049
 30
7.88957e-014
  70
    32
  0
VERTEX
  8
0
  5
468F
 10
314.948
 20
12.2459
 30
7.88961e-014
  70
    32
  0
VERTEX
  8
0
  5
4690
 10
314.950
 20
12.2870
 30
7.88965e-014
  70
    32
  0
VERTEX
  8
0
  5
4691
 10
314.953
 20
12.3280
 30
7.88968e-014
  70
    32
  0
VERTEX
  8
0
  5
4692
 10
314.955
 20
12.3690
 30
7.88971e-014
  70
    32
  0
VERTEX
  8
0
  5
4693
 10
314.957
 20
12.4099
 30
7.88974e-014
  70
    32
  0
VERTEX
  8
0
  5
4694
 10
314.959
 20
12.4508
 30
7.88977e-014
  70
    32
  0
VERTEX
  8
0
  5
4695
 10
314.961
 20
12.4916
 30
7.88979e-014
  70
    32
  0
VERTEX
  8
0
  5
4696
 10
314.963
 20
12.5324
 30
7.88982e-014
  70
    32
  0
VERTEX
  8
0
  5
4697
 10
314.965
 20
12.5732
 30
7.88984e-014
  70
    32
  0
VERTEX
  8
0
  5
4698
 10
314.967
 20
12.6139
 30
7.88986e-014
  70
    32
  0
VERTEX
  8
0
  5
4699
 10
314.969
 20
12.6546
 30
7.88987e-014
  70
    32
  0
VERTEX
  8
0
  5
469A
 10
314.971
 20
12.6952
 30
7.88989e-014
  70
    32
  0
VERTEX
  8
0
  5
469B
 10
314.973
 20
12.7358
 30
7.88991e-014
  70
    32
  0
VERTEX
  8
0
  5
469C
 10
314.975
 20
12.7764
 30
7.88992e-014
  70
    32
  0
VERTEX
  8
0
  5
469D
 10
314.976
 20
12.8169
 30
7.88993e-014
  70
    32
  0
VERTEX
  8
0
  5
469E
 10
314.978
 20
12.8574
 30
7.88994e-014
  70
    32
  0
VERTEX
  8
0
  5
469F
 10
314.979
 20
12.8978
 30
7.88995e-014
  70
    32
  0
VERTEX
  8
0
  5
46A0
 10
314.981
 20
12.9382
 30
7.88996e-014
  70
    32
  0
VERTEX
  8
0
  5
46A1
 10
314.982
 20
12.9786
 30
7.88997e-014
  70
    32
  0
VERTEX
  8
0
  5
46A2
 10
314.984
 20
13.0189
 30
7.88997e-014
  70
    32
  0
VERTEX
  8
0
  5
46A3
 10
314.985
 20
13.0591
 30
7.88998e-014
  70
    32
  0
VERTEX
  8
0
  5
46A4
 10
314.986
 20
13.0994
 30
7.88998e-014
  70
    32
  0
VERTEX
  8
0
  5
46A5
 10
314.987
 20
13.1395
 30
7.88999e-014
  70
    32
  0
VERTEX
  8
0
  5
46A6
 10
314.988
 20
13.1797
 30
7.88999e-014
  70
    32
  0
VERTEX
  8
0
  5
46A7
 10
314.990
 20
13.2198
 30
7.88999e-014
  70
    32
  0
VERTEX
  8
0
  5
46A8
 10
314.991
 20
13.2598
 30
7.89000e-014
  70
    32
  0
VERTEX
  8
0
  5
46A9
 10
314.991
 20
13.2998
 30
7.89000e-014
  70
    32
  0
VERTEX
  8
0
  5
46AA
 10
314.992
 20
13.3397
 30
7.89000e-014
  70
    32
  0
VERTEX
  8
0
  5
46AB
 10
314.993
 20
13.3796
 30
7.89000e-014
  70
    32
  0
VERTEX
  8
0
  5
46AC
 10
314.994
 20
13.4195
 30
7.89000e-014
  70
    32
  0
VERTEX
  8
0
  5
46AD
 10
314.995
 20
13.4593
 30
7.89000e-014
  70
    32
  0
VERTEX
  8
0
  5
46AE
 10
314.995
 20
13.4991
 30
7.89000e-014
  70
    32
  0
VERTEX
  8
0
  5
46AF
 10
314.996
 20
13.5388
 30
7.89000e-014
  70
    32
  0
SEQEND
  8
0
  5
46B0
  0
POLYLINE
  8
0
  5
46B1
  62
3
  66
     1
 10
0.000000
 20
0.000000
 30
0.000000
  70
     8
  0
VERTEX
  8
0
  5
46B2
 10
314.996
 20
-13.5388
 30
7.89000e-014
  70
    32
  0
VERTEX
  8
0
  5
46B3
 10
314.995
 20
-13.4991
 30
7.89000e-014
  70
    32
  0
VERTEX
  8
0
  5
46B4
 10
314.995
 20
-13.4593
 30
7.89000e-014
  70
    32
  0
VERTEX
  8
0
  5
46B5
 10
314.994
 20
-13.4195
 30
7.89000e-014
  70
    32
  0
VERTEX
  8
0
  5
46B6
 10
314.993
 20
-13.3796
 30
7.89000e-014
  70
    32
  0
VERTEX
  8
0
  5
46B7
 10
314.992
 20
-13.3397
 30
7.89000e-014
  70
    32
  0
VERTEX
  8
0
  5
46B8
 10
314.991
 20
-13.2998
 30
7.89000e-014
  70
    32
  0
VERTEX
  8
0
  5
46B9
 10
314.991
 20
-13.2598
 30
7.89000e-014
  70
    32
  0
VERTEX
  8
0
  5
46BA
 10
314.990
 20
-13.2198
 30
7.88999e-014
  70
    32
  0
VERTEX
  8
0
  5
46BB
 10
314.988
 20
-13.1797
 30
7.88999e-014
  70
    32
  0
VERTEX
  8
0
  5
46BC
 10
314.987
 20
-13.1395
 30
7.88999e-014
  70
    32
  0
VERTEX
  8
0
  5
46BD
 10
314.986
 20
-13.0994
 30
7.88998e-014
  70
    32
  0
VERTEX
  8
0
  5
46BE
 10
314.985
 20
-13.0591
 30
7.88998e-014
  70
    32
  0
VERTEX
  8
0
  5
46BF
 10
314.984
 20
-13.0189
 30
7.88997e-014
  70
    32
  0
VERTEX
  8
0
  5
46C0
 10
314.982
 20
-12.9786
 30
7.88997e-014
  70
    32
  0
VERTEX
  8
0
  5
46C1
 10
314.981
 20
-12.9382
 30
7.88996e-014
  70
    32
  0
VERTEX
  8
0
  5
46C2
 10
314.979
 20
-12.8978
 30
7.88995e-014
  70
    32
  0
VERTEX
  8
0
  5
46C3
 10
314.978
 20
-12.8574
 30
7.88994e-014
  70
    32
  0
VERTEX
  8
0
  5
46C4
 10
314.976
 20
-12.8169
 30
7.88993e-014
  70
    32
  0
VERTEX
  8
0
  5
46C5
 10
314.975
 20
-12.7764
 30
7.88992e-014
  70
    32
  0
VERTEX
  8
0
  5
46C6
 10
314.973
 20
-12.7358
 30
7.88991e-014
  70
    32
  0
VERTEX
  8
0
  5
46C7
 10
314.971
 20
-12.6952
 30
7.88989e-014
  70
    32
  0
VERTEX
  8
0
  5
46C8
 10
314.969
 20
-12.6546
 30
7.88987e-014
  70
    32
  0
VERTEX
  8
0
  5
46C9
 10
314.967
 20
-12.6139
 30
7.88986e-014
  70
    32
  0
VERTEX
  8
0
  5
46CA
 10
314.965
 20
-12.5732
 30
7.88984e-014
  70
    32
  0
VERTEX
  8
0
  5
46CB
 10
314.963
 20
-12.5324
 30
7.88982e-014
  70
    32
  0
VERTEX
  8
0
  5
46CC
 10
314.961
 20
-12.4916
 30
7.88979e-014
  70
    32
  0
VERTEX
  8
0
  5
46CD
 10
314.959
 20
-12.4508
 30
7.88977e-014
  70
    32
  0
VERTEX
  8
0
  5
46CE
 10
314.957
 20
-12.4099
 30
7.88974e-014
  70
    32
  0
VERTEX
  8
0
  5
46CF
 10
314.955
 20
-12.3690
 30
7.88971e-014
  70
    32
  0
VERTEX
  8
0
  5
46D0
 10
314.953
 20
-12.3280
 30
7.88968e-014
  70
    32
  0
VERTEX
  8
0
  5
46D1
 10
314.950
 20
-12.2870
 30
7.88965e-014
  70
    32
  0
VERTEX
  8
0
  5
46D2
 10
314.948
 20
-12.2459
 30
7.88961e-014
  70
    32
  0
VERTEX
  8
0
  5
46D3
 10
314.945
 20
-12.2049
 30
7.88957e-014
  70
    32
  0
VERTEX
  8
0
  5
46D4
 10
314.943
 20
-12.1638
 30
7.88953e-014
  70
    32
  0
VERTEX
  8
0
  5
46D5
 10
314.940
 20
-12.1226
 30
7.88949e-014
  70
    32
  0
VERTEX
  8
0
  5
46D6
 10
314.938
 20
-12.0814
 30
7.88945e-014
  70
    32
  0
VERTEX
  8
0
  5
46D7
 10
314.935
 20
-12.0402
 30
7.88940e-014
  70
    32
  0
VERTEX
  8
0
  5
46D8
 10
314.932
 20
-11.9989
 30
7.88935e-014
  70
    32
  0
VERTEX
  8
0
  5
46D9
 10
314.930
 20
-11.9576
 30
7.88930e-014
  70
    32
  0
VERTEX
  8
0
  5
46DA
 10
314.927
 20
-11.9163
 30
7.88924e-014
  70
    32
  0
VERTEX
  8
0
  5
46DB
 10
314.924
 20
-11.8749
 30
7.88918e-014
  70
    32
  0
VERTEX
  8
0
  5
46DC
 10
314.921
 20
-11.8335
 30
7.88912e-014
  70
    32
  0
VERTEX
  8
0
  5
46DD
 10
314.918
 20
-11.7920
 30
7.88906e-014
  70
    32
  0
VERTEX
  8
0
  5
46DE
 10
314.915
 20
-11.7505
 30
7.88899e-014
  70
    32
  0
VERTEX
  8
0
  5
46DF
 10
314.912
 20
-11.7090
 30
7.88892e-014
  70
    32
  0
VERTEX
  8
0
  5
46E0
 10
314.909
 20
-11.6675
 30
7.88885e-014
  70
    32
  0
VERTEX
  8
0
  5
46E1
 10
314.906
 20
-11.6259
 30
7.88877e-014
  70
    32
  0
VERTEX
  8
0
  5
46E2
 10
314.902
 20
-11.5842
 30
7.88869e-014
  70
    32
  0
VERTEX
  8
0
  5
46E3
 10
314.899
 20
-11.5426
 30
7.88861e-014
  70
    32
  0
VERTEX
  8
0
  5
46E4
 10
314.896
 20
-11.5009
 30
7.88852e-014
  70
    32
  0
VERTEX
  8
0
  5
46E5
 10
314.892
 20
-11.4592
 30
7.88843e-014
  70
    32
  0
VERTEX
  8
0
  5
46E6
 10
314.889
 20
-11.4174
 30
7.88834e-014
  70
    32
  0
VERTEX
  8
0
  5
46E7
 10
314.885
 20
-11.3756
 30
7.88824e-014
  70
    32
  0
VERTEX
  8
0
  5
46E8
 10
314.882
 20
-11.3338
 30
7.88814e-014
  70
    32
  0
VERTEX
  8
0
  5
46E9
 10
314.878
 20
-11.2919
 30
7.88803e-014
  70
    32
  0
VERTEX
  8
0
  5
46EA
 10
314.875
 20
-11.2500
 30
7.88792e-014
  70
    32
  0
VERTEX
  8
0
  5
46EB
 10
314.871
 20
-11.2081
 30
7.88781e-014
  70
    32
  0
VERTEX
  8
0
  5
46EC
 10
314.867
 20
-11.1662
 30
7.88769e-014
  70
    32
  0
VERTEX
  8
0
  5
46ED
 10
314.864
 20
-11.1242
 30
7.88757e-014
  70
    32
  0
VERTEX
  8
0
  5
46EE
 10
314.860
 20
-11.0822
 30
7.88744e-014
  70
    32
  0
VERTEX
  8
0
  5
46EF
 10
314.856
 20
-11.0401
 30
7.88731e-014
  70
    32
  0
VERTEX
  8
0
  5
46F0
 10
314.852
 20
-10.9980
 30
7.88718e-014
  70
    32
  0
VERTEX
  8
0
  5
46F1
 10
314.848
 20
-10.9559
 30
7.88704e-014
  70
    32
  0
VERTEX
  8
0
  5
46F2
 10
314.844
 20
-10.9138
 30
7.88690e-014
  70
    32
  0
VERTEX
  8
0
  5
46F3
 10
314.840
 20
-10.8716
 30
7.88675e-014
  70
    32
  0
VERTEX
  8
0
  5
46F4
 10
314.836
 20
-10.8294
 30
7.88660e-014
  70
    32
  0
VERTEX
  8
0
  5
46F5
 10
314.832
 20
-10.7872
 30
7.88644e-014
  70
    32
  0
VERTEX
  8
0
  5
46F6
 10
314.828
 20
-10.7450
 30
7.88628e-014
  70
    32
  0
VERTEX
  8
0
  5
46F7
 10
314.823
 20
-10.7027
 30
7.88611e-014
  70
    32
  0
VERTEX
  8
0
  5
46F8
 10
314.819
 20
-10.6604
 30
7.88594e-014
  70
    32
  0
VERTEX
  8
0
  5
46F9
 10
314.815
 20
-10.6180
 30
7.88576e-014
  70
    32
  0
VERTEX
  8
0
  5
46FA
 10
314.811
 20
-10.5756
 30
7.88558e-014
  70
    32
  0
VERTEX
  8
0
  5
46FB
 10
314.806
 20
-10.5333
 30
7.88540e-014
  70
    32
  0
VERTEX
  8
0
  5
46FC
 10
314.802
 20
-10.4908
 30
7.88520e-014
  70
    32
  0
VERTEX
  8
0
  5
46FD
 10
314.797
 20
-10.4484
 30
7.88502e-014
  70
    32
  0
VERTEX
  8
0
  5
46FE
 10
314.793
 20
-10.4059
 30
7.88483e-014
  70
    32
  0
VERTEX
  8
0
  5
46FF
 10
314.788
 20
-10.3634
 30
7.88465e-014
  70
    32
  0
VERTEX
  8
0
  5
4700
 10
314.784
 20
-10.3209
 30
7.88447e-014
  70
    32
  0
VERTEX
  8
0
  5
4701
 10
314.779
 20
-10.2783
 30
7.88430e-014
  70
    32
  0
VERTEX
  8
0
  5
4702
 10
314.774
 20
-10.2357
 30
7.88414e-014
  70
    32
  0
VERTEX
  8
0
  5
4703
 10
314.770
 20
-10.1931
 30
7.88397e-014
  70
    32
  0
VERTEX
  8
0
  5
4704
 10
314.765
 20
-10.1505
 30
7.88381e-014
  70
    32
  0
VERTEX
  8
0
  5
4705
 10
314.760
 20
-10.1078
 30
7.88366e-014
  70
    32
  0
VERTEX
  8
0
  5
4706
 10
314.755
 20
-10.0652
 30
7.88350e-014
  70
    32
  0
VERTEX
  8
0
  5
4707
 10
314.750
 20
-10.0224
 30
7.88336e-014
  70
    32
  0
VERTEX
  8
0
  5
4708
 10
314.745
 20
-9.97972
 30
7.88321e-014
  70
    32
  0
VERTEX
  8
0
  5
4709
 10
314.740
 20
-9.93696
 30
7.88307e-014
  70
    32
  0
VERTEX
  8
0
  5
470A
 10
314.735
 20
-9.89419
 30
7.88293e-014
  70
    32
  0
VERTEX
  8
0
  5
470B
 10
314.730
 20
-9.85139
 30
7.88279e-014
  70
    32
  0
VERTEX
  8
0
  5
470C
 10
314.725
 20
-9.80856
 30
7.88266e-014
  70
    32
  0
VERTEX
  8
0
  5
470D
 10
314.720
 20
-9.76572
 30
7.88253e-014
  70
    32
  0
VERTEX
  8
0
  5
470E
 10
314.715
 20
-9.72285
 30
7.88241e-014
  70
    32
  0
VERTEX
  8
0
  5
470F
 10
314.710
 20
-9.67996
 30
7.88228e-014
  70
    32
  0
VERTEX
  8
0
  5
4710
 10
314.704
 20
-9.63705
 30
7.88216e-014
  70
    32
  0
VERTEX
  8
0
  5
4711
 10
314.699
 20
-9.59412
 30
7.88204e-014
  70
    32
  0
VERTEX
  8
0
  5
4712
 10
314.694
 20
-9.55117
 30
7.88192e-014
  70
    32
  0
VERTEX
  8
0
  5
4713
 10
314.688
 20
-9.50820
 30
7.88181e-014
  70
    32
  0
VERTEX
  8
0
  5
4714
 10
314.683
 20
-9.46520
 30
7.88170e-014
  70
    32
  0
VERTEX
  8
0
  5
4715
 10
314.678
 20
-9.42219
 30
7.88159e-014
  70
    32
  0
VERTEX
  8
0
  5
4716
 10
314.672
 20
-9.37915
 30
7.88148e-014
  70
    32
  0
VERTEX
  8
0
  5
4717
 10
314.667
 20
-9.33610
 30
7.88137e-014
  70
    32
  0
VERTEX
  8
0
  5
4718
 10
314.661
 20
-9.29303
 30
7.88126e-014
  70
    32
  0
VERTEX
  8
0
  5
4719
 10
314.656
 20
-9.24994
 30
7.88116e-014
  70
    32
  0
VERTEX
  8
0
  5
471A
 10
314.650
 20
-9.20683
 30
7.88106e-014
  70
    32
  0
VERTEX
  8
0
  5
471B
 10
314.644
 20
-9.16370
 30
7.88096e-014
  70
    32
  0
VERTEX
  8
0
  5
471C
 10
314.639
 20
-9.12055
 30
7.88086e-014
  70
    32
  0
VERTEX
  8
0
  5
471D
 10
314.633
 20
-9.07738
 30
7.88076e-014
  70
    32
  0
VERTEX
  8
0
  5
471E
 10
314.627
 20
-9.03420
 30
7.88066e-014
  70
    32
  0
VERTEX
  8
0
  5
471F
 10
314.621
 20
-8.99100
 30
7.88056e-014
  70
    32
  0
VERTEX
  8
0
  5
4720
 10
314.616
 20
-8.94779
 30
7.88047e-014
  70
    32
  0
VERTEX
  8
0
  5
4721
 10
314.610
 20
-8.90455
 30
7.88037e-014
  70
    32
  0
VERTEX
  8
0
  5
4722
 10
314.604
 20
-8.86130
 30
7.88028e-014
  70
    32
  0
VERTEX
  8
0
  5
4723
 10
314.598
 20
-8.81804
 30
7.88018e-014
  70
    32
  0
VERTEX
  8
0
  5
4724
 10
314.592
 20
-8.77476
 30
7.88009e-014
  70
    32
  0
VERTEX
  8
0
  5
4725
 10
314.586
 20
-8.73146
 30
7.87999e-014
  70
    32
  0
VERTEX
  8
0
  5
4726
 10
314.580
 20
-8.68815
 30
7.87990e-014
  70
    32
  0
VERTEX
  8
0
  5
4727
 10
314.574
 20
-8.64482
 30
7.87981e-014
  70
    32
  0
VERTEX
  8
0
  5
4728
 10
314.568
 20
-8.60148
 30
7.87971e-014
  70
    32
  0
VERTEX
  8
0
  5
4729
 10
314.562
 20
-8.55812
 30
7.87962e-014
  70
    32
  0
VERTEX
  8
0
  5
472A
 10
314.556
 20
-8.51475
 30
7.87952e-014
  70
    32
  0
VERTEX
  8
0
  5
472B
 10
314.549
 20
-8.47137
 30
7.87943e-014
  70
    32
  0
VERTEX
  8
0
  5
472C
 10
314.543
 20
-8.42797
 30
7.87933e-014
  70
    32
  0
VERTEX
  8
0
  5
472D
 10
314.537
 20
-8.38456
 30
7.87923e-014
  70
    32
  0
VERTEX
  8
0
  5
472E
 10
314.531
 20
-8.34113
 30
7.87914e-014
  70
    32
  0
VERTEX
  8
0
  5
472F
 10
314.524
 20
-8.29770
 30
7.87904e-014
  70
    32
  0
VERTEX
  8
0
  5
4730
 10
314.518
 20
-8.25425
 30
7.87894e-014
  70
    32
  0
VERTEX
  8
0
  5
4731
 10
314.512
 20
-8.21079
 30
7.87884e-014
  70
    32
  0
VERTEX
  8
0
  5
4732
 10
314.505
 20
-8.16731
 30
7.87874e-014
  70
    32
  0
VERTEX
  8
0
  5
4733
 10
314.499
 20
-8.12383
 30
7.87863e-014
  70
    32
  0
VERTEX
  8
0
  5
4734
 10
314.492
 20
-8.08034
 30
7.87853e-014
  70
    32
  0
VERTEX
  8
0
  5
4735
 10
314.486
 20
-8.03683
 30
7.87842e-014
  70
    32
  0
VERTEX
  8
0
  5
4736
 10
314.479
 20
-7.99331
 30
7.87831e-014
  70
    32
  0
VERTEX
  8
0
  5
4737
 10
314.473
 20
-7.94979
 30
7.87820e-014
  70
    32
  0
VERTEX
  8
0
  5
4738
 10
314.466
 20
-7.90625
 30
7.87809e-014
  70
    32
  0
VERTEX
  8
0
  5
4739
 10
314.460
 20
-7.86270
 30
7.87798e-014
  70
    32
  0
VERTEX
  8
0
  5
473A
 10
314.453
 20
-7.81914
 30
7.87786e-014
  70
    32
  0
VERTEX
  8
0
  5
473B
 10
314.446
 20
-7.77558
 30
7.87774e-014
  70
    32
  0
VERTEX
  8
0
  5
473C
 10
314.440
 20
-7.73201
 30
7.87762e-014
  70
    32
  0
VERTEX
  8
0
  5
473D
 10
314.433
 20
-7.68842
 30
7.87750e-014
  70
    32
  0
VERTEX
  8
0
  5
473E
 10
314.426
 20
-7.64483
 30
7.87737e-014
  70
    32
  0
VERTEX
  8
0
  5
473F
 10
314.419
 20
-7.60123
 30
7.87724e-014
  70
    32
  0
VERTEX
  8
0
  5
4740
 10
314.413
 20
-7.55763
 30
7.87711e-014
  70
    32
  0
VERTEX
  8
0
  5
4741
 10
314.406
 20
-7.51401
 30
7.87698e-014
  70
    32
  0
VERTEX
  8
0
  5
4742
 10
314.399
 20
-7.47039
 30
7.87684e-014
  70
    32
  0
VERTEX
  8
0
  5
4743
 10
314.392
 20
-7.42676
 30
7.87670e-014
  70
    32
  0
VERTEX
  8
0
  5
4744
 10
314.385
 20
-7.38313
 30
7.87655e-014
  70
    32
  0
VERTEX
  8
0
  5
4745
 10
314.378
 20
-7.33949
 30
7.87641e-014
  70
    32
  0
VERTEX
  8
0
  5
4746
 10
314.371
 20
-7.29584
 30
7.87625e-014
  70
    32
  0
VERTEX
  8
0
  5
4747
 10
314.364
 20
-7.25219
 30
7.87610e-014
  70
    32
  0
VERTEX
  8
0
  5
4748
 10
314.357
 20
-7.20853
 30
7.87594e-014
  70
    32
  0
VERTEX
  8
0
  5
4749
 10
314.350
 20
-7.16486
 30
7.87578e-014
  70
    32
  0
VERTEX
  8
0
  5
474A
 10
314.343
 20
-7.12120
 30
7.87561e-014
  70
    32
  0
VERTEX
  8
0
  5
474B
 10
314.336
 20
-7.07752
 30
7.87544e-014
  70
    32
  0
VERTEX
  8
0
  5
474C
 10
314.329
 20
-7.03385
 30
7.87527e-014
  70
    32
  0
VERTEX
  8
0
  5
474D
 10
314.322
 20
-6.99017
 30
7.87509e-014
  70
    32
  0
VERTEX
  8
0
  5
474E
 10
314.315
 20
-6.94648
 30
7.87490e-014
  70
    32
  0
VERTEX
  8
0
  5
474F
 10
314.308
 20
-6.90279
 30
7.87472e-014
  70
    32
  0
VERTEX
  8
0
  5
4750
 10
314.301
 20
-6.85910
 30
7.87452e-014
  70
    32
  0
VERTEX
  8
0
  5
4751
 10
314.293
 20
-6.81541
 30
7.87433e-014
  70
    32
  0
VERTEX
  8
0
  5
4752
 10
314.286
 20
-6.77171
 30
7.87413e-014
  70
    32
  0
VERTEX
  8
0
  5
4753
 10
314.279
 20
-6.72801
 30
7.87392e-014
  70
    32
  0
VERTEX
  8
0
  5
4754
 10
314.272
 20
-6.68431
 30
7.87371e-014
  70
    32
  0
VERTEX
  8
0
  5
4755
 10
314.264
 20
-6.64061
 30
7.87350e-014
  70
    32
  0
VERTEX
  8
0
  5
4756
 10
314.257
 20
-6.59690
 30
7.87329e-014
  70
    32
  0
VERTEX
  8
0
  5
4757
 10
314.250
 20
-6.55320
 30
7.87307e-014
  70
    32
  0
VERTEX
  8
0
  5
4758
 10
314.242
 20
-6.50949
 30
7.87284e-014
  70
    32
  0
VERTEX
  8
0
  5
4759
 10
314.235
 20
-6.46579
 30
7.87262e-014
  70
    32
  0
VERTEX
  8
0
  5
475A
 10
314.228
 20
-6.42208
 30
7.87239e-014
  70
    32
  0
VERTEX
  8
0
  5
475B
 10
314.220
 20
-6.37837
 30
7.87215e-014
  70
    32
  0
VERTEX
  8
0
  5
475C
 10
314.213
 20
-6.33467
 30
7.87192e-014
  70
    32
  0
VERTEX
  8
0
  5
475D
 10
314.205
 20
-6.29096
 30
7.87168e-014
  70
    32
  0
VERTEX
  8
0
  5
475E
 10
314.198
 20
-6.24726
 30
7.87144e-014
  70
    32
  0
VERTEX
  8
0
  5
475F
 10
314.190
 20
-6.20356
 30
7.87120e-014
  70
    32
  0
VERTEX
  8
0
  5
4760
 10
314.183
 20
-6.15986
 30
7.87095e-014
  70
    32
  0
VERTEX
  8
0
  5
4761
 10
314.175
 20
-6.11616
 30
7.87070e-014
  70
    32
  0
VERTEX
  8
0
  5
4762
 10
314.168
 20
-6.07246
 30
7.87045e-014
  70
    32
  0
VERTEX
  8
0
  5
4763
 10
314.160
 20
-6.02876
 30
7.87020e-014
  70
    32
  0
VERTEX
  8
0
  5
4764
 10
314.152
 20
-5.98507
 30
7.86994e-014
  70
    32
  0
VERTEX
  8
0
  5
4765
 10
314.145
 20
-5.94139
 30
7.86968e-014
  70
    32
  0
VERTEX
  8
0
  5
4766
 10
314.137
 20
-5.89770
 30
7.86942e-014
  70
    32
  0
VERTEX
  8
0
  5
4767
 10
314.130
 20
-5.85402
 30
7.86916e-014
  70
    32
  0
VERTEX
  8
0
  5
4768
 10
314.122
 20
-5.81034
 30
7.86890e-014
  70
    32
  0
VERTEX
  8
0
  5
4769
 10
314.114
 20
-5.76667
 30
7.86863e-014
  70
    32
  0
VERTEX
  8
0
  5
476A
 10
314.106
 20
-5.72300
 30
7.86837e-014
  70
    32
  0
VERTEX
  8
0
  5
476B
 10
314.099
 20
-5.67934
 30
7.86810e-014
  70
    32
  0
VERTEX
  8
0
  5
476C
 10
314.091
 20
-5.63568
 30
7.86783e-014
  70
    32
  0
VERTEX
  8
0
  5
476D
 10
314.083
 20
-5.59203
 30
7.86756e-014
  70
    32
  0
VERTEX
  8
0
  5
476E
 10
314.076
 20
-5.54839
 30
7.86729e-014
  70
    32
  0
VERTEX
  8
0
  5
476F
 10
314.068
 20
-5.50475
 30
7.86702e-014
  70
    32
  0
VERTEX
  8
0
  5
4770
 10
314.060
 20
-5.46111
 30
7.86675e-014
  70
    32
  0
VERTEX
  8
0
  5
4771
 10
314.052
 20
-5.41749
 30
7.86647e-014
  70
    32
  0
VERTEX
  8
0
  5
4772
 10
314.044
 20
-5.37387
 30
7.86620e-014
  70
    32
  0
VERTEX
  8
0
  5
4773
 10
314.036
 20
-5.33026
 30
7.86592e-014
  70
    32
  0
VERTEX
  8
0
  5
4774
 10
314.029
 20
-5.28665
 30
7.86565e-014
  70
    32
  0
VERTEX
  8
0
  5
4775
 10
314.021
 20
-5.24306
 30
7.86537e-014
  70
    32
  0
VERTEX
  8
0
  5
4776
 10
314.013
 20
-5.19947
 30
7.86510e-014
  70
    32
  0
VERTEX
  8
0
  5
4777
 10
314.005
 20
-5.15589
 30
7.86482e-014
  70
    32
  0
VERTEX
  8
0
  5
4778
 10
313.997
 20
-5.11232
 30
7.86455e-014
  70
    32
  0
VERTEX
  8
0
  5
4779
 10
313.989
 20
-5.06876
 30
7.86427e-014
  70
    32
  0
VERTEX
  8
0
  5
477A
 10
313.981
 20
-5.02521
 30
7.86400e-014
  70
    32
  0
VERTEX
  8
0
  5
477B
 10
313.973
 20
-4.98167
 30
7.86372e-014
  70
    32
  0
VERTEX
  8
0
  5
477C
 10
313.965
 20
-4.93814
 30
7.86345e-014
  70
    32
  0
VERTEX
  8
0
  5
477D
 10
313.957
 20
-4.89462
 30
7.86318e-014
  70
    32
  0
VERTEX
  8
0
  5
477E
 10
313.949
 20
-4.85111
 30
7.86291e-014
  70
    32
  0
VERTEX
  8
0
  5
477F
 10
313.941
 20
-4.80761
 30
7.86263e-014
  70
    32
  0
VERTEX
  8
0
  5
4780
 10
313.933
 20
-4.76413
 30
7.86236e-014
  70
    32
  0
VERTEX
  8
0
  5
4781
 10
313.925
 20
-4.72065
 30
7.86209e-014
  70
    32
  0
VERTEX
  8
0
  5
4782
 10
313.917
 20
-4.67719
 30
7.86183e-014
  70
    32
  0
VERTEX
  8
0
  5
4783
 10
313.909
 20
-4.63374
 30
7.86156e-014
  70
    32
  0
VERTEX
  8
0
  5
4784
 10
313.901
 20
-4.59030
 30
7.86129e-014
  70
    32
  0
VERTEX
  8
0
  5
4785
 10
313.893
 20
-4.54687
 30
7.86103e-014
  70
    32
  0
VERTEX
  8
0
  5
4786
 10
313.885
 20
-4.50346
 30
7.86077e-014
  70
    32
  0
VERTEX
  8
0
  5
4787
 10
313.877
 20
-4.46006
 30
7.86051e-014
  70
    32
  0
VERTEX
  8
0
  5
4788
 10
313.869
 20
-4.41668
 30
7.86025e-014
  70
    32
  0
VERTEX
  8
0
  5
4789
 10
313.860
 20
-4.37331
 30
7.85999e-014
  70
    32
  0
VERTEX
  8
0
  5
478A
 10
313.852
 20
-4.32995
 30
7.85973e-014
  70
    32
  0
VERTEX
  8
0
  5
478B
 10
313.844
 20
-4.28661
 30
7.85948e-014
  70
    32
  0
VERTEX
  8
0
  5
478C
 10
313.836
 20
-4.24329
 30
7.85923e-014
  70
    32
  0
VERTEX
  8
0
  5
478D
 10
313.828
 20
-4.19998
 30
7.85898e-014
  70
    32
  0
VERTEX
  8
0
  5
478E
 10
313.820
 20
-4.15668
 30
7.85874e-014
  70
    32
  0
VERTEX
  8
0
  5
478F
 10
313.811
 20
-4.11340
 30
7.85849e-014
  70
    32
  0
VERTEX
  8
0
  5
4790
 10
313.803
 20
-4.07014
 30
7.85825e-014
  70
    32
  0
VERTEX
  8
0
  5
4791
 10
313.795
 20
-4.02690
 30
7.85801e-014
  70
    32
  0
VERTEX
  8
0
  5
4792
 10
313.787
 20
-3.98367
 30
7.85778e-014
  70
    32
  0
VERTEX
  8
0
  5
4793
 10
313.779
 20
-3.94045
 30
7.85755e-014
  70
    32
  0
VERTEX
  8
0
  5
4794
 10
313.770
 20
-3.89726
 30
7.85732e-014
  70
    32
  0
VERTEX
  8
0
  5
4795
 10
313.762
 20
-3.85408
 30
7.85709e-014
  70
    32
  0
VERTEX
  8
0
  5
4796
 10
313.754
 20
-3.81093
 30
7.85687e-014
  70
    32
  0
VERTEX
  8
0
  5
4797
 10
313.746
 20
-3.76779
 30
7.85665e-014
  70
    32
  0
VERTEX
  8
0
  5
4798
 10
313.737
 20
-3.72467
 30
7.85644e-014
  70
    32
  0
VERTEX
  8
0
  5
4799
 10
313.729
 20
-3.68156
 30
7.85623e-014
  70
    32
  0
VERTEX
  8
0
  5
479A
 10
313.721
 20
-3.63848
 30
7.85602e-014
  70
    32
  0
VERTEX
  8
0
  5
479B
 10
313.713
 20
-3.59542
 30
7.85582e-014
  70
    32
  0
VERTEX
  8
0
  5
479C
 10
313.704
 20
-3.55237
 30
7.85562e-014
  70
    32
  0
VERTEX
  8
0
  5
479D
 10
313.696
 20
-3.50935
 30
7.85542e-014
  70
    32
  0
VERTEX
  8
0
  5
479E
 10
313.688
 20
-3.46635
 30
7.85523e-014
  70
    32
  0
VERTEX
  8
0
  5
479F
 10
313.679
 20
-3.42337
 30
7.85504e-014
  70
    32
  0
VERTEX
  8
0
  5
47A0
 10
313.671
 20
-3.38041
 30
7.85486e-014
  70
    32
  0
VERTEX
  8
0
  5
47A1
 10
313.663
 20
-3.33747
 30
7.85467e-014
  70
    32
  0
VERTEX
  8
0
  5
47A2
 10
313.655
 20
-3.29455
 30
7.85448e-014
  70
    32
  0
VERTEX
  8
0
  5
47A3
 10
313.646
 20
-3.25166
 30
7.85428e-014
  70
    32
  0
VERTEX
  8
0
  5
47A4
 10
313.638
 20
-3.20879
 30
7.85408e-014
  70
    32
  0
VERTEX
  8
0
  5
47A5
 10
313.630
 20
-3.16594
 30
7.85387e-014
  70
    32
  0
VERTEX
  8
0
  5
47A6
 10
313.621
 20
-3.12311
 30
7.85367e-014
  70
    32
  0
VERTEX
  8
0
  5
47A7
 10
313.613
 20
-3.08031
 30
7.85345e-014
  70
    32
  0
VERTEX
  8
0
  5
47A8
 10
313.605
 20
-3.03753
 30
7.85324e-014
  70
    32
  0
VERTEX
  8
0
  5
47A9
 10
313.596
 20
-2.99477
 30
7.85302e-014
  70
    32
  0
VERTEX
  8
0
  5
47AA
 10
313.588
 20
-2.95204
 30
7.85280e-014
  70
    32
  0
VERTEX
  8
0
  5
47AB
 10
313.580
 20
-2.90933
 30
7.85258e-014
  70
    32
  0
VERTEX
  8
0
  5
47AC
 10
313.571
 20
-2.86665
 30
7.85235e-014
  70
    32
  0
VERTEX
  8
0
  5
47AD
 10
313.563
 20
-2.82400
 30
7.85212e-014
  70
    32
  0
VERTEX
  8
0
  5
47AE
 10
313.554
 20
-2.78136
 30
7.85189e-014
  70
    32
  0
VERTEX
  8
0
  5
47AF
 10
313.546
 20
-2.73876
 30
7.85166e-014
  70
    32
  0
VERTEX
  8
0
  5
47B0
 10
313.538
 20
-2.69618
 30
7.85142e-014
  70
    32
  0
VERTEX
  8
0
  5
47B1
 10
313.529
 20
-2.65363
 30
7.85119e-014
  70
    32
  0
VERTEX
  8
0
  5
47B2
 10
313.521
 20
-2.61110
 30
7.85095e-014
  70
    32
  0
VERTEX
  8
0
  5
47B3
 10
313.513
 20
-2.56861
 30
7.85071e-014
  70
    32
  0
VERTEX
  8
0
  5
47B4
 10
313.504
 20
-2.52614
 30
7.85047e-014
  70
    32
  0
VERTEX
  8
0
  5
47B5
 10
313.496
 20
-2.48369
 30
7.85023e-014
  70
    32
  0
VERTEX
  8
0
  5
47B6
 10
313.488
 20
-2.44128
 30
7.84999e-014
  70
    32
  0
VERTEX
  8
0
  5
47B7
 10
313.479
 20
-2.39889
 30
7.84974e-014
  70
    32
  0
VERTEX
  8
0
  5
47B8
 10
313.471
 20
-2.35653
 30
7.84950e-014
  70
    32
  0
VERTEX
  8
0
  5
47B9
 10
313.462
 20
-2.31421
 30
7.84925e-014
  70
    32
  0
VERTEX
  8
0
  5
47BA
 10
313.454
 20
-2.27191
 30
7.84901e-014
  70
    32
  0
VERTEX
  8
0
  5
47BB
 10
313.446
 20
-2.22964
 30
7.84876e-014
  70
    32
  0
VERTEX
  8
0
  5
47BC
 10
313.437
 20
-2.18740
 30
7.84852e-014
  70
    32
  0
VERTEX
  8
0
  5
47BD
 10
313.429
 20
-2.14519
 30
7.84828e-014
  70
    32
  0
VERTEX
  8
0
  5
47BE
 10
313.420
 20
-2.10301
 30
7.84803e-014
  70
    32
  0
VERTEX
  8
0
  5
47BF
 10
313.412
 20
-2.06087
 30
7.84779e-014
  70
    32
  0
VERTEX
  8
0
  5
47C0
 10
313.404
 20
-2.01875
 30
7.84755e-014
  70
    32
  0
VERTEX
  8
0
  5
47C1
 10
313.395
 20
-1.97667
 30
7.84730e-014
  70
    32
  0
VERTEX
  8
0
  5
47C2
 10
313.387
 20
-1.93461
 30
7.84706e-014
  70
    32
  0
VERTEX
  8
0
  5
47C3
 10
313.379
 20
-1.89259
 30
7.84682e-014
  70
    32
  0
VERTEX
  8
0
  5
47C4
 10
313.370
 20
-1.85061
 30
7.84659e-014
  70
    32
  0
VERTEX
  8
0
  5
47C5
 10
313.362
 20
-1.80865
 30
7.84635e-014
  70
    32
  0
VERTEX
  8
0
  5
47C6
 10
313.353
 20
-1.76673
 30
7.84612e-014
  70
    32
  0
VERTEX
  8
0
  5
47C7
 10
313.345
 20
-1.72484
 30
7.84588e-014
  70
    32
  0
VERTEX
  8
0
  5
47C8
 10
313.337
 20
-1.68299
 30
7.84565e-014
  70
    32
  0
VERTEX
  8
0
  5
47C9
 10
313.328
 20
-1.64117
 30
7.84542e-014
  70
    32
  0
VERTEX
  8
0
  5
47CA
 10
313.320
 20
-1.59938
 30
7.84520e-014
  70
    32
  0
VERTEX
  8
0
  5
47CB
 10
313.312
 20
-1.55763
 30
7.84497e-014
  70
    32
  0
VERTEX
  8
0
  5
47CC
 10
313.303
 20
-1.51592
 30
7.84475e-014
  70
    32
  0
VERTEX
  8
0
  5
47CD
 10
313.295
 20
-1.47423
 30
7.84454e-014
  70
    32
  0
VERTEX
  8
0
  5
47CE
 10
313.287
 20
-1.43259
 30
7.84432e-014
  70
    32
  0
VERTEX
  8
0
  5
47CF
 10
313.278
 20
-1.39098
 30
7.84411e-014
  70
    32
  0
VERTEX
  8
0
  5
47D0
 10
313.270
 20
-1.34941
 30
7.84390e-014
  70
    32
  0
VERTEX
  8
0
  5
47D1
 10
313.262
 20
-1.30787
 30
7.84370e-014
  70
    32
  0
VERTEX
  8
0
  5
47D2
 10
313.253
 20
-1.26638
 30
7.84350e-014
  70
    32
  0
VERTEX
  8
0
  5
47D3
 10
313.245
 20
-1.22491
 30
7.84330e-014
  70
    32
  0
VERTEX
  8
0
  5
47D4
 10
313.237
 20
-1.18349
 30
7.84310e-014
  70
    32
  0
VERTEX
  8
0
  5
47D5
 10
313.228
 20
-1.14211
 30
7.84292e-014
  70
    32
  0
VERTEX
  8
0
  5
47D6
 10
313.220
 20
-1.10076
 30
7.84273e-014
  70
    32
  0
VERTEX
  8
0
  5
47D7
 10
313.212
 20
-1.05945
 30
7.84255e-014
  70
    32
  0
VERTEX
  8
0
  5
47D8
 10
313.203
 20
-1.01818
 30
7.84238e-014
  70
    32
  0
VERTEX
  8
0
  5
47D9
 10
313.195
 20
-0.976949
 30
7.84221e-014
  70
    32
  0
VERTEX
  8
0
  5
47DA
 10
313.187
 20
-0.935758
 30
7.84204e-014
  70
    32
  0
VERTEX
  8
0
  5
47DB
 10
313.178
 20
-0.894607
 30
7.84188e-014
  70
    32
  0
VERTEX
  8
0
  5
47DC
 10
313.170
 20
-0.853496
 30
7.84172e-014
  70
    32
  0
VERTEX
  8
0
  5
47DD
 10
313.162
 20
-0.812425
 30
7.84158e-014
  70
    32
  0
VERTEX
  8
0
  5
47DE
 10
313.154
 20
-0.771395
 30
7.84143e-014
  70
    32
  0
VERTEX
  8
0
  5
47DF
 10
313.145
 20
-0.730407
 30
7.84129e-014
  70
    32
  0
VERTEX
  8
0
  5
47E0
 10
313.137
 20
-0.689459
 30
7.84116e-014
  70
    32
  0
VERTEX
  8
0
  5
47E1
 10
313.129
 20
-0.648554
 30
7.84104e-014
  70
    32
  0
VERTEX
  8
0
  5
47E2
 10
313.121
 20
-0.607690
 30
7.84092e-014
  70
    32
  0
VERTEX
  8
0
  5
47E3
 10
313.112
 20
-0.566869
 30
7.84080e-014
  70
    32
  0
VERTEX
  8
0
  5
47E4
 10
313.104
 20
-0.526091
 30
7.84070e-014
  70
    32
  0
VERTEX
  8
0
  5
47E5
 10
313.096
 20
-0.485355
 30
7.84060e-014
  70
    32
  0
VERTEX
  8
0
  5
47E6
 10
313.088
 20
-0.444663
 30
7.84051e-014
  70
    32
  0
VERTEX
  8
0
  5
47E7
 10
313.079
 20
-0.404015
 30
7.84042e-014
  70
    32
  0
VERTEX
  8
0
  5
47E8
 10
313.071
 20
-0.363410
 30
7.84034e-014
  70
    32
  0
VERTEX
  8
0
  5
47E9
 10
313.063
 20
-0.322850
 30
7.84027e-014
  70
    32
  0
VERTEX
  8
0
  5
47EA
 10
313.055
 20
-0.282334
 30
7.84021e-014
  70
    32
  0
VERTEX
  8
0
  5
47EB
 10
313.047
 20
-0.241864
 30
7.84016e-014
  70
    32
  0
VERTEX
  8
0
  5
47EC
 10
313.039
 20
-0.201438
 30
7.84011e-014
  70
    32
  0
VERTEX
  8
0
  5
47ED
 10
313.030
 20
-0.161058
 30
7.84007e-014
  70
    32
  0
VERTEX
  8
0
  5
47EE
 10
313.022
 20
-0.120724
 30
7.84004e-014
  70
    32
  0
VERTEX
  8
0
  5
47EF
 10
313.014
 20
-0.0804361
 30
7.84002e-014
  70
    32
  0
VERTEX
  8
0
  5
47F0
 10
313.006
 20
-0.0401946
 30
7.84000e-014
  70
    32
  0
VERTEX
  8
0
  5
47F1
 10
312.998
 20
-9.51515e-012
 30
7.84000e-014
  70
    32
  0
SEQEND
  8
0
  5
47F2
  0
LINE
  5
4268
  8
0
  6
CONTINUOUS
 62
     3
 10
312.99786454863653
 20
-122.9999999999997
 30
0.0000000000000782
 11
314.99572566983471
 21
-124.9978611211979
 31
0.0000000000000782
  0
LINE
  5
4269
  8
0
  6
CONTINUOUS
 62
     3
 10
314.99572566983471
 20
124.9978611211984
 30
0.0000000000000782
 11
312.99786454863653
 21
123.0000000000003
 31
0.0000000000000782
  0
LINE
  5
426A
  8
0
  6
VERDECKT
 62
     1
 10
297.00000000000023
 20
129.9999999999998
 30
0.0000000000000711
 11
308.53955388258191
 21
130.4986944866159
 31
0.0000000000000746
  0
LINE
  5
426B
  8
0
  6
VERDECKT
 62
     1
 10
297.00000000000068
 20
132.0018667598917
 30
0.0000000000000711
 11
297.0
 21
129.9999999999998
 31
0.0000000000000711
  0
LINE
  5
426C
  8
0
  6
VERDECKT
 62
     1
 10
308.45320228627088
 20
132.49682946749519
 30
0.0000000000000711
 11
297.00000000000068
 21
132.0018667598917
 31
0.0000000000000675
  0
ARC
  5
426D
  8
0
  6
VERDECKT
 62
     1
 10
308.59999999999991
 20
129.10000000000011
 30
0.0000000000000711
 40
3.3999999999998871
 50
90.000000000000469
 51
92.474560242947859
  0
ARC
  5
426E
  8
0
  6
VERDECKT
 62
     1
 10
308.60000000000059
 20
-129.10000000000011
 30
0.0000000000000711
 40
3.3999999999999022
 50
267.5254397570522
 51
269.99999999999949
  0
LINE
  5
426F
  8
0
  6
VERDECKT
 62
     1
 10
297.00000000000023
 20
-132.0018667598917
 30
0.0000000000000711
 11
308.45320228627151
 21
-132.49682946749519
 31
0.0000000000000746
  0
LINE
  5
4270
  8
0
  6
VERDECKT
 62
     1
 10
297.00000000000051
 20
-130.0
 30
0.0000000000000711
 11
297.00000000000051
 21
-132.00186675989161
 31
0.0000000000000711
  0
LINE
  5
4271
  8
0
  6
VERDECKT
 62
     1
 10
308.5395538825826
 20
-130.4986944866157
 30
0.0000000000000711
 11
297.00000000000051
 21
-130.0
 31
0.0000000000000675
  0
ARC
  5
4272
  8
0
  6
VERDECKT
 62
     1
 10
-308.60000000000042
 20
-129.10000000000011
 30
0.0000000000000268
 40
1.3999999999999291
210
0.0000000000000003
220
0.0
230
-1.0
 50
180.0
 51
272.47456024294632
  0
LINE
  5
4273
  8
0
  6
VERDECKT
 62
     1
 10
309.99999999999977
 20
129.10000000000011
 30
0.0000000000000711
 11
310.0000000000004
 21
-129.10000000000011
 31
0.0000000000000711
  0
ARC
  5
4274
  8
0
  6
VERDECKT
 62
     1
 10
-308.59999999999968
 20
129.10000000000011
 30
0.0000000000000268
 40
1.400000000000031
210
0.0000000000000003
220
0.0
230
-1.0
 50
87.525439757056176
 51
180.0
  0
LINE
  5
4275
  8
0
  6
VERDECKT
 62
     1
 10
113.0
 20
-130.0
 30
0.0000000000000284
 11
111.0
 21
-130.0
 31
0.0000000000000279
  0
LINE
  5
4276
  8
0
  6
VERDECKT
 62
     1
 10
297.00000000000023
 20
-132.0018667598917
 30
0.0000000000000711
 11
111.0
 21
-132.0018667598917
 31
0.0000000000000245
  0
LINE
  5
4277
  8
0
  6
VERDECKT
 62
     1
 10
109.0
 20
128.5
 30
0.0000000000000284
 11
109.0
 21
-128.5
 31
0.0000000000000284
  0
LINE
  5
4278
  8
0
  6
VERDECKT
 62
     1
 10
113.0
 20
129.9999999999998
 30
0.0000000000000284
 11
111.0
 21
129.9999999999998
 31
0.0000000000000279
  0
LINE
  5
4279
  8
0
  6
VERDECKT
 62
     1
 10
297.00000000000068
 20
132.0018667598917
 30
0.0000000000000711
 11
111.0
 21
132.0018667598917
 31
0.0000000000000245
  0
LINE
  5
427A
  8
0
  6
VERDECKT
 62
     1
 10
308.59999999999968
 20
130.50000000000011
 30
0.0000000000000711
 11
111.0
 21
130.50000000000011
 31
0.0000000000000216
  0
LINE
  5
427B
  8
0
  6
VERDECKT
 62
     1
 10
308.60000000000042
 20
-130.5
 30
0.0000000000000711
 11
111.0
 21
-130.5
 31
0.0000000000000216
  0
ARC
  5
427C
  8
0
  6
VERDECKT
 62
     1
 10
310.00000000000023
 20
126.0000000000002
 30
0.0000000000000711
 40
4.0000000000000062
 50
75.52248781407296
 51
89.999999999999986
  0
ARC
  5
427D
  8
0
  6
VERDECKT
 62
     1
 10
-310.00000000000023
 20
126.0000000000002
 30
-0.0000000000000022
 40
2.0000000000000031
210
0.0000000000000002
220
0.0
230
-1.0
 50
89.999999999999986
 51
119.9999999999919
  0
LINE
  5
427E
  8
0
  6
VERDECKT
 62
     1
 10
213.99999999999639
 20
130.0000000000002
 30
0.0000000000000535
 11
213.99999999999639
 21
128.0000000000002
 31
0.0000000000000535
  0
ARC
  5
427F
  8
0
  6
VERDECKT
 62
     1
 10
-310.00000000000023
 20
-126.0000000000007
 30
-0.0000000000000022
 40
2.0000000000000031
210
0.0000000000000002
220
0.0
230
-1.0
 50
240.00000000000699
 51
270.0
  0
ARC
  5
4280
  8
0
  6
VERDECKT
 62
     1
 10
310.00000000000023
 20
-126.0000000000007
 30
0.0000000000000711
 40
4.0000000000000062
 50
269.99999999999989
 51
284.47751218592691
  0
LINE
  5
4281
  8
0
  6
VERDECKT
 62
     1
 10
214.0
 20
-128.00000000000071
 30
0.0000000000000537
 11
214.0
 21
-130.00000000000071
 31
0.0000000000000537
  0
LINE
  5
4282
  8
0
  6
VERDECKT
 62
     1
 10
113.0
 20
-130.00000000000071
 30
0.0000000000000284
 11
310.00000000000023
 21
-130.0000000000006
 31
0.0000000000000778
  0
LINE
  5
4283
  8
0
  6
VERDECKT
 62
     1
 10
311.0
 20
-126.0000000000006
 30
0.0000000000000711
 11
311.0
 21
-129.8729833462082
 31
0.0000000000000711
  0
LINE
  5
4284
  8
0
  6
VERDECKT
 62
     1
 10
113.0000000000025
 20
-130.00000000000071
 30
0.0000000000000284
 11
113.0000000000025
 21
-126.0000000000007
 31
0.0000000000000284
  0
LINE
  5
4285
  8
0
  6
VERDECKT
 62
     1
 10
113.0
 20
128.0000000000002
 30
0.0000000000000284
 11
310.00000000000023
 21
128.00000000000031
 31
0.0000000000000778
  0
LINE
  5
4286
  8
0
  6
VERDECKT
 62
     1
 10
113.0
 20
-126.0
 30
0.0000000000000284
 11
109.0
 21
-126.0
 31
0.0000000000000284
  0
ARC
  5
4287
  8
0
  6
VERDECKT
 62
     1
 10
-112.9999999999998
 20
-126.00000000000109
 30
-0.0000000000000001
 40
3.9999999999993738
210
0.0000000000000003
220
0.0
230
-1.0
 50
270.0
 51
300.00000000000512
  0
ARC
  5
4288
  8
0
  6
VERDECKT
 62
     1
 10
-112.99999999999859
 20
-126.0000000000009
 30
-0.0000000000000001
 40
3.9999999999986202
210
0.0000000000000003
220
0.0
230
-1.0
 50
321.31781254651042
 51
0.0000000000064997
  0
ARC
  5
4289
  8
0
  6
VERDECKT
 62
     1
 10
112.9999999999998
 20
-126.0000000000007
 30
0.0000000000000284
 40
1.999999999999772
 50
179.99999999999841
 51
270.00000000000648
  0
LINE
  5
428A
  8
0
  6
VERDECKT
 62
     1
 10
109.0000000000001
 20
125.9999999999997
 30
0.0000000000000284
 11
113.0
 21
125.9999999999997
 31
0.0000000000000284
  0
ARC
  5
428B
  8
0
  6
VERDECKT
 62
     1
 10
-112.99999999999839
 20
126.0000000000009
 30
-0.0000000000000001
 40
3.9999999999984079
210
0.0000000000000003
220
0.0
230
-1.0
 50
359.99999999999289
 51
38.682187453491011
  0
ARC
  5
428C
  8
0
  6
VERDECKT
 62
     1
 10
-112.9999999999998
 20
126.00000000000119
 30
-0.0000000000000001
 40
3.9999999999991931
210
0.0000000000000003
220
0.0
230
-1.0
 50
59.99999999999708
 51
90.000000000003254
  0
ARC
  5
428D
  8
0
  6
VERDECKT
 62
     1
 10
112.9999999999998
 20
126.0000000000002
 30
0.0000000000000284
 40
1.9999999999999709
 50
89.999999999993491
 51
180.0000000000008
  0
LINE
  5
428E
  8
0
  6
VERDECKT
 62
     1
 10
113.0000000000025
 20
126.0000000000002
 30
0.0000000000000284
 11
113.0000000000025
 21
130.0000000000002
 31
0.0000000000000284
  0
LINE
  5
428F
  8
0
  6
VERDECKT
 62
     1
 10
111.0
 20
-126.0000000000007
 30
0.0000000000000284
 11
111.0
 21
126.0000000000002
 31
0.0000000000000284
  0
LINE
  5
4290
  8
0
  6
VERDECKT
 62
     1
 10
113.0
 20
130.0000000000002
 30
0.0000000000000284
 11
310.00000000000023
 21
130.00000000000031
 31
0.0000000000000778
  0
LINE
  5
4291
  8
0
  6
VERDECKT
 62
     1
 10
311.0
 20
129.87298334620769
 30
0.0000000000000711
 11
311.0
 21
126.0000000000002
 31
0.0000000000000711
  0
LINE
  5
4292
  8
0
  6
VERDECKT
 62
     1
 10
113.0
 20
-128.00000000000071
 30
0.0000000000000284
 11
310.00000000000023
 21
-128.0000000000006
 31
0.0000000000000778
  0
LINE
  5
4293
  8
0
  6
VERDECKT
 62
     1
 10
261.92893218813361
 20
-128.00000000000071
 30
0.0000000000000639
 11
261.92893218813361
 21
-130.00000000000071
 31
0.0000000000000639
  0
LINE
  5
4294
  8
0
  6
VERDECKT
 62
     1
 10
261.92893218813361
 20
130.0000000000002
 30
0.0000000000000639
 11
261.92893218813361
 21
128.0000000000002
 31
0.0000000000000639
  0
LINE
  5
4295
  8
0
  6
VERDECKT
 62
     1
 10
271.9289321881331
 20
-128.0000000000006
 30
0.0000000000000711
 11
271.9289321881331
 21
-130.0000000000006
 31
0.0000000000000711
  0
LINE
  5
4296
  8
0
  6
VERDECKT
 62
     1
 10
271.9289321881331
 20
130.0000000000002
 30
0.0000000000000711
 11
271.9289321881331
 21
128.0000000000002
 31
0.0000000000000711
  0
LINE
  5
4297
  8
0
  6
VERDECKT
 62
     1
 10
183.9999999999998
 20
-128.00000000000071
 30
0.0000000000000426
 11
183.9999999999998
 21
-130.00000000000071
 31
0.0000000000000426
  0
LINE
  5
4298
  8
0
  6
VERDECKT
 62
     1
 10
114.0
 20
-128.00000000000071
 30
0.0000000000000284
 11
114.0
 21
-130.00000000000071
 31
0.0000000000000284
  0
LINE
  5
4299
  8
0
  6
VERDECKT
 62
     1
 10
114.0
 20
130.0000000000002
 30
0.0000000000000284
 11
114.0
 21
128.0000000000002
 31
0.0000000000000284
  0
LINE
  5
429A
  8
0
  6
VERDECKT
 62
     1
 10
183.9999999999998
 20
130.0000000000002
 30
0.0000000000000426
 11
183.9999999999998
 21
128.0000000000002
 31
0.0000000000000426
  0
LINE
  5
429B
  8
0
  6
VERDECKT
 62
     1
 10
246.92893218813359
 20
-128.00000000000071
 30
0.0000000000000639
 11
246.92893218813359
 21
-130.00000000000071
 31
0.0000000000000639
  0
LINE
  5
429C
  8
0
  6
VERDECKT
 62
     1
 10
246.92893218813359
 20
130.0000000000002
 30
0.0000000000000639
 11
246.92893218813359
 21
128.0000000000002
 31
0.0000000000000639
  0
LINE
  5
429D
  8
0
  6
VERDECKT
 62
     1
 10
256.92893218813327
 20
-128.00000000000071
 30
0.0000000000000639
 11
256.92893218813327
 21
-130.00000000000071
 31
0.0000000000000639
  0
LINE
  5
429E
  8
0
  6
VERDECKT
 62
     1
 10
256.92893218813327
 20
130.0000000000002
 30
0.0000000000000639
 11
256.92893218813327
 21
128.0000000000002
 31
0.0000000000000639
  0
LINE
  5
429F
  8
0
  6
VERDECKT
 62
     1
 10
276.9289321881331
 20
-128.0000000000006
 30
0.0000000000000711
 11
276.9289321881331
 21
-130.0000000000006
 31
0.0000000000000711
  0
LINE
  5
42A0
  8
0
  6
VERDECKT
 62
     1
 10
276.9289321881331
 20
130.0000000000002
 30
0.0000000000000711
 11
276.9289321881331
 21
128.0000000000002
 31
0.0000000000000711
  0
LINE
  5
42A1
  8
0
  6
VERDECKT
 62
     1
 10
286.92893218813271
 20
-128.0000000000006
 30
0.0000000000000711
 11
286.92893218813271
 21
-130.0000000000006
 31
0.0000000000000711
  0
LINE
  5
42A2
  8
0
  6
VERDECKT
 62
     1
 10
193.9999999999998
 20
-128.00000000000071
 30
0.0000000000000426
 11
193.9999999999998
 21
-130.00000000000071
 31
0.0000000000000426
  0
LINE
  5
42A3
  8
0
  6
VERDECKT
 62
     1
 10
193.9999999999998
 20
130.0000000000002
 30
0.0000000000000426
 11
193.9999999999998
 21
128.0000000000002
 31
0.0000000000000426
  0
LINE
  5
42A4
  8
0
  6
VERDECKT
 62
     1
 10
286.92893218813271
 20
130.0000000000002
 30
0.0000000000000711
 11
286.92893218813271
 21
128.0000000000002
 31
0.0000000000000711
  0
LINE
  5
42A5
  8
0
  6
VERDECKT
 62
     1
 10
119.0000000000025
 20
-120.0
 30
0.0000000000000284
 11
119.0000000000025
 21
119.9999999999997
 31
0.0000000000000284
  0
LINE
  5
42A6
  8
0
  6
VERDECKT
 62
     1
 10
119.0000000000027
 20
119.9999999999997
 30
0.0000000000000284
 11
311.00000000000051
 21
119.9999999999998
 31
0.0000000000000765
  0
LINE
  5
42A7
  8
0
  6
VERDECKT
 62
     1
 10
311.0
 20
-119.9999999999999
 30
0.0000000000000711
 11
119.0000000000027
 21
-120.0
 31
0.000000000000023
  0
LINE
  5
42A8
  8
0
  6
VERDECKT
 62
     1
 10
311.0
 20
119.9999999999997
 30
0.0000000000000711
 11
311.0
 21
126.0000000000002
 31
0.0000000000000711
  0
LINE
  5
42A9
  8
0
  6
VERDECKT
 62
     1
 10
311.0
 20
-126.0000000000007
 30
0.0000000000000711
 11
311.0
 21
-120.0
 31
0.0000000000000711
  0
LINE
  5
42AA
  8
0
  6
VERDECKT
 62
     1
 10
111.0
 20
-40.000000000000909
 30
0.0000000000000284
 11
109.0
 21
-40.000000000000909
 31
0.0000000000000279
  0
LINE
  5
42AB
  8
0
  6
VERDECKT
 62
     1
 10
111.0
 20
40.000000000000199
 30
0.0000000000000284
 11
109.0
 21
40.000000000000199
 31
0.0000000000000279
  0
LINE
  5
42AC
  8
0
  6
VERDECKT
 62
     1
 10
111.0
 20
-120.0000000000007
 30
0.0000000000000284
 11
109.0
 21
-120.0000000000007
 31
0.0000000000000279
  0
LINE
  5
42AD
  8
0
  6
VERDECKT
 62
     1
 10
111.0
 20
-50.000000000000682
 30
0.0000000000000284
 11
109.0
 21
-50.000000000000682
 31
0.0000000000000279
  0
LINE
  5
42AE
  8
0
  6
VERDECKT
 62
     1
 10
111.0
 20
50.000000000000199
 30
0.0000000000000284
 11
109.0
 21
50.000000000000199
 31
0.0000000000000279
  0
LINE
  5
42AF
  8
0
  6
VERDECKT
 62
     1
 10
111.0
 20
120.0
 30
0.0000000000000284
 11
109.0
 21
120.0
 31
0.0000000000000279
  0
POLYLINE
  5
42B0
  8
0
  6
VERDECKT
 62
     1
 10
703.37425335266539
 20
48.9994849333319
 30
0.0000000000001776
 66
     1
 70
     8
  0
VERTEX
  8
0
  5
47F3
 10
703.374
 20
48.9995
 30
1.77600e-013
  70
    32
  0
VERTEX
  8
0
  5
47F4
 10
703.374
 20
48.9995
 30
1.77600e-013
  70
    32
  0
VERTEX
  8
0
  5
47F5
 10
703.374
 20
48.9995
 30
1.77600e-013
  70
    32
  0
VERTEX
  8
0
  5
47F6
 10
703.374
 20
48.9995
 30
1.77600e-013
  70
    32
  0
VERTEX
  8
0
  5
47F7
 10
703.374
 20
48.9995
 30
1.77600e-013
  70
    32
  0
VERTEX
  8
0
  5
47F8
 10
703.374
 20
48.9995
 30
1.77600e-013
  70
    32
  0
VERTEX
  8
0
  5
47F9
 10
703.374
 20
48.9995
 30
1.77600e-013
  70
    32
  0
VERTEX
  8
0
  5
47FA
 10
703.374
 20
48.9995
 30
1.77600e-013
  70
    32
  0
VERTEX
  8
0
  5
47FB
 10
703.374
 20
48.9995
 30
1.77600e-013
  70
    32
  0
VERTEX
  8
0
  5
47FC
 10
703.373
 20
48.9996
 30
1.77600e-013
  70
    32
  0
VERTEX
  8
0
  5
47FD
 10
703.373
 20
48.9996
 30
1.77600e-013
  70
    32
  0
VERTEX
  8
0
  5
47FE
 10
703.373
 20
48.9996
 30
1.77600e-013
  70
    32
  0
VERTEX
  8
0
  5
47FF
 10
703.373
 20
48.9996
 30
1.77600e-013
  70
    32
  0
VERTEX
  8
0
  5
4800
 10
703.373
 20
48.9996
 30
1.77600e-013
  70
    32
  0
VERTEX
  8
0
  5
4801
 10
703.373
 20
48.9996
 30
1.77600e-013
  70
    32
  0
VERTEX
  8
0
  5
4802
 10
703.373
 20
48.9996
 30
1.77600e-013
  70
    32
  0
VERTEX
  8
0
  5
4803
 10
703.373
 20
48.9996
 30
1.77600e-013
  70
    32
  0
VERTEX
  8
0
  5
4804
 10
703.373
 20
48.9996
 30
1.77600e-013
  70
    32
  0
VERTEX
  8
0
  5
4805
 10
703.373
 20
48.9996
 30
1.77600e-013
  70
    32
  0
VERTEX
  8
0
  5
4806
 10
703.373
 20
48.9996
 30
1.77600e-013
  70
    32
  0
VERTEX
  8
0
  5
4807
 10
703.372
 20
48.9996
 30
1.77600e-013
  70
    32
  0
VERTEX
  8
0
  5
4808
 10
703.372
 20
48.9996
 30
1.77600e-013
  70
    32
  0
VERTEX
  8
0
  5
4809
 10
703.372
 20
48.9996
 30
1.77600e-013
  70
    32
  0
VERTEX
  8
0
  5
480A
 10
703.372
 20
48.9997
 30
1.77600e-013
  70
    32
  0
VERTEX
  8
0
  5
480B
 10
703.372
 20
48.9997
 30
1.77600e-013
  70
    32
  0
VERTEX
  8
0
  5
480C
 10
703.372
 20
48.9997
 30
1.77600e-013
  70
    32
  0
VERTEX
  8
0
  5
480D
 10
703.372
 20
48.9997
 30
1.77600e-013
  70
    32
  0
VERTEX
  8
0
  5
480E
 10
703.372
 20
48.9997
 30
1.77600e-013
  70
    32
  0
VERTEX
  8
0
  5
480F
 10
703.372
 20
48.9997
 30
1.77600e-013
  70
    32
  0
VERTEX
  8
0
  5
4810
 10
703.372
 20
48.9997
 30
1.77600e-013
  70
    32
  0
VERTEX
  8
0
  5
4811
 10
703.371
 20
48.9997
 30
1.77600e-013
  70
    32
  0
VERTEX
  8
0
  5
4812
 10
703.371
 20
48.9997
 30
1.77600e-013
  70
    32
  0
VERTEX
  8
0
  5
4813
 10
703.371
 20
48.9997
 30
1.77600e-013
  70
    32
  0
VERTEX
  8
0
  5
4814
 10
703.371
 20
48.9997
 30
1.77600e-013
  70
    32
  0
VERTEX
  8
0
  5
4815
 10
703.371
 20
48.9997
 30
1.77600e-013
  70
    32
  0
VERTEX
  8
0
  5
4816
 10
703.371
 20
48.9997
 30
1.77600e-013
  70
    32
  0
VERTEX
  8
0
  5
4817
 10
703.371
 20
48.9997
 30
1.77600e-013
  70
    32
  0
VERTEX
  8
0
  5
4818
 10
703.371
 20
48.9997
 30
1.77600e-013
  70
    32
  0
VERTEX
  8
0
  5
4819
 10
703.371
 20
48.9997
 30
1.77600e-013
  70
    32
  0
VERTEX
  8
0
  5
481A
 10
703.371
 20
48.9998
 30
1.77600e-013
  70
    32
  0
VERTEX
  8
0
  5
481B
 10
703.371
 20
48.9998
 30
1.77600e-013
  70
    32
  0
VERTEX
  8
0
  5
481C
 10
703.370
 20
48.9998
 30
1.77600e-013
  70
    32
  0
VERTEX
  8
0
  5
481D
 10
703.370
 20
48.9998
 30
1.77600e-013
  70
    32
  0
VERTEX
  8
0
  5
481E
 10
703.370
 20
48.9998
 30
1.77600e-013
  70
    32
  0
VERTEX
  8
0
  5
481F
 10
703.370
 20
48.9998
 30
1.77600e-013
  70
    32
  0
VERTEX
  8
0
  5
4820
 10
703.370
 20
48.9998
 30
1.77600e-013
  70
    32
  0
VERTEX
  8
0
  5
4821
 10
703.370
 20
48.9998
 30
1.77600e-013
  70
    32
  0
VERTEX
  8
0
  5
4822
 10
703.370
 20
48.9998
 30
1.77600e-013
  70
    32
  0
VERTEX
  8
0
  5
4823
 10
703.370
 20
48.9998
 30
1.77600e-013
  70
    32
  0
VERTEX
  8
0
  5
4824
 10
703.370
 20
48.9998
 30
1.77600e-013
  70
    32
  0
VERTEX
  8
0
  5
4825
 10
703.370
 20
48.9998
 30
1.77600e-013
  70
    32
  0
VERTEX
  8
0
  5
4826
 10
703.370
 20
48.9998
 30
1.77600e-013
  70
    32
  0
VERTEX
  8
0
  5
4827
 10
703.369
 20
48.9998
 30
1.77600e-013
  70
    32
  0
VERTEX
  8
0
  5
4828
 10
703.369
 20
48.9998
 30
1.77600e-013
  70
    32
  0
VERTEX
  8
0
  5
4829
 10
703.369
 20
48.9998
 30
1.77600e-013
  70
    32
  0
VERTEX
  8
0
  5
482A
 10
703.369
 20
48.9998
 30
1.77600e-013
  70
    32
  0
VERTEX
  8
0
  5
482B
 10
703.369
 20
48.9998
 30
1.77600e-013
  70
    32
  0
VERTEX
  8
0
  5
482C
 10
703.369
 20
48.9998
 30
1.77600e-013
  70
    32
  0
VERTEX
  8
0
  5
482D
 10
703.369
 20
48.9998
 30
1.77600e-013
  70
    32
  0
VERTEX
  8
0
  5
482E
 10
703.369
 20
48.9999
 30
1.77600e-013
  70
    32
  0
VERTEX
  8
0
  5
482F
 10
703.369
 20
48.9999
 30
1.77600e-013
  70
    32
  0
VERTEX
  8
0
  5
4830
 10
703.369
 20
48.9999
 30
1.77600e-013
  70
    32
  0
VERTEX
  8
0
  5
4831
 10
703.369
 20
48.9999
 30
1.77600e-013
  70
    32
  0
VERTEX
  8
0
  5
4832
 10
703.368
 20
48.9999
 30
1.77600e-013
  70
    32
  0
VERTEX
  8
0
  5
4833
 10
703.368
 20
48.9999
 30
1.77600e-013
  70
    32
  0
VERTEX
  8
0
  5
4834
 10
703.368
 20
48.9999
 30
1.77600e-013
  70
    32
  0
VERTEX
  8
0
  5
4835
 10
703.368
 20
48.9999
 30
1.77600e-013
  70
    32
  0
VERTEX
  8
0
  5
4836
 10
703.368
 20
48.9999
 30
1.77600e-013
  70
    32
  0
VERTEX
  8
0
  5
4837
 10
703.368
 20
48.9999
 30
1.77600e-013
  70
    32
  0
VERTEX
  8
0
  5
4838
 10
703.368
 20
48.9999
 30
1.77600e-013
  70
    32
  0
VERTEX
  8
0
  5
4839
 10
703.368
 20
48.9999
 30
1.77600e-013
  70
    32
  0
VERTEX
  8
0
  5
483A
 10
703.368
 20
48.9999
 30
1.77600e-013
  70
    32
  0
VERTEX
  8
0
  5
483B
 10
703.368
 20
48.9999
 30
1.77600e-013
  70
    32
  0
VERTEX
  8
0
  5
483C
 10
703.368
 20
48.9999
 30
1.77600e-013
  70
    32
  0
VERTEX
  8
0
  5
483D
 10
703.367
 20
48.9999
 30
1.77600e-013
  70
    32
  0
VERTEX
  8
0
  5
483E
 10
703.367
 20
48.9999
 30
1.77600e-013
  70
    32
  0
VERTEX
  8
0
  5
483F
 10
703.367
 20
48.9999
 30
1.77600e-013
  70
    32
  0
VERTEX
  8
0
  5
4840
 10
703.367
 20
48.9999
 30
1.77600e-013
  70
    32
  0
VERTEX
  8
0
  5
4841
 10
703.367
 20
48.9999
 30
1.77600e-013
  70
    32
  0
VERTEX
  8
0
  5
4842
 10
703.367
 20
48.9999
 30
1.77600e-013
  70
    32
  0
VERTEX
  8
0
  5
4843
 10
703.367
 20
48.9999
 30
1.77600e-013
  70
    32
  0
VERTEX
  8
0
  5
4844
 10
703.367
 20
48.9999
 30
1.77600e-013
  70
    32
  0
VERTEX
  8
0
  5
4845
 10
703.367
 20
48.9999
 30
1.77600e-013
  70
    32
  0
VERTEX
  8
0
  5
4846
 10
703.367
 20
48.9999
 30
1.77600e-013
  70
    32
  0
VERTEX
  8
0
  5
4847
 10
703.367
 20
48.9999
 30
1.77600e-013
  70
    32
  0
VERTEX
  8
0
  5
4848
 10
703.366
 20
48.9999
 30
1.77600e-013
  70
    32
  0
VERTEX
  8
0
  5
4849
 10
703.366
 20
48.9999
 30
1.77600e-013
  70
    32
  0
VERTEX
  8
0
  5
484A
 10
703.366
 20
48.9999
 30
1.77600e-013
  70
    32
  0
VERTEX
  8
0
  5
484B
 10
703.366
 20
48.9999
 30
1.77600e-013
  70
    32
  0
VERTEX
  8
0
  5
484C
 10
703.366
 20
49.0000
 30
1.77600e-013
  70
    32
  0
VERTEX
  8
0
  5
484D
 10
703.366
 20
49.0000
 30
1.77600e-013
  70
    32
  0
VERTEX
  8
0
  5
484E
 10
703.366
 20
49.0000
 30
1.77600e-013
  70
    32
  0
VERTEX
  8
0
  5
484F
 10
703.366
 20
49.0000
 30
1.77600e-013
  70
    32
  0
VERTEX
  8
0
  5
4850
 10
703.366
 20
49.0000
 30
1.77600e-013
  70
    32
  0
VERTEX
  8
0
  5
4851
 10
703.366
 20
49.0000
 30
1.77600e-013
  70
    32
  0
VERTEX
  8
0
  5
4852
 10
703.366
 20
49.0000
 30
1.77600e-013
  70
    32
  0
VERTEX
  8
0
  5
4853
 10
703.365
 20
49.0000
 30
1.77600e-013
  70
    32
  0
VERTEX
  8
0
  5
4854
 10
703.365
 20
49.0000
 30
1.77600e-013
  70
    32
  0
VERTEX
  8
0
  5
4855
 10
703.365
 20
49.0000
 30
1.77600e-013
  70
    32
  0
VERTEX
  8
0
  5
4856
 10
703.365
 20
49.0000
 30
1.77600e-013
  70
    32
  0
VERTEX
  8
0
  5
4857
 10
703.365
 20
49.0000
 30
1.77600e-013
  70
    32
  0
VERTEX
  8
0
  5
4858
 10
703.365
 20
49.0000
 30
1.77600e-013
  70
    32
  0
VERTEX
  8
0
  5
4859
 10
703.365
 20
49.0000
 30
1.77600e-013
  70
    32
  0
VERTEX
  8
0
  5
485A
 10
703.365
 20
49.0000
 30
1.77600e-013
  70
    32
  0
VERTEX
  8
0
  5
485B
 10
703.365
 20
49.0000
 30
1.77600e-013
  70
    32
  0
VERTEX
  8
0
  5
485C
 10
703.365
 20
49.0000
 30
1.77600e-013
  70
    32
  0
VERTEX
  8
0
  5
485D
 10
703.365
 20
49.0000
 30
1.77600e-013
  70
    32
  0
VERTEX
  8
0
  5
485E
 10
703.364
 20
49.0000
 30
1.77600e-013
  70
    32
  0
VERTEX
  8
0
  5
485F
 10
703.364
 20
49.0000
 30
1.77600e-013
  70
    32
  0
VERTEX
  8
0
  5
4860
 10
703.364
 20
49.0000
 30
1.77600e-013
  70
    32
  0
VERTEX
  8
0
  5
4861
 10
703.364
 20
49.0000
 30
1.77600e-013
  70
    32
  0
VERTEX
  8
0
  5
4862
 10
703.364
 20
49.0000
 30
1.77600e-013
  70
    32
  0
VERTEX
  8
0
  5
4863
 10
703.364
 20
49.0000
 30
1.77600e-013
  70
    32
  0
VERTEX
  8
0
  5
4864
 10
703.364
 20
49.0000
 30
1.77600e-013
  70
    32
  0
VERTEX
  8
0
  5
4865
 10
703.364
 20
49.0000
 30
1.77600e-013
  70
    32
  0
VERTEX
  8
0
  5
4866
 10
703.364
 20
49.0000
 30
1.77600e-013
  70
    32
  0
VERTEX
  8
0
  5
4867
 10
703.364
 20
49.0000
 30
1.77600e-013
  70
    32
  0
VERTEX
  8
0
  5
4868
 10
703.364
 20
49.0000
 30
1.77600e-013
  70
    32
  0
VERTEX
  8
0
  5
4869
 10
703.363
 20
49.0000
 30
1.77600e-013
  70
    32
  0
VERTEX
  8
0
  5
486A
 10
703.363
 20
49.0000
 30
1.77600e-013
  70
    32
  0
VERTEX
  8
0
  5
486B
 10
703.363
 20
49.0000
 30
1.77600e-013
  70
    32
  0
VERTEX
  8
0
  5
486C
 10
703.363
 20
49.0000
 30
1.77600e-013
  70
    32
  0
VERTEX
  8
0
  5
486D
 10
703.363
 20
49.0000
 30
1.77600e-013
  70
    32
  0
VERTEX
  8
0
  5
486E
 10
703.363
 20
49.0000
 30
1.77600e-013
  70
    32
  0
VERTEX
  8
0
  5
486F
 10
703.363
 20
49.0000
 30
1.77600e-013
  70
    32
  0
VERTEX
  8
0
  5
4870
 10
703.363
 20
49.0000
 30
1.77600e-013
  70
    32
  0
VERTEX
  8
0
  5
4871
 10
703.363
 20
49.0000
 30
1.77600e-013
  70
    32
  0
VERTEX
  8
0
  5
4872
 10
703.363
 20
49.0000
 30
1.77600e-013
  70
    32
  0
VERTEX
  8
0
  5
4873
 10
703.362
 20
49.0000
 30
1.77600e-013
  70
    32
  0
SEQEND
  8
0
  5
4874
  0
POLYLINE
  5
42B1
  8
0
  6
VERDECKT
 62
     1
 10
703.36249507305615
 20
-48.999999999999794
 30
0.0000000000001776
 66
     1
 70
     8
  0
VERTEX
  8
0
  5
4875
 10
703.362
 20
-49.0000
 30
1.77600e-013
  70
    32
  0
VERTEX
  8
0
  5
4876
 10
703.363
 20
-49.0000
 30
1.77600e-013
  70
    32
  0
VERTEX
  8
0
  5
4877
 10
703.363
 20
-49.0000
 30
1.77600e-013
  70
    32
  0
VERTEX
  8
0
  5
4878
 10
703.363
 20
-49.0000
 30
1.77600e-013
  70
    32
  0
VERTEX
  8
0
  5
4879
 10
703.363
 20
-49.0000
 30
1.77600e-013
  70
    32
  0
VERTEX
  8
0
  5
487A
 10
703.363
 20
-49.0000
 30
1.77600e-013
  70
    32
  0
VERTEX
  8
0
  5
487B
 10
703.363
 20
-49.0000
 30
1.77600e-013
  70
    32
  0
VERTEX
  8
0
  5
487C
 10
703.363
 20
-49.0000
 30
1.77600e-013
  70
    32
  0
VERTEX
  8
0
  5
487D
 10
703.363
 20
-49.0000
 30
1.77600e-013
  70
    32
  0
VERTEX
  8
0
  5
487E
 10
703.363
 20
-49.0000
 30
1.77600e-013
  70
    32
  0
VERTEX
  8
0
  5
487F
 10
703.363
 20
-49.0000
 30
1.77600e-013
  70
    32
  0
VERTEX
  8
0
  5
4880
 10
703.364
 20
-49.0000
 30
1.77600e-013
  70
    32
  0
VERTEX
  8
0
  5
4881
 10
703.364
 20
-49.0000
 30
1.77600e-013
  70
    32
  0
VERTEX
  8
0
  5
4882
 10
703.364
 20
-49.0000
 30
1.77600e-013
  70
    32
  0
VERTEX
  8
0
  5
4883
 10
703.364
 20
-49.0000
 30
1.77600e-013
  70
    32
  0
VERTEX
  8
0
  5
4884
 10
703.364
 20
-49.0000
 30
1.77600e-013
  70
    32
  0
VERTEX
  8
0
  5
4885
 10
703.364
 20
-49.0000
 30
1.77600e-013
  70
    32
  0
VERTEX
  8
0
  5
4886
 10
703.364
 20
-49.0000
 30
1.77600e-013
  70
    32
  0
VERTEX
  8
0
  5
4887
 10
703.364
 20
-49.0000
 30
1.77600e-013
  70
    32
  0
VERTEX
  8
0
  5
4888
 10
703.364
 20
-49.0000
 30
1.77600e-013
  70
    32
  0
VERTEX
  8
0
  5
4889
 10
703.364
 20
-49.0000
 30
1.77600e-013
  70
    32
  0
VERTEX
  8
0
  5
488A
 10
703.364
 20
-49.0000
 30
1.77600e-013
  70
    32
  0
VERTEX
  8
0
  5
488B
 10
703.365
 20
-49.0000
 30
1.77600e-013
  70
    32
  0
VERTEX
  8
0
  5
488C
 10
703.365
 20
-49.0000
 30
1.77600e-013
  70
    32
  0
VERTEX
  8
0
  5
488D
 10
703.365
 20
-49.0000
 30
1.77600e-013
  70
    32
  0
VERTEX
  8
0
  5
488E
 10
703.365
 20
-49.0000
 30
1.77600e-013
  70
    32
  0
VERTEX
  8
0
  5
488F
 10
703.365
 20
-49.0000
 30
1.77600e-013
  70
    32
  0
VERTEX
  8
0
  5
4890
 10
703.365
 20
-49.0000
 30
1.77600e-013
  70
    32
  0
VERTEX
  8
0
  5
4891
 10
703.365
 20
-49.0000
 30
1.77600e-013
  70
    32
  0
VERTEX
  8
0
  5
4892
 10
703.365
 20
-49.0000
 30
1.77600e-013
  70
    32
  0
VERTEX
  8
0
  5
4893
 10
703.365
 20
-49.0000
 30
1.77600e-013
  70
    32
  0
VERTEX
  8
0
  5
4894
 10
703.365
 20
-49.0000
 30
1.77600e-013
  70
    32
  0
VERTEX
  8
0
  5
4895
 10
703.365
 20
-49.0000
 30
1.77600e-013
  70
    32
  0
VERTEX
  8
0
  5
4896
 10
703.366
 20
-49.0000
 30
1.77600e-013
  70
    32
  0
VERTEX
  8
0
  5
4897
 10
703.366
 20
-49.0000
 30
1.77600e-013
  70
    32
  0
VERTEX
  8
0
  5
4898
 10
703.366
 20
-49.0000
 30
1.77600e-013
  70
    32
  0
VERTEX
  8
0
  5
4899
 10
703.366
 20
-49.0000
 30
1.77600e-013
  70
    32
  0
VERTEX
  8
0
  5
489A
 10
703.366
 20
-49.0000
 30
1.77600e-013
  70
    32
  0
VERTEX
  8
0
  5
489B
 10
703.366
 20
-49.0000
 30
1.77600e-013
  70
    32
  0
VERTEX
  8
0
  5
489C
 10
703.366
 20
-49.0000
 30
1.77600e-013
  70
    32
  0
VERTEX
  8
0
  5
489D
 10
703.366
 20
-48.9999
 30
1.77600e-013
  70
    32
  0
VERTEX
  8
0
  5
489E
 10
703.366
 20
-48.9999
 30
1.77600e-013
  70
    32
  0
VERTEX
  8
0
  5
489F
 10
703.366
 20
-48.9999
 30
1.77600e-013
  70
    32
  0
VERTEX
  8
0
  5
48A0
 10
703.366
 20
-48.9999
 30
1.77600e-013
  70
    32
  0
VERTEX
  8
0
  5
48A1
 10
703.367
 20
-48.9999
 30
1.77600e-013
  70
    32
  0
VERTEX
  8
0
  5
48A2
 10
703.367
 20
-48.9999
 30
1.77600e-013
  70
    32
  0
VERTEX
  8
0
  5
48A3
 10
703.367
 20
-48.9999
 30
1.77600e-013
  70
    32
  0
VERTEX
  8
0
  5
48A4
 10
703.367
 20
-48.9999
 30
1.77600e-013
  70
    32
  0
VERTEX
  8
0
  5
48A5
 10
703.367
 20
-48.9999
 30
1.77600e-013
  70
    32
  0
VERTEX
  8
0
  5
48A6
 10
703.367
 20
-48.9999
 30
1.77600e-013
  70
    32
  0
VERTEX
  8
0
  5
48A7
 10
703.367
 20
-48.9999
 30
1.77600e-013
  70
    32
  0
VERTEX
  8
0
  5
48A8
 10
703.367
 20
-48.9999
 30
1.77600e-013
  70
    32
  0
VERTEX
  8
0
  5
48A9
 10
703.367
 20
-48.9999
 30
1.77600e-013
  70
    32
  0
VERTEX
  8
0
  5
48AA
 10
703.367
 20
-48.9999
 30
1.77600e-013
  70
    32
  0
VERTEX
  8
0
  5
48AB
 10
703.367
 20
-48.9999
 30
1.77600e-013
  70
    32
  0
VERTEX
  8
0
  5
48AC
 10
703.368
 20
-48.9999
 30
1.77600e-013
  70
    32
  0
VERTEX
  8
0
  5
48AD
 10
703.368
 20
-48.9999
 30
1.77600e-013
  70
    32
  0
VERTEX
  8
0
  5
48AE
 10
703.368
 20
-48.9999
 30
1.77600e-013
  70
    32
  0
VERTEX
  8
0
  5
48AF
 10
703.368
 20
-48.9999
 30
1.77600e-013
  70
    32
  0
VERTEX
  8
0
  5
48B0
 10
703.368
 20
-48.9999
 30
1.77600e-013
  70
    32
  0
VERTEX
  8
0
  5
48B1
 10
703.368
 20
-48.9999
 30
1.77600e-013
  70
    32
  0
VERTEX
  8
0
  5
48B2
 10
703.368
 20
-48.9999
 30
1.77600e-013
  70
    32
  0
VERTEX
  8
0
  5
48B3
 10
703.368
 20
-48.9999
 30
1.77600e-013
  70
    32
  0
VERTEX
  8
0
  5
48B4
 10
703.368
 20
-48.9999
 30
1.77600e-013
  70
    32
  0
VERTEX
  8
0
  5
48B5
 10
703.368
 20
-48.9999
 30
1.77600e-013
  70
    32
  0
VERTEX
  8
0
  5
48B6
 10
703.368
 20
-48.9999
 30
1.77600e-013
  70
    32
  0
VERTEX
  8
0
  5
48B7
 10
703.369
 20
-48.9999
 30
1.77600e-013
  70
    32
  0
VERTEX
  8
0
  5
48B8
 10
703.369
 20
-48.9999
 30
1.77600e-013
  70
    32
  0
VERTEX
  8
0
  5
48B9
 10
703.369
 20
-48.9999
 30
1.77600e-013
  70
    32
  0
VERTEX
  8
0
  5
48BA
 10
703.369
 20
-48.9999
 30
1.77600e-013
  70
    32
  0
VERTEX
  8
0
  5
48BB
 10
703.369
 20
-48.9998
 30
1.77600e-013
  70
    32
  0
VERTEX
  8
0
  5
48BC
 10
703.369
 20
-48.9998
 30
1.77600e-013
  70
    32
  0
VERTEX
  8
0
  5
48BD
 10
703.369
 20
-48.9998
 30
1.77600e-013
  70
    32
  0
VERTEX
  8
0
  5
48BE
 10
703.369
 20
-48.9998
 30
1.77600e-013
  70
    32
  0
VERTEX
  8
0
  5
48BF
 10
703.369
 20
-48.9998
 30
1.77600e-013
  70
    32
  0
VERTEX
  8
0
  5
48C0
 10
703.369
 20
-48.9998
 30
1.77600e-013
  70
    32
  0
VERTEX
  8
0
  5
48C1
 10
703.369
 20
-48.9998
 30
1.77600e-013
  70
    32
  0
VERTEX
  8
0
  5
48C2
 10
703.370
 20
-48.9998
 30
1.77600e-013
  70
    32
  0
VERTEX
  8
0
  5
48C3
 10
703.370
 20
-48.9998
 30
1.77600e-013
  70
    32
  0
VERTEX
  8
0
  5
48C4
 10
703.370
 20
-48.9998
 30
1.77600e-013
  70
    32
  0
VERTEX
  8
0
  5
48C5
 10
703.370
 20
-48.9998
 30
1.77600e-013
  70
    32
  0
VERTEX
  8
0
  5
48C6
 10
703.370
 20
-48.9998
 30
1.77600e-013
  70
    32
  0
VERTEX
  8
0
  5
48C7
 10
703.370
 20
-48.9998
 30
1.77600e-013
  70
    32
  0
VERTEX
  8
0
  5
48C8
 10
703.370
 20
-48.9998
 30
1.77600e-013
  70
    32
  0
VERTEX
  8
0
  5
48C9
 10
703.370
 20
-48.9998
 30
1.77600e-013
  70
    32
  0
VERTEX
  8
0
  5
48CA
 10
703.370
 20
-48.9998
 30
1.77600e-013
  70
    32
  0
VERTEX
  8
0
  5
48CB
 10
703.370
 20
-48.9998
 30
1.77600e-013
  70
    32
  0
VERTEX
  8
0
  5
48CC
 10
703.370
 20
-48.9998
 30
1.77600e-013
  70
    32
  0
VERTEX
  8
0
  5
48CD
 10
703.371
 20
-48.9998
 30
1.77600e-013
  70
    32
  0
VERTEX
  8
0
  5
48CE
 10
703.371
 20
-48.9998
 30
1.77600e-013
  70
    32
  0
VERTEX
  8
0
  5
48CF
 10
703.371
 20
-48.9997
 30
1.77600e-013
  70
    32
  0
VERTEX
  8
0
  5
48D0
 10
703.371
 20
-48.9997
 30
1.77600e-013
  70
    32
  0
VERTEX
  8
0
  5
48D1
 10
703.371
 20
-48.9997
 30
1.77600e-013
  70
    32
  0
VERTEX
  8
0
  5
48D2
 10
703.371
 20
-48.9997
 30
1.77600e-013
  70
    32
  0
VERTEX
  8
0
  5
48D3
 10
703.371
 20
-48.9997
 30
1.77600e-013
  70
    32
  0
VERTEX
  8
0
  5
48D4
 10
703.371
 20
-48.9997
 30
1.77600e-013
  70
    32
  0
VERTEX
  8
0
  5
48D5
 10
703.371
 20
-48.9997
 30
1.77600e-013
  70
    32
  0
VERTEX
  8
0
  5
48D6
 10
703.371
 20
-48.9997
 30
1.77600e-013
  70
    32
  0
VERTEX
  8
0
  5
48D7
 10
703.371
 20
-48.9997
 30
1.77600e-013
  70
    32
  0
VERTEX
  8
0
  5
48D8
 10
703.372
 20
-48.9997
 30
1.77600e-013
  70
    32
  0
VERTEX
  8
0
  5
48D9
 10
703.372
 20
-48.9997
 30
1.77600e-013
  70
    32
  0
VERTEX
  8
0
  5
48DA
 10
703.372
 20
-48.9997
 30
1.77600e-013
  70
    32
  0
VERTEX
  8
0
  5
48DB
 10
703.372
 20
-48.9997
 30
1.77600e-013
  70
    32
  0
VERTEX
  8
0
  5
48DC
 10
703.372
 20
-48.9997
 30
1.77600e-013
  70
    32
  0
VERTEX
  8
0
  5
48DD
 10
703.372
 20
-48.9997
 30
1.77600e-013
  70
    32
  0
VERTEX
  8
0
  5
48DE
 10
703.372
 20
-48.9997
 30
1.77600e-013
  70
    32
  0
VERTEX
  8
0
  5
48DF
 10
703.372
 20
-48.9996
 30
1.77600e-013
  70
    32
  0
VERTEX
  8
0
  5
48E0
 10
703.372
 20
-48.9996
 30
1.77600e-013
  70
    32
  0
VERTEX
  8
0
  5
48E1
 10
703.372
 20
-48.9996
 30
1.77600e-013
  70
    32
  0
VERTEX
  8
0
  5
48E2
 10
703.373
 20
-48.9996
 30
1.77600e-013
  70
    32
  0
VERTEX
  8
0
  5
48E3
 10
703.373
 20
-48.9996
 30
1.77600e-013
  70
    32
  0
VERTEX
  8
0
  5
48E4
 10
703.373
 20
-48.9996
 30
1.77600e-013
  70
    32
  0
VERTEX
  8
0
  5
48E5
 10
703.373
 20
-48.9996
 30
1.77600e-013
  70
    32
  0
VERTEX
  8
0
  5
48E6
 10
703.373
 20
-48.9996
 30
1.77600e-013
  70
    32
  0
VERTEX
  8
0
  5
48E7
 10
703.373
 20
-48.9996
 30
1.77600e-013
  70
    32
  0
VERTEX
  8
0
  5
48E8
 10
703.373
 20
-48.9996
 30
1.77600e-013
  70
    32
  0
VERTEX
  8
0
  5
48E9
 10
703.373
 20
-48.9996
 30
1.77600e-013
  70
    32
  0
VERTEX
  8
0
  5
48EA
 10
703.373
 20
-48.9996
 30
1.77600e-013
  70
    32
  0
VERTEX
  8
0
  5
48EB
 10
703.373
 20
-48.9996
 30
1.77600e-013
  70
    32
  0
VERTEX
  8
0
  5
48EC
 10
703.373
 20
-48.9996
 30
1.77600e-013
  70
    32
  0
VERTEX
  8
0
  5
48ED
 10
703.374
 20
-48.9995
 30
1.77600e-013
  70
    32
  0
VERTEX
  8
0
  5
48EE
 10
703.374
 20
-48.9995
 30
1.77600e-013
  70
    32
  0
VERTEX
  8
0
  5
48EF
 10
703.374
 20
-48.9995
 30
1.77600e-013
  70
    32
  0
VERTEX
  8
0
  5
48F0
 10
703.374
 20
-48.9995
 30
1.77600e-013
  70
    32
  0
VERTEX
  8
0
  5
48F1
 10
703.374
 20
-48.9995
 30
1.77600e-013
  70
    32
  0
VERTEX
  8
0
  5
48F2
 10
703.374
 20
-48.9995
 30
1.77600e-013
  70
    32
  0
VERTEX
  8
0
  5
48F3
 10
703.374
 20
-48.9995
 30
1.77600e-013
  70
    32
  0
VERTEX
  8
0
  5
48F4
 10
703.374
 20
-48.9995
 30
1.77600e-013
  70
    32
  0
VERTEX
  8
0
  5
48F5
 10
703.374
 20
-48.9995
 30
1.77600e-013
  70
    32
  0
SEQEND
  8
0
  5
48F6
  0
POLYLINE
  5
42B2
  8
0
  6
VERDECKT
 62
     1
 10
715.95426663234775
 20
0.0000000000003465
 30
0.0000000000001776
 66
     1
 70
     8
  0
VERTEX
  8
0
  5
48F7
 10
715.954
 20
3.46498e-013
 30
1.77600e-013
  70
    32
  0
VERTEX
  8
0
  5
48F8
 10
715.951
 20
2.36101
 30
1.77600e-013
  70
    32
  0
VERTEX
  8
0
  5
48F9
 10
715.942
 20
4.71634
 30
1.77600e-013
  70
    32
  0
VERTEX
  8
0
  5
48FA
 10
715.927
 20
7.06030
 30
1.77600e-013
  70
    32
  0
VERTEX
  8
0
  5
48FB
 10
715.906
 20
9.38725
 30
1.77600e-013
  70
    32
  0
VERTEX
  8
0
  5
48FC
 10
715.879
 20
11.6916
 30
1.77600e-013
  70
    32
  0
VERTEX
  8
0
  5
48FD
 10
715.846
 20
13.9678
 30
1.77600e-013
  70
    32
  0
VERTEX
  8
0
  5
48FE
 10
715.807
 20
16.2103
 30
1.77600e-013
  70
    32
  0
VERTEX
  8
0
  5
48FF
 10
715.763
 20
18.4138
 30
1.77600e-013
  70
    32
  0
VERTEX
  8
0
  5
4900
 10
715.712
 20
20.5729
 30
1.77600e-013
  70
    32
  0
VERTEX
  8
0
  5
4901
 10
715.657
 20
22.6824
 30
1.77600e-013
  70
    32
  0
VERTEX
  8
0
  5
4902
 10
715.596
 20
24.7373
 30
1.77600e-013
  70
    32
  0
VERTEX
  8
0
  5
4903
 10
715.530
 20
26.7326
 30
1.77600e-013
  70
    32
  0
VERTEX
  8
0
  5
4904
 10
715.459
 20
28.6635
 30
1.77600e-013
  70
    32
  0
VERTEX
  8
0
  5
4905
 10
715.383
 20
30.5254
 30
1.77600e-013
  70
    32
  0
VERTEX
  8
0
  5
4906
 10
715.302
 20
32.3137
 30
1.77600e-013
  70
    32
  0
VERTEX
  8
0
  5
4907
 10
715.217
 20
34.0242
 30
1.77600e-013
  70
    32
  0
VERTEX
  8
0
  5
4908
 10
715.127
 20
35.6527
 30
1.77600e-013
  70
    32
  0
VERTEX
  8
0
  5
4909
 10
715.034
 20
37.1953
 30
1.77600e-013
  70
    32
  0
VERTEX
  8
0
  5
490A
 10
714.936
 20
38.6483
 30
1.77600e-013
  70
    32
  0
VERTEX
  8
0
  5
490B
 10
714.835
 20
40.0082
 30
1.77600e-013
  70
    32
  0
VERTEX
  8
0
  5
490C
 10
714.731
 20
41.2717
 30
1.77600e-013
  70
    32
  0
VERTEX
  8
0
  5
490D
 10
714.623
 20
42.4358
 30
1.77600e-013
  70
    32
  0
VERTEX
  8
0
  5
490E
 10
714.513
 20
43.4977
 30
1.77600e-013
  70
    32
  0
VERTEX
  8
0
  5
490F
 10
714.400
 20
44.4547
 30
1.77600e-013
  70
    32
  0
VERTEX
  8
0
  5
4910
 10
714.284
 20
45.3047
 30
1.77600e-013
  70
    32
  0
VERTEX
  8
0
  5
4911
 10
714.167
 20
46.0456
 30
1.77600e-013
  70
    32
  0
VERTEX
  8
0
  5
4912
 10
714.048
 20
46.6755
 30
1.77600e-013
  70
    32
  0
VERTEX
  8
0
  5
4913
 10
713.927
 20
47.1929
 30
1.77600e-013
  70
    32
  0
VERTEX
  8
0
  5
4914
 10
713.806
 20
47.5967
 30
1.77600e-013
  70
    32
  0
VERTEX
  8
0
  5
4915
 10
713.683
 20
47.8858
 30
1.77600e-013
  70
    32
  0
VERTEX
  8
0
  5
4916
 10
713.560
 20
48.0595
 30
1.77600e-013
  70
    32
  0
VERTEX
  8
0
  5
4917
 10
713.436
 20
48.1175
 30
1.77600e-013
  70
    32
  0
VERTEX
  8
0
  5
4918
 10
713.312
 20
48.0595
 30
1.77600e-013
  70
    32
  0
VERTEX
  8
0
  5
4919
 10
713.189
 20
47.8858
 30
1.77600e-013
  70
    32
  0
VERTEX
  8
0
  5
491A
 10
713.066
 20
47.5967
 30
1.77600e-013
  70
    32
  0
VERTEX
  8
0
  5
491B
 10
712.945
 20
47.1929
 30
1.77600e-013
  70
    32
  0
VERTEX
  8
0
  5
491C
 10
712.824
 20
46.6755
 30
1.77600e-013
  70
    32
  0
VERTEX
  8
0
  5
491D
 10
712.705
 20
46.0456
 30
1.77600e-013
  70
    32
  0
VERTEX
  8
0
  5
491E
 10
712.588
 20
45.3047
 30
1.77600e-013
  70
    32
  0
VERTEX
  8
0
  5
491F
 10
712.472
 20
44.4547
 30
1.77600e-013
  70
    32
  0
VERTEX
  8
0
  5
4920
 10
712.359
 20
43.4977
 30
1.77600e-013
  70
    32
  0
VERTEX
  8
0
  5
4921
 10
712.249
 20
42.4358
 30
1.77600e-013
  70
    32
  0
VERTEX
  8
0
  5
4922
 10
712.141
 20
41.2717
 30
1.77600e-013
  70
    32
  0
VERTEX
  8
0
  5
4923
 10
712.037
 20
40.0082
 30
1.77600e-013
  70
    32
  0
VERTEX
  8
0
  5
4924
 10
711.936
 20
38.6483
 30
1.77600e-013
  70
    32
  0
VERTEX
  8
0
  5
4925
 10
711.838
 20
37.1953
 30
1.77600e-013
  70
    32
  0
VERTEX
  8
0
  5
4926
 10
711.745
 20
35.6527
 30
1.77600e-013
  70
    32
  0
VERTEX
  8
0
  5
4927
 10
711.655
 20
34.0242
 30
1.77600e-013
  70
    32
  0
VERTEX
  8
0
  5
4928
 10
711.570
 20
32.3137
 30
1.77600e-013
  70
    32
  0
VERTEX
  8
0
  5
4929
 10
711.489
 20
30.5254
 30
1.77600e-013
  70
    32
  0
VERTEX
  8
0
  5
492A
 10
711.413
 20
28.6635
 30
1.77600e-013
  70
    32
  0
VERTEX
  8
0
  5
492B
 10
711.342
 20
26.7326
 30
1.77600e-013
  70
    32
  0
VERTEX
  8
0
  5
492C
 10
711.276
 20
24.7373
 30
1.77600e-013
  70
    32
  0
VERTEX
  8
0
  5
492D
 10
711.215
 20
22.6824
 30
1.77600e-013
  70
    32
  0
VERTEX
  8
0
  5
492E
 10
711.159
 20
20.5729
 30
1.77600e-013
  70
    32
  0
VERTEX
  8
0
  5
492F
 10
711.109
 20
18.4138
 30
1.77600e-013
  70
    32
  0
VERTEX
  8
0
  5
4930
 10
711.065
 20
16.2103
 30
1.77600e-013
  70
    32
  0
VERTEX
  8
0
  5
4931
 10
711.026
 20
13.9678
 30
1.77600e-013
  70
    32
  0
VERTEX
  8
0
  5
4932
 10
710.993
 20
11.6916
 30
1.77600e-013
  70
    32
  0
VERTEX
  8
0
  5
4933
 10
710.966
 20
9.38725
 30
1.77600e-013
  70
    32
  0
VERTEX
  8
0
  5
4934
 10
710.945
 20
7.06030
 30
1.77600e-013
  70
    32
  0
VERTEX
  8
0
  5
4935
 10
710.930
 20
4.71634
 30
1.77600e-013
  70
    32
  0
VERTEX
  8
0
  5
4936
 10
710.921
 20
2.36101
 30
1.77600e-013
  70
    32
  0
VERTEX
  8
0
  5
4937
 10
710.918
 20
2.83494e-013
 30
1.77600e-013
  70
    32
  0
VERTEX
  8
0
  5
4938
 10
710.921
 20
-2.36101
 30
1.77600e-013
  70
    32
  0
VERTEX
  8
0
  5
4939
 10
710.930
 20
-4.71634
 30
1.77600e-013
  70
    32
  0
VERTEX
  8
0
  5
493A
 10
710.945
 20
-7.06030
 30
1.77600e-013
  70
    32
  0
VERTEX
  8
0
  5
493B
 10
710.966
 20
-9.38725
 30
1.77600e-013
  70
    32
  0
VERTEX
  8
0
  5
493C
 10
710.993
 20
-11.6916
 30
1.77600e-013
  70
    32
  0
VERTEX
  8
0
  5
493D
 10
711.026
 20
-13.9678
 30
1.77600e-013
  70
    32
  0
VERTEX
  8
0
  5
493E
 10
711.065
 20
-16.2103
 30
1.77600e-013
  70
    32
  0
VERTEX
  8
0
  5
493F
 10
711.109
 20
-18.4138
 30
1.77600e-013
  70
    32
  0
VERTEX
  8
0
  5
4940
 10
711.159
 20
-20.5729
 30
1.77600e-013
  70
    32
  0
VERTEX
  8
0
  5
4941
 10
711.215
 20
-22.6824
 30
1.77600e-013
  70
    32
  0
VERTEX
  8
0
  5
4942
 10
711.276
 20
-24.7373
 30
1.77600e-013
  70
    32
  0
VERTEX
  8
0
  5
4943
 10
711.342
 20
-26.7326
 30
1.77600e-013
  70
    32
  0
VERTEX
  8
0
  5
4944
 10
711.413
 20
-28.6635
 30
1.77600e-013
  70
    32
  0
VERTEX
  8
0
  5
4945
 10
711.489
 20
-30.5254
 30
1.77600e-013
  70
    32
  0
VERTEX
  8
0
  5
4946
 10
711.570
 20
-32.3137
 30
1.77600e-013
  70
    32
  0
VERTEX
  8
0
  5
4947
 10
711.655
 20
-34.0242
 30
1.77600e-013
  70
    32
  0
VERTEX
  8
0
  5
4948
 10
711.745
 20
-35.6527
 30
1.77600e-013
  70
    32
  0
VERTEX
  8
0
  5
4949
 10
711.838
 20
-37.1953
 30
1.77600e-013
  70
    32
  0
VERTEX
  8
0
  5
494A
 10
711.936
 20
-38.6483
 30
1.77600e-013
  70
    32
  0
VERTEX
  8
0
  5
494B
 10
712.037
 20
-40.0082
 30
1.77600e-013
  70
    32
  0
VERTEX
  8
0
  5
494C
 10
712.141
 20
-41.2717
 30
1.77600e-013
  70
    32
  0
VERTEX
  8
0
  5
494D
 10
712.249
 20
-42.4358
 30
1.77600e-013
  70
    32
  0
VERTEX
  8
0
  5
494E
 10
712.359
 20
-43.4977
 30
1.77600e-013
  70
    32
  0
VERTEX
  8
0
  5
494F
 10
712.472
 20
-44.4547
 30
1.77600e-013
  70
    32
  0
VERTEX
  8
0
  5
4950
 10
712.588
 20
-45.3047
 30
1.77600e-013
  70
    32
  0
VERTEX
  8
0
  5
4951
 10
712.705
 20
-46.0456
 30
1.77600e-013
  70
    32
  0
VERTEX
  8
0
  5
4952
 10
712.824
 20
-46.6755
 30
1.77600e-013
  70
    32
  0
VERTEX
  8
0
  5
4953
 10
712.945
 20
-47.1929
 30
1.77600e-013
  70
    32
  0
VERTEX
  8
0
  5
4954
 10
713.066
 20
-47.5967
 30
1.77600e-013
  70
    32
  0
VERTEX
  8
0
  5
4955
 10
713.189
 20
-47.8858
 30
1.77600e-013
  70
    32
  0
VERTEX
  8
0
  5
4956
 10
713.312
 20
-48.0595
 30
1.77600e-013
  70
    32
  0
VERTEX
  8
0
  5
4957
 10
713.436
 20
-48.1175
 30
1.77600e-013
  70
    32
  0
VERTEX
  8
0
  5
4958
 10
713.560
 20
-48.0595
 30
1.77600e-013
  70
    32
  0
VERTEX
  8
0
  5
4959
 10
713.683
 20
-47.8858
 30
1.77600e-013
  70
    32
  0
VERTEX
  8
0
  5
495A
 10
713.806
 20
-47.5967
 30
1.77600e-013
  70
    32
  0
VERTEX
  8
0
  5
495B
 10
713.927
 20
-47.1929
 30
1.77600e-013
  70
    32
  0
VERTEX
  8
0
  5
495C
 10
714.048
 20
-46.6755
 30
1.77600e-013
  70
    32
  0
VERTEX
  8
0
  5
495D
 10
714.167
 20
-46.0456
 30
1.77600e-013
  70
    32
  0
VERTEX
  8
0
  5
495E
 10
714.284
 20
-45.3047
 30
1.77600e-013
  70
    32
  0
VERTEX
  8
0
  5
495F
 10
714.400
 20
-44.4547
 30
1.77600e-013
  70
    32
  0
VERTEX
  8
0
  5
4960
 10
714.513
 20
-43.4977
 30
1.77600e-013
  70
    32
  0
VERTEX
  8
0
  5
4961
 10
714.623
 20
-42.4358
 30
1.77600e-013
  70
    32
  0
VERTEX
  8
0
  5
4962
 10
714.731
 20
-41.2717
 30
1.77600e-013
  70
    32
  0
VERTEX
  8
0
  5
4963
 10
714.835
 20
-40.0082
 30
1.77600e-013
  70
    32
  0
VERTEX
  8
0
  5
4964
 10
714.936
 20
-38.6483
 30
1.77600e-013
  70
    32
  0
VERTEX
  8
0
  5
4965
 10
715.034
 20
-37.1953
 30
1.77600e-013
  70
    32
  0
VERTEX
  8
0
  5
4966
 10
715.127
 20
-35.6527
 30
1.77600e-013
  70
    32
  0
VERTEX
  8
0
  5
4967
 10
715.217
 20
-34.0242
 30
1.77600e-013
  70
    32
  0
VERTEX
  8
0
  5
4968
 10
715.302
 20
-32.3137
 30
1.77600e-013
  70
    32
  0
VERTEX
  8
0
  5
4969
 10
715.383
 20
-30.5254
 30
1.77600e-013
  70
    32
  0
VERTEX
  8
0
  5
496A
 10
715.459
 20
-28.6635
 30
1.77600e-013
  70
    32
  0
VERTEX
  8
0
  5
496B
 10
715.530
 20
-26.7326
 30
1.77600e-013
  70
    32
  0
VERTEX
  8
0
  5
496C
 10
715.596
 20
-24.7373
 30
1.77600e-013
  70
    32
  0
VERTEX
  8
0
  5
496D
 10
715.657
 20
-22.6824
 30
1.77600e-013
  70
    32
  0
VERTEX
  8
0
  5
496E
 10
715.712
 20
-20.5729
 30
1.77600e-013
  70
    32
  0
VERTEX
  8
0
  5
496F
 10
715.763
 20
-18.4138
 30
1.77600e-013
  70
    32
  0
VERTEX
  8
0
  5
4970
 10
715.807
 20
-16.2103
 30
1.77600e-013
  70
    32
  0
VERTEX
  8
0
  5
4971
 10
715.846
 20
-13.9678
 30
1.77600e-013
  70
    32
  0
VERTEX
  8
0
  5
4972
 10
715.879
 20
-11.6916
 30
1.77600e-013
  70
    32
  0
VERTEX
  8
0
  5
4973
 10
715.906
 20
-9.38725
 30
1.77600e-013
  70
    32
  0
VERTEX
  8
0
  5
4974
 10
715.927
 20
-7.06030
 30
1.77600e-013
  70
    32
  0
VERTEX
  8
0
  5
4975
 10
715.942
 20
-4.71634
 30
1.77600e-013
  70
    32
  0
VERTEX
  8
0
  5
4976
 10
715.951
 20
-2.36101
 30
1.77600e-013
  70
    32
  0
VERTEX
  8
0
  5
4977
 10
715.954
 20
3.46498e-013
 30
1.77600e-013
  70
    32
  0
SEQEND
  8
0
  5
4978
  0
POLYLINE
  5
42B3
  8
0
  6
VERDECKT
 62
     1
 10
713.44802090211886
 20
50.124586471370748
 30
0.0000000000001776
 66
     1
 70
     8
  0
VERTEX
  8
0
  5
4979
 10
713.448
 20
50.1246
 30
1.77600e-013
  70
    32
  0
VERTEX
  8
0
  5
497A
 10
713.383
 20
50.1151
 30
1.77600e-013
  70
    32
  0
VERTEX
  8
0
  5
497B
 10
713.319
 20
50.0752
 30
1.77600e-013
  70
    32
  0
VERTEX
  8
0
  5
497C
 10
713.254
 20
50.0049
 30
1.77600e-013
  70
    32
  0
VERTEX
  8
0
  5
497D
 10
713.190
 20
49.9044
 30
1.77600e-013
  70
    32
  0
VERTEX
  8
0
  5
497E
 10
713.126
 20
49.7736
 30
1.77600e-013
  70
    32
  0
VERTEX
  8
0
  5
497F
 10
713.062
 20
49.6127
 30
1.77600e-013
  70
    32
  0
VERTEX
  8
0
  5
4980
 10
712.998
 20
49.4217
 30
1.77600e-013
  70
    32
  0
VERTEX
  8
0
  5
4981
 10
712.935
 20
49.2008
 30
1.77600e-013
  70
    32
  0
VERTEX
  8
0
  5
4982
 10
712.871
 20
48.9501
 30
1.77600e-013
  70
    32
  0
VERTEX
  8
0
  5
4983
 10
712.808
 20
48.6697
 30
1.77600e-013
  70
    32
  0
VERTEX
  8
0
  5
4984
 10
712.746
 20
48.3598
 30
1.77600e-013
  70
    32
  0
VERTEX
  8
0
  5
4985
 10
712.684
 20
48.0206
 30
1.77600e-013
  70
    32
  0
VERTEX
  8
0
  5
4986
 10
712.622
 20
47.6523
 30
1.77600e-013
  70
    32
  0
VERTEX
  8
0
  5
4987
 10
712.561
 20
47.2552
 30
1.77600e-013
  70
    32
  0
VERTEX
  8
0
  5
4988
 10
712.500
 20
46.8294
 30
1.77600e-013
  70
    32
  0
VERTEX
  8
0
  5
4989
 10
712.440
 20
46.3753
 30
1.77600e-013
  70
    32
  0
VERTEX
  8
0
  5
498A
 10
712.381
 20
45.8930
 30
1.77600e-013
  70
    32
  0
VERTEX
  8
0
  5
498B
 10
712.322
 20
45.3829
 30
1.77600e-013
  70
    32
  0
VERTEX
  8
0
  5
498C
 10
712.264
 20
44.8454
 30
1.77600e-013
  70
    32
  0
VERTEX
  8
0
  5
498D
 10
712.207
 20
44.2807
 30
1.77600e-013
  70
    32
  0
VERTEX
  8
0
  5
498E
 10
712.150
 20
43.6891
 30
1.77600e-013
  70
    32
  0
VERTEX
  8
0
  5
498F
 10
712.094
 20
43.0711
 30
1.77600e-013
  70
    32
  0
VERTEX
  8
0
  5
4990
 10
712.039
 20
42.4270
 30
1.77600e-013
  70
    32
  0
VERTEX
  8
0
  5
4991
 10
711.985
 20
41.7571
 30
1.77600e-013
  70
    32
  0
VERTEX
  8
0
  5
4992
 10
711.931
 20
41.0620
 30
1.77600e-013
  70
    32
  0
VERTEX
  8
0
  5
4993
 10
711.879
 20
40.3420
 30
1.77600e-013
  70
    32
  0
VERTEX
  8
0
  5
4994
 10
711.828
 20
39.5976
 30
1.77600e-013
  70
    32
  0
VERTEX
  8
0
  5
4995
 10
711.777
 20
38.8291
 30
1.77600e-013
  70
    32
  0
VERTEX
  8
0
  5
4996
 10
711.727
 20
38.0372
 30
1.77600e-013
  70
    32
  0
VERTEX
  8
0
  5
4997
 10
711.679
 20
37.2221
 30
1.77600e-013
  70
    32
  0
VERTEX
  8
0
  5
4998
 10
711.632
 20
36.3846
 30
1.77600e-013
  70
    32
  0
VERTEX
  8
0
  5
4999
 10
711.585
 20
35.5250
 30
1.77600e-013
  70
    32
  0
VERTEX
  8
0
  5
499A
 10
711.540
 20
34.6438
 30
1.77600e-013
  70
    32
  0
VERTEX
  8
0
  5
499B
 10
711.496
 20
33.7417
 30
1.77600e-013
  70
    32
  0
VERTEX
  8
0
  5
499C
 10
711.453
 20
32.8191
 30
1.77600e-013
  70
    32
  0
VERTEX
  8
0
  5
499D
 10
711.411
 20
31.8767
 30
1.77600e-013
  70
    32
  0
VERTEX
  8
0
  5
499E
 10
711.371
 20
30.9149
 30
1.77600e-013
  70
    32
  0
VERTEX
  8
0
  5
499F
 10
711.332
 20
29.9344
 30
1.77600e-013
  70
    32
  0
VERTEX
  8
0
  5
49A0
 10
711.294
 20
28.9358
 30
1.77600e-013
  70
    32
  0
VERTEX
  8
0
  5
49A1
 10
711.257
 20
27.9196
 30
1.77600e-013
  70
    32
  0
VERTEX
  8
0
  5
49A2
 10
711.222
 20
26.8866
 30
1.77600e-013
  70
    32
  0
VERTEX
  8
0
  5
49A3
 10
711.188
 20
25.8372
 30
1.77600e-013
  70
    32
  0
VERTEX
  8
0
  5
49A4
 10
711.155
 20
24.7722
 30
1.77600e-013
  70
    32
  0
VERTEX
  8
0
  5
49A5
 10
711.124
 20
23.6921
 30
1.77600e-013
  70
    32
  0
VERTEX
  8
0
  5
49A6
 10
711.094
 20
22.5977
 30
1.77600e-013
  70
    32
  0
VERTEX
  8
0
  5
49A7
 10
711.066
 20
21.4897
 30
1.77600e-013
  70
    32
  0
VERTEX
  8
0
  5
49A8
 10
711.039
 20
20.3686
 30
1.77600e-013
  70
    32
  0
VERTEX
  8
0
  5
49A9
 10
711.013
 20
19.2351
 30
1.77600e-013
  70
    32
  0
VERTEX
  8
0
  5
49AA
 10
710.989
 20
18.0900
 30
1.77600e-013
  70
    32
  0
VERTEX
  8
0
  5
49AB
 10
710.967
 20
16.9340
 30
1.77600e-013
  70
    32
  0
VERTEX
  8
0
  5
49AC
 10
710.946
 20
15.7677
 30
1.77600e-013
  70
    32
  0
VERTEX
  8
0
  5
49AD
 10
710.926
 20
14.5918
 30
1.77600e-013
  70
    32
  0
VERTEX
  8
0
  5
49AE
 10
710.908
 20
13.4071
 30
1.77600e-013
  70
    32
  0
VERTEX
  8
0
  5
49AF
 10
710.892
 20
12.2142
 30
1.77600e-013
  70
    32
  0
VERTEX
  8
0
  5
49B0
 10
710.877
 20
11.0140
 30
1.77600e-013
  70
    32
  0
VERTEX
  8
0
  5
49B1
 10
710.863
 20
9.80710
 30
1.77600e-013
  70
    32
  0
VERTEX
  8
0
  5
49B2
 10
710.851
 20
8.59425
 30
1.77600e-013
  70
    32
  0
VERTEX
  8
0
  5
49B3
 10
710.841
 20
7.37619
 30
1.77600e-013
  70
    32
  0
VERTEX
  8
0
  5
49B4
 10
710.832
 20
6.15367
 30
1.77600e-013
  70
    32
  0
VERTEX
  8
0
  5
49B5
 10
710.825
 20
4.92742
 30
1.77600e-013
  70
    32
  0
VERTEX
  8
0
  5
49B6
 10
710.820
 20
3.69818
 30
1.77600e-013
  70
    32
  0
VERTEX
  8
0
  5
49B7
 10
710.816
 20
2.46670
 30
1.77600e-013
  70
    32
  0
VERTEX
  8
0
  5
49B8
 10
710.813
 20
1.23372
 30
1.77600e-013
  70
    32
  0
VERTEX
  8
0
  5
49B9
 10
710.813
 20
-6.64421e-013
 30
1.77600e-013
  70
    32
  0
VERTEX
  8
0
  5
49BA
 10
710.813
 20
-1.23372
 30
1.77600e-013
  70
    32
  0
VERTEX
  8
0
  5
49BB
 10
710.816
 20
-2.46670
 30
1.77600e-013
  70
    32
  0
VERTEX
  8
0
  5
49BC
 10
710.820
 20
-3.69818
 30
1.77600e-013
  70
    32
  0
VERTEX
  8
0
  5
49BD
 10
710.825
 20
-4.92742
 30
1.77600e-013
  70
    32
  0
VERTEX
  8
0
  5
49BE
 10
710.832
 20
-6.15367
 30
1.77600e-013
  70
    32
  0
VERTEX
  8
0
  5
49BF
 10
710.841
 20
-7.37619
 30
1.77600e-013
  70
    32
  0
VERTEX
  8
0
  5
49C0
 10
710.851
 20
-8.59425
 30
1.77600e-013
  70
    32
  0
VERTEX
  8
0
  5
49C1
 10
710.863
 20
-9.80710
 30
1.77600e-013
  70
    32
  0
VERTEX
  8
0
  5
49C2
 10
710.877
 20
-11.0140
 30
1.77600e-013
  70
    32
  0
VERTEX
  8
0
  5
49C3
 10
710.892
 20
-12.2142
 30
1.77600e-013
  70
    32
  0
VERTEX
  8
0
  5
49C4
 10
710.908
 20
-13.4071
 30
1.77600e-013
  70
    32
  0
VERTEX
  8
0
  5
49C5
 10
710.926
 20
-14.5918
 30
1.77600e-013
  70
    32
  0
VERTEX
  8
0
  5
49C6
 10
710.946
 20
-15.7677
 30
1.77600e-013
  70
    32
  0
VERTEX
  8
0
  5
49C7
 10
710.967
 20
-16.9340
 30
1.77600e-013
  70
    32
  0
VERTEX
  8
0
  5
49C8
 10
710.989
 20
-18.0900
 30
1.77600e-013
  70
    32
  0
VERTEX
  8
0
  5
49C9
 10
711.013
 20
-19.2351
 30
1.77600e-013
  70
    32
  0
VERTEX
  8
0
  5
49CA
 10
711.039
 20
-20.3686
 30
1.77600e-013
  70
    32
  0
VERTEX
  8
0
  5
49CB
 10
711.066
 20
-21.4897
 30
1.77600e-013
  70
    32
  0
VERTEX
  8
0
  5
49CC
 10
711.094
 20
-22.5977
 30
1.77600e-013
  70
    32
  0
VERTEX
  8
0
  5
49CD
 10
711.124
 20
-23.6921
 30
1.77600e-013
  70
    32
  0
VERTEX
  8
0
  5
49CE
 10
711.155
 20
-24.7722
 30
1.77600e-013
  70
    32
  0
VERTEX
  8
0
  5
49CF
 10
711.188
 20
-25.8372
 30
1.77600e-013
  70
    32
  0
VERTEX
  8
0
  5
49D0
 10
711.222
 20
-26.8866
 30
1.77600e-013
  70
    32
  0
VERTEX
  8
0
  5
49D1
 10
711.257
 20
-27.9196
 30
1.77600e-013
  70
    32
  0
VERTEX
  8
0
  5
49D2
 10
711.294
 20
-28.9358
 30
1.77600e-013
  70
    32
  0
VERTEX
  8
0
  5
49D3
 10
711.332
 20
-29.9344
 30
1.77600e-013
  70
    32
  0
VERTEX
  8
0
  5
49D4
 10
711.371
 20
-30.9149
 30
1.77600e-013
  70
    32
  0
VERTEX
  8
0
  5
49D5
 10
711.411
 20
-31.8767
 30
1.77600e-013
  70
    32
  0
VERTEX
  8
0
  5
49D6
 10
711.453
 20
-32.8191
 30
1.77600e-013
  70
    32
  0
VERTEX
  8
0
  5
49D7
 10
711.496
 20
-33.7417
 30
1.77600e-013
  70
    32
  0
VERTEX
  8
0
  5
49D8
 10
711.540
 20
-34.6438
 30
1.77600e-013
  70
    32
  0
VERTEX
  8
0
  5
49D9
 10
711.585
 20
-35.5250
 30
1.77600e-013
  70
    32
  0
VERTEX
  8
0
  5
49DA
 10
711.632
 20
-36.3846
 30
1.77600e-013
  70
    32
  0
VERTEX
  8
0
  5
49DB
 10
711.679
 20
-37.2221
 30
1.77600e-013
  70
    32
  0
VERTEX
  8
0
  5
49DC
 10
711.727
 20
-38.0372
 30
1.77600e-013
  70
    32
  0
VERTEX
  8
0
  5
49DD
 10
711.777
 20
-38.8291
 30
1.77600e-013
  70
    32
  0
VERTEX
  8
0
  5
49DE
 10
711.828
 20
-39.5976
 30
1.77600e-013
  70
    32
  0
VERTEX
  8
0
  5
49DF
 10
711.879
 20
-40.3420
 30
1.77600e-013
  70
    32
  0
VERTEX
  8
0
  5
49E0
 10
711.931
 20
-41.0620
 30
1.77600e-013
  70
    32
  0
VERTEX
  8
0
  5
49E1
 10
711.985
 20
-41.7571
 30
1.77600e-013
  70
    32
  0
VERTEX
  8
0
  5
49E2
 10
712.039
 20
-42.4270
 30
1.77600e-013
  70
    32
  0
VERTEX
  8
0
  5
49E3
 10
712.094
 20
-43.0711
 30
1.77600e-013
  70
    32
  0
VERTEX
  8
0
  5
49E4
 10
712.150
 20
-43.6891
 30
1.77600e-013
  70
    32
  0
VERTEX
  8
0
  5
49E5
 10
712.207
 20
-44.2807
 30
1.77600e-013
  70
    32
  0
VERTEX
  8
0
  5
49E6
 10
712.264
 20
-44.8454
 30
1.77600e-013
  70
    32
  0
VERTEX
  8
0
  5
49E7
 10
712.322
 20
-45.3829
 30
1.77600e-013
  70
    32
  0
VERTEX
  8
0
  5
49E8
 10
712.381
 20
-45.8930
 30
1.77600e-013
  70
    32
  0
VERTEX
  8
0
  5
49E9
 10
712.440
 20
-46.3753
 30
1.77600e-013
  70
    32
  0
VERTEX
  8
0
  5
49EA
 10
712.500
 20
-46.8294
 30
1.77600e-013
  70
    32
  0
VERTEX
  8
0
  5
49EB
 10
712.561
 20
-47.2552
 30
1.77600e-013
  70
    32
  0
VERTEX
  8
0
  5
49EC
 10
712.622
 20
-47.6523
 30
1.77600e-013
  70
    32
  0
VERTEX
  8
0
  5
49ED
 10
712.684
 20
-48.0206
 30
1.77600e-013
  70
    32
  0
VERTEX
  8
0
  5
49EE
 10
712.746
 20
-48.3598
 30
1.77600e-013
  70
    32
  0
VERTEX
  8
0
  5
49EF
 10
712.808
 20
-48.6697
 30
1.77600e-013
  70
    32
  0
VERTEX
  8
0
  5
49F0
 10
712.871
 20
-48.9501
 30
1.77600e-013
  70
    32
  0
VERTEX
  8
0
  5
49F1
 10
712.935
 20
-49.2008
 30
1.77600e-013
  70
    32
  0
VERTEX
  8
0
  5
49F2
 10
712.998
 20
-49.4217
 30
1.77600e-013
  70
    32
  0
VERTEX
  8
0
  5
49F3
 10
713.062
 20
-49.6127
 30
1.77600e-013
  70
    32
  0
VERTEX
  8
0
  5
49F4
 10
713.126
 20
-49.7736
 30
1.77600e-013
  70
    32
  0
VERTEX
  8
0
  5
49F5
 10
713.190
 20
-49.9044
 30
1.77600e-013
  70
    32
  0
VERTEX
  8
0
  5
49F6
 10
713.254
 20
-50.0049
 30
1.77600e-013
  70
    32
  0
VERTEX
  8
0
  5
49F7
 10
713.319
 20
-50.0752
 30
1.77600e-013
  70
    32
  0
VERTEX
  8
0
  5
49F8
 10
713.383
 20
-50.1151
 30
1.77600e-013
  70
    32
  0
VERTEX
  8
0
  5
49F9
 10
713.448
 20
-50.1246
 30
1.77600e-013
  70
    32
  0
SEQEND
  8
0
  5
49FA
  0
LINE
  5
42B4
  8
0
  6
VERDECKT
 62
     1
 10
703.36249507305615
 20
-48.999999999994792
 30
0.0000000000001776
 11
316.99786454863602
 21
-48.999999999994792
 31
0.0000000000000817
  0
LINE
  5
42B5
  8
0
  6
VERDECKT
 62
     1
 10
703.36249507305615
 20
48.999999999995417
 30
0.0000000000001776
 11
316.99786454863602
 21
48.999999999995417
 31
0.0000000000000817
  0
LINE
  5
42B6
  8
0
  6
VERDECKT
 62
     1
 10
713.44753913908528
 20
-48.116967899717508
 30
0.0000000000001776
 11
703.37425335266539
 21
-48.999484933331317
 31
0.0000000000001751
  0
LINE
  5
42B7
  8
0
  6
VERDECKT
 62
     1
 10
713.44753913908528
 20
48.116967899718141
 30
0.0000000000001776
 11
703.37425335266539
 21
48.999484933331942
 31
0.0000000000001751
  0
LINE
  5
42B8
  8
0
  6
VERDECKT
 62
     1
 10
317.82629167338638
 20
-50.999999999995893
 30
0.0000000000000795
 11
316.99786454863602
 21
-50.9999999999959
 31
0.0000000000000793
  0
LINE
  5
42B9
  8
0
  6
VERDECKT
 62
     1
 10
317.82629167337711
 20
50.999999999996533
 30
0.0000000000000795
 11
316.99786454863602
 21
50.999999999996533
 31
0.0000000000000793
  0
LINE
  5
42BA
  8
0
  6
VERDECKT
 62
     1
 10
314.99786454862391
 20
125.0000000000009
 30
0.0000000000000853
 11
316.9256735781733
 21
125.00000000000109
 31
0.0000000000000857
  0
LINE
  5
42BB
  8
0
  6
VERDECKT
 62
     1
 10
314.99786454862391
 20
125.0000000000004
 30
0.0000000000000853
 11
314.99572566983471
 21
125.0000000000004
 31
0.0000000000000853
  0
LINE
  5
42BC
  8
0
  6
VERDECKT
 62
     1
 10
215.58578643762669
 20
124.9999999999997
 30
0.0000000000000542
 11
312.0
 21
124.9999999999997
 31
0.0000000000000826
  0
LINE
  5
42BD
  8
0
  6
VERDECKT
 62
     1
 10
215.0
 20
124.9999999999997
 30
0.0000000000000537
 11
215.58578643762669
 21
124.9999999999997
 31
0.0000000000000542
  0
LINE
  5
42BE
  8
0
  6
VERDECKT
 62
     1
 10
316.9979277213792
 20
-124.9999999999998
 30
0.0000000000000853
 11
316.92567357817012
 21
-124.9999999999998
 31
0.0000000000000853
  0
LINE
  5
42BF
  8
0
  6
VERDECKT
 62
     1
 10
316.9979277213792
 20
125.0000000000007
 30
0.0000000000000853
 11
316.9979277213792
 21
-124.9999999999996
 31
0.0000000000000853
  0
LINE
  5
42C0
  8
0
  6
VERDECKT
 62
     1
 10
316.9256735781733
 20
125.0000000000008
 30
0.0000000000000853
 11
316.9979277213792
 21
125.0000000000008
 31
0.0000000000000853
  0
LINE
  5
42C1
  8
0
  6
VERDECKT
 62
     1
 10
314.99786454864761
 20
-124.9999999999995
 30
0.0000000000000853
 11
314.99786454862391
 21
125.0000000000004
 31
0.0000000000000853
  0
LINE
  5
42C2
  8
0
  6
VERDECKT
 62
     1
 10
314.99786454864761
 20
-124.9999999999995
 30
0.0000000000000853
 11
314.99572566983471
 21
-124.9999999999995
 31
0.0000000000000853
  0
LINE
  5
42C3
  8
0
  6
VERDECKT
 62
     1
 10
316.92567357816978
 20
-124.9999999999995
 30
0.0000000000000853
 11
314.99786454864721
 21
-124.9999999999998
 31
0.0000000000000848
  0
LINE
  5
42C4
  8
0
  6
VERDECKT
 62
     1
 10
215.58578643762669
 20
-124.9999999999998
 30
0.0000000000000542
 11
215.0
 21
-124.9999999999998
 31
0.0000000000000537
  0
LINE
  5
42C5
  8
0
  6
VERDECKT
 62
     1
 10
312.0
 20
-124.9999999999998
 30
0.0000000000000711
 11
215.58578643762661
 21
-124.9999999999998
 31
0.0000000000000426
  0
CIRCLE
  5
42C6
  8
0
  6
VERDECKT
 62
     1
 10
-121.0
 20
-114.9999999999996
 30
0.0000000000000001
 40
2.399999999999999
210
0.0000000000000003
220
0.0
230
-1.0
  0
CIRCLE
  5
42C7
  8
0
  6
VERDECKT
 62
     1
 10
-121.0
 20
114.9999999999995
 30
0.0000000000000001
 40
2.399999999999999
210
0.0000000000000003
220
0.0
230
-1.0
  0
LINE
  5
42C8
  8
0
  6
VERDECKT
 62
     1
 10
127.0
 20
-121.9999999999998
 30
0.0000000000000318
 11
127.0
 21
-110.9999999999998
 31
0.0000000000000318
  0
ARC
  5
42C9
  8
0
  6
VERDECKT
 62
     1
 10
123.9999999999997
 20
-110.9999999999999
 30
0.0000000000000311
 40
3.0000000000002269
 50
0.0000000000021755
 51
89.999999999995666
  0
LINE
  5
42CA
  8
0
  6
VERDECKT
 62
     1
 10
124.0
 20
-107.9999999999998
 30
0.0000000000000311
 11
118.0
 21
-107.9999999999998
 31
0.0000000000000296
  0
ARC
  5
42CB
  8
0
  6
VERDECKT
 62
     1
 10
-118.0000000000002
 20
-104.9999999999997
 30
0.0
 40
3.0000000000001128
210
0.0000000000000003
220
0.0
230
-1.0
 50
270.0
 51
359.99999999999352
  0
LINE
  5
42CC
  8
0
  6
VERDECKT
 62
     1
 10
115.0
 20
-104.9999999999998
 30
0.0000000000000289
 11
115.0
 21
104.9999999999997
 31
0.0000000000000289
  0
ARC
  5
42CD
  8
0
  6
VERDECKT
 62
     1
 10
-118.0000000000002
 20
104.9999999999996
 30
0.0
 40
3.0000000000002269
210
0.0000000000000003
220
0.0
230
-1.0
 50
0.0000000000032569
 51
89.999999999995666
  0
LINE
  5
42CE
  8
0
  6
VERDECKT
 62
     1
 10
118.0
 20
107.9999999999997
 30
0.0000000000000295
 11
124.0
 21
107.9999999999997
 31
0.000000000000031
  0
ARC
  5
42CF
  8
0
  6
VERDECKT
 62
     1
 10
123.9999999999997
 20
110.9999999999999
 30
0.0000000000000311
 40
3.0000000000001701
 50
270.0
 51
359.9999999999925
  0
LINE
  5
42D0
  8
0
  6
VERDECKT
 62
     1
 10
127.0
 20
110.9999999999997
 30
0.0000000000000318
 11
127.0
 21
121.9999999999997
 31
0.0000000000000318
  0
ARC
  5
42D1
  8
0
  6
VERDECKT
 62
     1
 10
-214.99999999999949
 20
-122.0000000000001
 30
0.0000000000000001
 40
2.9999999999995932
210
0.0000000000000003
220
0.0
230
-1.0
 50
286.03010381483779
 51
0.0000000000032632
  0
POLYLINE
  8
0
  5
49FB
  62
1
  66
     1
 10
0.000000
 20
0.000000
 30
0.000000
  70
     8
  0
VERTEX
  8
0
  5
49FC
 10
215.000
 20
-125.000
 30
5.38000e-014
  70
    32
  0
VERTEX
  8
0
  5
49FD
 10
214.997
 20
-125.000
 30
5.38000e-014
  70
    32
  0
VERTEX
  8
0
  5
49FE
 10
214.994
 20
-125.000
 30
5.38000e-014
  70
    32
  0
VERTEX
  8
0
  5
49FF
 10
214.991
 20
-125.000
 30
5.38000e-014
  70
    32
  0
VERTEX
  8
0
  5
4A00
 10
214.987
 20
-125.000
 30
5.38000e-014
  70
    32
  0
VERTEX
  8
0
  5
4A01
 10
214.984
 20
-125.000
 30
5.38000e-014
  70
    32
  0
VERTEX
  8
0
  5
4A02
 10
214.981
 20
-125.000
 30
5.38000e-014
  70
    32
  0
VERTEX
  8
0
  5
4A03
 10
214.978
 20
-125.000
 30
5.38000e-014
  70
    32
  0
VERTEX
  8
0
  5
4A04
 10
214.975
 20
-125.000
 30
5.38000e-014
  70
    32
  0
VERTEX
  8
0
  5
4A05
 10
214.972
 20
-125.000
 30
5.38000e-014
  70
    32
  0
VERTEX
  8
0
  5
4A06
 10
214.969
 20
-125.000
 30
5.38000e-014
  70
    32
  0
VERTEX
  8
0
  5
4A07
 10
214.965
 20
-125.000
 30
5.38000e-014
  70
    32
  0
VERTEX
  8
0
  5
4A08
 10
214.962
 20
-125.000
 30
5.38000e-014
  70
    32
  0
VERTEX
  8
0
  5
4A09
 10
214.959
 20
-125.000
 30
5.38000e-014
  70
    32
  0
VERTEX
  8
0
  5
4A0A
 10
214.956
 20
-125.000
 30
5.38000e-014
  70
    32
  0
VERTEX
  8
0
  5
4A0B
 10
214.953
 20
-125.000
 30
5.38000e-014
  70
    32
  0
VERTEX
  8
0
  5
4A0C
 10
214.950
 20
-125.000
 30
5.38000e-014
  70
    32
  0
VERTEX
  8
0
  5
4A0D
 10
214.946
 20
-125.000
 30
5.38000e-014
  70
    32
  0
VERTEX
  8
0
  5
4A0E
 10
214.943
 20
-124.999
 30
5.38000e-014
  70
    32
  0
VERTEX
  8
0
  5
4A0F
 10
214.940
 20
-124.999
 30
5.38000e-014
  70
    32
  0
VERTEX
  8
0
  5
4A10
 10
214.937
 20
-124.999
 30
5.38000e-014
  70
    32
  0
VERTEX
  8
0
  5
4A11
 10
214.934
 20
-124.999
 30
5.38000e-014
  70
    32
  0
VERTEX
  8
0
  5
4A12
 10
214.930
 20
-124.999
 30
5.38000e-014
  70
    32
  0
VERTEX
  8
0
  5
4A13
 10
214.927
 20
-124.999
 30
5.38000e-014
  70
    32
  0
VERTEX
  8
0
  5
4A14
 10
214.924
 20
-124.999
 30
5.38000e-014
  70
    32
  0
VERTEX
  8
0
  5
4A15
 10
214.921
 20
-124.999
 30
5.38000e-014
  70
    32
  0
VERTEX
  8
0
  5
4A16
 10
214.918
 20
-124.999
 30
5.38000e-014
  70
    32
  0
VERTEX
  8
0
  5
4A17
 10
214.915
 20
-124.999
 30
5.38000e-014
  70
    32
  0
VERTEX
  8
0
  5
4A18
 10
214.911
 20
-124.999
 30
5.38000e-014
  70
    32
  0
VERTEX
  8
0
  5
4A19
 10
214.908
 20
-124.999
 30
5.38000e-014
  70
    32
  0
VERTEX
  8
0
  5
4A1A
 10
214.905
 20
-124.998
 30
5.38000e-014
  70
    32
  0
VERTEX
  8
0
  5
4A1B
 10
214.902
 20
-124.998
 30
5.38000e-014
  70
    32
  0
VERTEX
  8
0
  5
4A1C
 10
214.899
 20
-124.998
 30
5.38000e-014
  70
    32
  0
VERTEX
  8
0
  5
4A1D
 10
214.895
 20
-124.998
 30
5.38000e-014
  70
    32
  0
VERTEX
  8
0
  5
4A1E
 10
214.892
 20
-124.998
 30
5.38000e-014
  70
    32
  0
VERTEX
  8
0
  5
4A1F
 10
214.889
 20
-124.998
 30
5.38000e-014
  70
    32
  0
VERTEX
  8
0
  5
4A20
 10
214.886
 20
-124.998
 30
5.38000e-014
  70
    32
  0
VERTEX
  8
0
  5
4A21
 10
214.882
 20
-124.998
 30
5.37999e-014
  70
    32
  0
VERTEX
  8
0
  5
4A22
 10
214.879
 20
-124.998
 30
5.37999e-014
  70
    32
  0
VERTEX
  8
0
  5
4A23
 10
214.876
 20
-124.997
 30
5.37999e-014
  70
    32
  0
VERTEX
  8
0
  5
4A24
 10
214.873
 20
-124.997
 30
5.37999e-014
  70
    32
  0
VERTEX
  8
0
  5
4A25
 10
214.870
 20
-124.997
 30
5.37999e-014
  70
    32
  0
VERTEX
  8
0
  5
4A26
 10
214.866
 20
-124.997
 30
5.37998e-014
  70
    32
  0
VERTEX
  8
0
  5
4A27
 10
214.863
 20
-124.997
 30
5.37998e-014
  70
    32
  0
VERTEX
  8
0
  5
4A28
 10
214.860
 20
-124.997
 30
5.37998e-014
  70
    32
  0
VERTEX
  8
0
  5
4A29
 10
214.857
 20
-124.997
 30
5.37997e-014
  70
    32
  0
VERTEX
  8
0
  5
4A2A
 10
214.853
 20
-124.996
 30
5.37997e-014
  70
    32
  0
VERTEX
  8
0
  5
4A2B
 10
214.850
 20
-124.996
 30
5.37996e-014
  70
    32
  0
VERTEX
  8
0
  5
4A2C
 10
214.847
 20
-124.996
 30
5.37996e-014
  70
    32
  0
VERTEX
  8
0
  5
4A2D
 10
214.844
 20
-124.996
 30
5.37995e-014
  70
    32
  0
VERTEX
  8
0
  5
4A2E
 10
214.841
 20
-124.996
 30
5.37995e-014
  70
    32
  0
VERTEX
  8
0
  5
4A2F
 10
214.837
 20
-124.996
 30
5.37994e-014
  70
    32
  0
VERTEX
  8
0
  5
4A30
 10
214.834
 20
-124.995
 30
5.37993e-014
  70
    32
  0
VERTEX
  8
0
  5
4A31
 10
214.831
 20
-124.995
 30
5.37993e-014
  70
    32
  0
VERTEX
  8
0
  5
4A32
 10
214.828
 20
-124.995
 30
5.37992e-014
  70
    32
  0
VERTEX
  8
0
  5
4A33
 10
214.824
 20
-124.995
 30
5.37991e-014
  70
    32
  0
VERTEX
  8
0
  5
4A34
 10
214.821
 20
-124.995
 30
5.37990e-014
  70
    32
  0
VERTEX
  8
0
  5
4A35
 10
214.818
 20
-124.994
 30
5.37989e-014
  70
    32
  0
VERTEX
  8
0
  5
4A36
 10
214.815
 20
-124.994
 30
5.37988e-014
  70
    32
  0
VERTEX
  8
0
  5
4A37
 10
214.811
 20
-124.994
 30
5.37987e-014
  70
    32
  0
VERTEX
  8
0
  5
4A38
 10
214.808
 20
-124.994
 30
5.37986e-014
  70
    32
  0
VERTEX
  8
0
  5
4A39
 10
214.805
 20
-124.994
 30
5.37984e-014
  70
    32
  0
VERTEX
  8
0
  5
4A3A
 10
214.802
 20
-124.993
 30
5.37983e-014
  70
    32
  0
VERTEX
  8
0
  5
4A3B
 10
214.798
 20
-124.993
 30
5.37982e-014
  70
    32
  0
VERTEX
  8
0
  5
4A3C
 10
214.795
 20
-124.993
 30
5.37980e-014
  70
    32
  0
VERTEX
  8
0
  5
4A3D
 10
214.792
 20
-124.993
 30
5.37979e-014
  70
    32
  0
VERTEX
  8
0
  5
4A3E
 10
214.789
 20
-124.993
 30
5.37977e-014
  70
    32
  0
VERTEX
  8
0
  5
4A3F
 10
214.785
 20
-124.992
 30
5.37975e-014
  70
    32
  0
VERTEX
  8
0
  5
4A40
 10
214.782
 20
-124.992
 30
5.37973e-014
  70
    32
  0
VERTEX
  8
0
  5
4A41
 10
214.779
 20
-124.992
 30
5.37972e-014
  70
    32
  0
VERTEX
  8
0
  5
4A42
 10
214.775
 20
-124.992
 30
5.37970e-014
  70
    32
  0
VERTEX
  8
0
  5
4A43
 10
214.772
 20
-124.991
 30
5.37967e-014
  70
    32
  0
VERTEX
  8
0
  5
4A44
 10
214.769
 20
-124.991
 30
5.37965e-014
  70
    32
  0
VERTEX
  8
0
  5
4A45
 10
214.766
 20
-124.991
 30
5.37963e-014
  70
    32
  0
VERTEX
  8
0
  5
4A46
 10
214.762
 20
-124.991
 30
5.37961e-014
  70
    32
  0
VERTEX
  8
0
  5
4A47
 10
214.759
 20
-124.990
 30
5.37958e-014
  70
    32
  0
VERTEX
  8
0
  5
4A48
 10
214.756
 20
-124.990
 30
5.37956e-014
  70
    32
  0
VERTEX
  8
0
  5
4A49
 10
214.753
 20
-124.990
 30
5.37953e-014
  70
    32
  0
VERTEX
  8
0
  5
4A4A
 10
214.749
 20
-124.989
 30
5.37950e-014
  70
    32
  0
VERTEX
  8
0
  5
4A4B
 10
214.746
 20
-124.989
 30
5.37948e-014
  70
    32
  0
VERTEX
  8
0
  5
4A4C
 10
214.743
 20
-124.989
 30
5.37945e-014
  70
    32
  0
VERTEX
  8
0
  5
4A4D
 10
214.739
 20
-124.989
 30
5.37942e-014
  70
    32
  0
VERTEX
  8
0
  5
4A4E
 10
214.736
 20
-124.988
 30
5.37938e-014
  70
    32
  0
VERTEX
  8
0
  5
4A4F
 10
214.733
 20
-124.988
 30
5.37935e-014
  70
    32
  0
VERTEX
  8
0
  5
4A50
 10
214.730
 20
-124.988
 30
5.37932e-014
  70
    32
  0
VERTEX
  8
0
  5
4A51
 10
214.726
 20
-124.987
 30
5.37928e-014
  70
    32
  0
VERTEX
  8
0
  5
4A52
 10
214.723
 20
-124.987
 30
5.37925e-014
  70
    32
  0
VERTEX
  8
0
  5
4A53
 10
214.720
 20
-124.987
 30
5.37921e-014
  70
    32
  0
VERTEX
  8
0
  5
4A54
 10
214.716
 20
-124.987
 30
5.37917e-014
  70
    32
  0
VERTEX
  8
0
  5
4A55
 10
214.713
 20
-124.986
 30
5.37913e-014
  70
    32
  0
VERTEX
  8
0
  5
4A56
 10
214.710
 20
-124.986
 30
5.37909e-014
  70
    32
  0
VERTEX
  8
0
  5
4A57
 10
214.707
 20
-124.986
 30
5.37905e-014
  70
    32
  0
VERTEX
  8
0
  5
4A58
 10
214.703
 20
-124.985
 30
5.37900e-014
  70
    32
  0
VERTEX
  8
0
  5
4A59
 10
214.700
 20
-124.985
 30
5.37896e-014
  70
    32
  0
VERTEX
  8
0
  5
4A5A
 10
214.697
 20
-124.985
 30
5.37891e-014
  70
    32
  0
VERTEX
  8
0
  5
4A5B
 10
214.693
 20
-124.984
 30
5.37886e-014
  70
    32
  0
VERTEX
  8
0
  5
4A5C
 10
214.690
 20
-124.984
 30
5.37881e-014
  70
    32
  0
VERTEX
  8
0
  5
4A5D
 10
214.687
 20
-124.984
 30
5.37876e-014
  70
    32
  0
VERTEX
  8
0
  5
4A5E
 10
214.684
 20
-124.983
 30
5.37871e-014
  70
    32
  0
VERTEX
  8
0
  5
4A5F
 10
214.680
 20
-124.983
 30
5.37866e-014
  70
    32
  0
VERTEX
  8
0
  5
4A60
 10
214.677
 20
-124.983
 30
5.37860e-014
  70
    32
  0
VERTEX
  8
0
  5
4A61
 10
214.674
 20
-124.982
 30
5.37854e-014
  70
    32
  0
VERTEX
  8
0
  5
4A62
 10
214.670
 20
-124.982
 30
5.37849e-014
  70
    32
  0
VERTEX
  8
0
  5
4A63
 10
214.667
 20
-124.981
 30
5.37843e-014
  70
    32
  0
VERTEX
  8
0
  5
4A64
 10
214.664
 20
-124.981
 30
5.37837e-014
  70
    32
  0
VERTEX
  8
0
  5
4A65
 10
214.661
 20
-124.981
 30
5.37830e-014
  70
    32
  0
VERTEX
  8
0
  5
4A66
 10
214.657
 20
-124.980
 30
5.37824e-014
  70
    32
  0
VERTEX
  8
0
  5
4A67
 10
214.654
 20
-124.980
 30
5.37817e-014
  70
    32
  0
VERTEX
  8
0
  5
4A68
 10
214.651
 20
-124.980
 30
5.37811e-014
  70
    32
  0
VERTEX
  8
0
  5
4A69
 10
214.647
 20
-124.979
 30
5.37804e-014
  70
    32
  0
VERTEX
  8
0
  5
4A6A
 10
214.644
 20
-124.979
 30
5.37797e-014
  70
    32
  0
VERTEX
  8
0
  5
4A6B
 10
214.641
 20
-124.978
 30
5.37789e-014
  70
    32
  0
VERTEX
  8
0
  5
4A6C
 10
214.637
 20
-124.978
 30
5.37782e-014
  70
    32
  0
VERTEX
  8
0
  5
4A6D
 10
214.634
 20
-124.978
 30
5.37774e-014
  70
    32
  0
VERTEX
  8
0
  5
4A6E
 10
214.631
 20
-124.977
 30
5.37767e-014
  70
    32
  0
VERTEX
  8
0
  5
4A6F
 10
214.628
 20
-124.977
 30
5.37759e-014
  70
    32
  0
VERTEX
  8
0
  5
4A70
 10
214.624
 20
-124.976
 30
5.37751e-014
  70
    32
  0
VERTEX
  8
0
  5
4A71
 10
214.621
 20
-124.976
 30
5.37742e-014
  70
    32
  0
VERTEX
  8
0
  5
4A72
 10
214.618
 20
-124.976
 30
5.37734e-014
  70
    32
  0
VERTEX
  8
0
  5
4A73
 10
214.614
 20
-124.975
 30
5.37725e-014
  70
    32
  0
VERTEX
  8
0
  5
4A74
 10
214.611
 20
-124.975
 30
5.37717e-014
  70
    32
  0
VERTEX
  8
0
  5
4A75
 10
214.608
 20
-124.974
 30
5.37707e-014
  70
    32
  0
VERTEX
  8
0
  5
4A76
 10
214.604
 20
-124.974
 30
5.37698e-014
  70
    32
  0
VERTEX
  8
0
  5
4A77
 10
214.601
 20
-124.973
 30
5.37689e-014
  70
    32
  0
VERTEX
  8
0
  5
4A78
 10
214.598
 20
-124.973
 30
5.37679e-014
  70
    32
  0
VERTEX
  8
0
  5
4A79
 10
214.595
 20
-124.972
 30
5.37670e-014
  70
    32
  0
VERTEX
  8
0
  5
4A7A
 10
214.591
 20
-124.972
 30
5.37660e-014
  70
    32
  0
VERTEX
  8
0
  5
4A7B
 10
214.588
 20
-124.972
 30
5.37649e-014
  70
    32
  0
VERTEX
  8
0
  5
4A7C
 10
214.585
 20
-124.971
 30
5.37639e-014
  70
    32
  0
VERTEX
  8
0
  5
4A7D
 10
214.581
 20
-124.971
 30
5.37628e-014
  70
    32
  0
VERTEX
  8
0
  5
4A7E
 10
214.578
 20
-124.970
 30
5.37618e-014
  70
    32
  0
VERTEX
  8
0
  5
4A7F
 10
214.575
 20
-124.970
 30
5.37607e-014
  70
    32
  0
VERTEX
  8
0
  5
4A80
 10
214.571
 20
-124.969
 30
5.37595e-014
  70
    32
  0
VERTEX
  8
0
  5
4A81
 10
214.568
 20
-124.969
 30
5.37584e-014
  70
    32
  0
VERTEX
  8
0
  5
4A82
 10
214.565
 20
-124.968
 30
5.37572e-014
  70
    32
  0
VERTEX
  8
0
  5
4A83
 10
214.561
 20
-124.968
 30
5.37560e-014
  70
    32
  0
VERTEX
  8
0
  5
4A84
 10
214.558
 20
-124.967
 30
5.37548e-014
  70
    32
  0
VERTEX
  8
0
  5
4A85
 10
214.555
 20
-124.967
 30
5.37536e-014
  70
    32
  0
VERTEX
  8
0
  5
4A86
 10
214.552
 20
-124.966
 30
5.37524e-014
  70
    32
  0
VERTEX
  8
0
  5
4A87
 10
214.548
 20
-124.966
 30
5.37511e-014
  70
    32
  0
VERTEX
  8
0
  5
4A88
 10
214.545
 20
-124.965
 30
5.37498e-014
  70
    32
  0
VERTEX
  8
0
  5
4A89
 10
214.542
 20
-124.965
 30
5.37485e-014
  70
    32
  0
VERTEX
  8
0
  5
4A8A
 10
214.538
 20
-124.964
 30
5.37472e-014
  70
    32
  0
VERTEX
  8
0
  5
4A8B
 10
214.535
 20
-124.964
 30
5.37460e-014
  70
    32
  0
VERTEX
  8
0
  5
4A8C
 10
214.532
 20
-124.963
 30
5.37448e-014
  70
    32
  0
VERTEX
  8
0
  5
4A8D
 10
214.528
 20
-124.963
 30
5.37436e-014
  70
    32
  0
VERTEX
  8
0
  5
4A8E
 10
214.525
 20
-124.962
 30
5.37424e-014
  70
    32
  0
VERTEX
  8
0
  5
4A8F
 10
214.522
 20
-124.962
 30
5.37412e-014
  70
    32
  0
VERTEX
  8
0
  5
4A90
 10
214.519
 20
-124.961
 30
5.37401e-014
  70
    32
  0
VERTEX
  8
0
  5
4A91
 10
214.515
 20
-124.961
 30
5.37389e-014
  70
    32
  0
VERTEX
  8
0
  5
4A92
 10
214.512
 20
-124.960
 30
5.37378e-014
  70
    32
  0
VERTEX
  8
0
  5
4A93
 10
214.509
 20
-124.959
 30
5.37367e-014
  70
    32
  0
VERTEX
  8
0
  5
4A94
 10
214.505
 20
-124.959
 30
5.37357e-014
  70
    32
  0
VERTEX
  8
0
  5
4A95
 10
214.502
 20
-124.958
 30
5.37346e-014
  70
    32
  0
VERTEX
  8
0
  5
4A96
 10
214.499
 20
-124.958
 30
5.37335e-014
  70
    32
  0
VERTEX
  8
0
  5
4A97
 10
214.495
 20
-124.957
 30
5.37325e-014
  70
    32
  0
VERTEX
  8
0
  5
4A98
 10
214.492
 20
-124.957
 30
5.37315e-014
  70
    32
  0
VERTEX
  8
0
  5
4A99
 10
214.489
 20
-124.956
 30
5.37305e-014
  70
    32
  0
VERTEX
  8
0
  5
4A9A
 10
214.486
 20
-124.956
 30
5.37295e-014
  70
    32
  0
VERTEX
  8
0
  5
4A9B
 10
214.482
 20
-124.955
 30
5.37285e-014
  70
    32
  0
VERTEX
  8
0
  5
4A9C
 10
214.479
 20
-124.954
 30
5.37275e-014
  70
    32
  0
VERTEX
  8
0
  5
4A9D
 10
214.476
 20
-124.954
 30
5.37266e-014
  70
    32
  0
VERTEX
  8
0
  5
4A9E
 10
214.472
 20
-124.953
 30
5.37256e-014
  70
    32
  0
VERTEX
  8
0
  5
4A9F
 10
214.469
 20
-124.953
 30
5.37247e-014
  70
    32
  0
VERTEX
  8
0
  5
4AA0
 10
214.466
 20
-124.952
 30
5.37238e-014
  70
    32
  0
VERTEX
  8
0
  5
4AA1
 10
214.462
 20
-124.951
 30
5.37228e-014
  70
    32
  0
VERTEX
  8
0
  5
4AA2
 10
214.459
 20
-124.951
 30
5.37219e-014
  70
    32
  0
VERTEX
  8
0
  5
4AA3
 10
214.456
 20
-124.950
 30
5.37210e-014
  70
    32
  0
VERTEX
  8
0
  5
4AA4
 10
214.453
 20
-124.950
 30
5.37201e-014
  70
    32
  0
VERTEX
  8
0
  5
4AA5
 10
214.449
 20
-124.949
 30
5.37192e-014
  70
    32
  0
VERTEX
  8
0
  5
4AA6
 10
214.446
 20
-124.948
 30
5.37183e-014
  70
    32
  0
VERTEX
  8
0
  5
4AA7
 10
214.443
 20
-124.948
 30
5.37174e-014
  70
    32
  0
VERTEX
  8
0
  5
4AA8
 10
214.439
 20
-124.947
 30
5.37165e-014
  70
    32
  0
VERTEX
  8
0
  5
4AA9
 10
214.436
 20
-124.947
 30
5.37157e-014
  70
    32
  0
VERTEX
  8
0
  5
4AAA
 10
214.433
 20
-124.946
 30
5.37148e-014
  70
    32
  0
VERTEX
  8
0
  5
4AAB
 10
214.430
 20
-124.945
 30
5.37139e-014
  70
    32
  0
VERTEX
  8
0
  5
4AAC
 10
214.426
 20
-124.945
 30
5.37130e-014
  70
    32
  0
VERTEX
  8
0
  5
4AAD
 10
214.423
 20
-124.944
 30
5.37122e-014
  70
    32
  0
VERTEX
  8
0
  5
4AAE
 10
214.420
 20
-124.943
 30
5.37113e-014
  70
    32
  0
VERTEX
  8
0
  5
4AAF
 10
214.416
 20
-124.943
 30
5.37104e-014
  70
    32
  0
VERTEX
  8
0
  5
4AB0
 10
214.413
 20
-124.942
 30
5.37096e-014
  70
    32
  0
VERTEX
  8
0
  5
4AB1
 10
214.410
 20
-124.941
 30
5.37087e-014
  70
    32
  0
VERTEX
  8
0
  5
4AB2
 10
214.407
 20
-124.941
 30
5.37078e-014
  70
    32
  0
VERTEX
  8
0
  5
4AB3
 10
214.403
 20
-124.940
 30
5.37070e-014
  70
    32
  0
VERTEX
  8
0
  5
4AB4
 10
214.400
 20
-124.939
 30
5.37061e-014
  70
    32
  0
VERTEX
  8
0
  5
4AB5
 10
214.397
 20
-124.939
 30
5.37052e-014
  70
    32
  0
VERTEX
  8
0
  5
4AB6
 10
214.394
 20
-124.938
 30
5.37043e-014
  70
    32
  0
VERTEX
  8
0
  5
4AB7
 10
214.390
 20
-124.937
 30
5.37034e-014
  70
    32
  0
VERTEX
  8
0
  5
4AB8
 10
214.387
 20
-124.937
 30
5.37025e-014
  70
    32
  0
VERTEX
  8
0
  5
4AB9
 10
214.384
 20
-124.936
 30
5.37016e-014
  70
    32
  0
VERTEX
  8
0
  5
4ABA
 10
214.380
 20
-124.935
 30
5.37007e-014
  70
    32
  0
VERTEX
  8
0
  5
4ABB
 10
214.377
 20
-124.935
 30
5.36998e-014
  70
    32
  0
VERTEX
  8
0
  5
4ABC
 10
214.374
 20
-124.934
 30
5.36989e-014
  70
    32
  0
VERTEX
  8
0
  5
4ABD
 10
214.371
 20
-124.933
 30
5.36980e-014
  70
    32
  0
VERTEX
  8
0
  5
4ABE
 10
214.367
 20
-124.933
 30
5.36970e-014
  70
    32
  0
VERTEX
  8
0
  5
4ABF
 10
214.364
 20
-124.932
 30
5.36961e-014
  70
    32
  0
VERTEX
  8
0
  5
4AC0
 10
214.361
 20
-124.931
 30
5.36951e-014
  70
    32
  0
VERTEX
  8
0
  5
4AC1
 10
214.358
 20
-124.930
 30
5.36942e-014
  70
    32
  0
VERTEX
  8
0
  5
4AC2
 10
214.354
 20
-124.930
 30
5.36932e-014
  70
    32
  0
VERTEX
  8
0
  5
4AC3
 10
214.351
 20
-124.929
 30
5.36922e-014
  70
    32
  0
VERTEX
  8
0
  5
4AC4
 10
214.348
 20
-124.928
 30
5.36912e-014
  70
    32
  0
VERTEX
  8
0
  5
4AC5
 10
214.345
 20
-124.927
 30
5.36902e-014
  70
    32
  0
VERTEX
  8
0
  5
4AC6
 10
214.341
 20
-124.927
 30
5.36891e-014
  70
    32
  0
VERTEX
  8
0
  5
4AC7
 10
214.338
 20
-124.926
 30
5.36881e-014
  70
    32
  0
VERTEX
  8
0
  5
4AC8
 10
214.335
 20
-124.925
 30
5.36871e-014
  70
    32
  0
VERTEX
  8
0
  5
4AC9
 10
214.332
 20
-124.925
 30
5.36860e-014
  70
    32
  0
VERTEX
  8
0
  5
4ACA
 10
214.328
 20
-124.924
 30
5.36849e-014
  70
    32
  0
VERTEX
  8
0
  5
4ACB
 10
214.325
 20
-124.923
 30
5.36838e-014
  70
    32
  0
VERTEX
  8
0
  5
4ACC
 10
214.322
 20
-124.922
 30
5.36827e-014
  70
    32
  0
VERTEX
  8
0
  5
4ACD
 10
214.319
 20
-124.922
 30
5.36815e-014
  70
    32
  0
VERTEX
  8
0
  5
4ACE
 10
214.315
 20
-124.921
 30
5.36804e-014
  70
    32
  0
VERTEX
  8
0
  5
4ACF
 10
214.312
 20
-124.920
 30
5.36792e-014
  70
    32
  0
VERTEX
  8
0
  5
4AD0
 10
214.309
 20
-124.919
 30
5.36780e-014
  70
    32
  0
VERTEX
  8
0
  5
4AD1
 10
214.306
 20
-124.919
 30
5.36768e-014
  70
    32
  0
VERTEX
  8
0
  5
4AD2
 10
214.302
 20
-124.918
 30
5.36756e-014
  70
    32
  0
VERTEX
  8
0
  5
4AD3
 10
214.299
 20
-124.917
 30
5.36743e-014
  70
    32
  0
VERTEX
  8
0
  5
4AD4
 10
214.296
 20
-124.916
 30
5.36730e-014
  70
    32
  0
VERTEX
  8
0
  5
4AD5
 10
214.293
 20
-124.915
 30
5.36717e-014
  70
    32
  0
VERTEX
  8
0
  5
4AD6
 10
214.290
 20
-124.915
 30
5.36704e-014
  70
    32
  0
VERTEX
  8
0
  5
4AD7
 10
214.286
 20
-124.914
 30
5.36690e-014
  70
    32
  0
VERTEX
  8
0
  5
4AD8
 10
214.283
 20
-124.913
 30
5.36677e-014
  70
    32
  0
VERTEX
  8
0
  5
4AD9
 10
214.280
 20
-124.912
 30
5.36663e-014
  70
    32
  0
VERTEX
  8
0
  5
4ADA
 10
214.277
 20
-124.911
 30
5.36649e-014
  70
    32
  0
VERTEX
  8
0
  5
4ADB
 10
214.273
 20
-124.911
 30
5.36634e-014
  70
    32
  0
VERTEX
  8
0
  5
4ADC
 10
214.270
 20
-124.910
 30
5.36619e-014
  70
    32
  0
VERTEX
  8
0
  5
4ADD
 10
214.267
 20
-124.909
 30
5.36604e-014
  70
    32
  0
VERTEX
  8
0
  5
4ADE
 10
214.264
 20
-124.908
 30
5.36589e-014
  70
    32
  0
VERTEX
  8
0
  5
4ADF
 10
214.261
 20
-124.907
 30
5.36574e-014
  70
    32
  0
VERTEX
  8
0
  5
4AE0
 10
214.257
 20
-124.907
 30
5.36558e-014
  70
    32
  0
VERTEX
  8
0
  5
4AE1
 10
214.254
 20
-124.906
 30
5.36542e-014
  70
    32
  0
VERTEX
  8
0
  5
4AE2
 10
214.251
 20
-124.905
 30
5.36525e-014
  70
    32
  0
VERTEX
  8
0
  5
4AE3
 10
214.248
 20
-124.904
 30
5.36509e-014
  70
    32
  0
VERTEX
  8
0
  5
4AE4
 10
214.245
 20
-124.903
 30
5.36491e-014
  70
    32
  0
VERTEX
  8
0
  5
4AE5
 10
214.241
 20
-124.902
 30
5.36474e-014
  70
    32
  0
VERTEX
  8
0
  5
4AE6
 10
214.238
 20
-124.902
 30
5.36456e-014
  70
    32
  0
VERTEX
  8
0
  5
4AE7
 10
214.235
 20
-124.901
 30
5.36438e-014
  70
    32
  0
VERTEX
  8
0
  5
4AE8
 10
214.232
 20
-124.900
 30
5.36420e-014
  70
    32
  0
VERTEX
  8
0
  5
4AE9
 10
214.229
 20
-124.899
 30
5.36401e-014
  70
    32
  0
VERTEX
  8
0
  5
4AEA
 10
214.225
 20
-124.898
 30
5.36382e-014
  70
    32
  0
VERTEX
  8
0
  5
4AEB
 10
214.222
 20
-124.897
 30
5.36363e-014
  70
    32
  0
VERTEX
  8
0
  5
4AEC
 10
214.219
 20
-124.897
 30
5.36343e-014
  70
    32
  0
VERTEX
  8
0
  5
4AED
 10
214.216
 20
-124.896
 30
5.36323e-014
  70
    32
  0
VERTEX
  8
0
  5
4AEE
 10
214.213
 20
-124.895
 30
5.36303e-014
  70
    32
  0
VERTEX
  8
0
  5
4AEF
 10
214.209
 20
-124.894
 30
5.36282e-014
  70
    32
  0
VERTEX
  8
0
  5
4AF0
 10
214.206
 20
-124.893
 30
5.36261e-014
  70
    32
  0
VERTEX
  8
0
  5
4AF1
 10
214.203
 20
-124.892
 30
5.36239e-014
  70
    32
  0
VERTEX
  8
0
  5
4AF2
 10
214.200
 20
-124.891
 30
5.36217e-014
  70
    32
  0
VERTEX
  8
0
  5
4AF3
 10
214.197
 20
-124.890
 30
5.36194e-014
  70
    32
  0
VERTEX
  8
0
  5
4AF4
 10
214.194
 20
-124.890
 30
5.36172e-014
  70
    32
  0
VERTEX
  8
0
  5
4AF5
 10
214.190
 20
-124.889
 30
5.36148e-014
  70
    32
  0
VERTEX
  8
0
  5
4AF6
 10
214.187
 20
-124.888
 30
5.36125e-014
  70
    32
  0
VERTEX
  8
0
  5
4AF7
 10
214.184
 20
-124.887
 30
5.36101e-014
  70
    32
  0
VERTEX
  8
0
  5
4AF8
 10
214.181
 20
-124.886
 30
5.36076e-014
  70
    32
  0
VERTEX
  8
0
  5
4AF9
 10
214.178
 20
-124.885
 30
5.36051e-014
  70
    32
  0
VERTEX
  8
0
  5
4AFA
 10
214.175
 20
-124.884
 30
5.36026e-014
  70
    32
  0
VERTEX
  8
0
  5
4AFB
 10
214.172
 20
-124.883
 30
5.36000e-014
  70
    32
  0
SEQEND
  8
0
  5
4AFC
  0
ARC
  5
42D3
  8
0
  6
VERDECKT
 62
     1
 10
-130.0000000000002
 20
121.9999999999995
 30
-0.0000000000000001
 40
3.0000000000002269
210
0.0000000000000003
220
0.0
230
-1.0
 50
0.0000000000032569
 51
89.999999999995666
  0
LINE
  5
42D4
  8
0
  6
VERDECKT
 62
     1
 10
130.0
 20
124.9999999999997
 30
0.0000000000000326
 11
190.9999999999998
 21
124.9999999999997
 31
0.0000000000000479
  0
ARC
  5
42D5
  8
0
  6
VERDECKT
 62
     1
 10
-190.99999999999949
 20
121.9999999999995
 30
0.0000000000000001
 40
3.0000000000001701
210
0.0000000000000003
220
0.0
230
-1.0
 50
90.000000000004306
 51
179.9999999999967
  0
LINE
  5
42D6
  8
0
  6
VERDECKT
 62
     1
 10
194.0
 20
121.9999999999997
 30
0.0000000000000486
 11
194.0
 21
113.9999999999999
 31
0.0000000000000486
  0
ARC
  5
42D7
  8
0
  6
VERDECKT
 62
     1
 10
199.99999999999949
 20
113.9999999999999
 30
0.0000000000000502
 40
5.9999999999997717
 50
179.9999999999994
 51
270.0000000000021
  0
LINE
  5
42D8
  8
0
  6
VERDECKT
 62
     1
 10
199.9999999999998
 20
108.0
 30
0.0000000000000502
 11
205.9999999999998
 21
108.0
 31
0.0000000000000517
  0
ARC
  5
42D9
  8
0
  6
VERDECKT
 62
     1
 10
205.9999999999998
 20
114.0000000000003
 30
0.0000000000000515
 40
6.0000000000003553
 50
270.0
 51
359.99999999999869
  0
LINE
  5
42DA
  8
0
  6
VERDECKT
 62
     1
 10
211.9999999999998
 20
114.0000000000002
 30
0.0000000000000531
 11
212.0
 21
121.9999999999998
 31
0.0000000000000531
  0
ARC
  5
42DB
  8
0
  6
VERDECKT
 62
     1
 10
-130.0000000000002
 20
-121.9999999999997
 30
-0.0000000000000001
 40
3.0000000000001128
210
0.0000000000000003
220
0.0
230
-1.0
 50
270.0
 51
359.99999999999352
  0
LINE
  5
42DC
  8
0
  6
VERDECKT
 62
     1
 10
190.9999999999998
 20
-124.9999999999998
 30
0.0000000000000477
 11
130.0
 21
-124.9999999999998
 31
0.0000000000000325
  0
ARC
  5
42DD
  8
0
  6
VERDECKT
 62
     1
 10
-190.99999999999949
 20
-121.9999999999997
 30
0.0000000000000001
 40
3.0000000000002269
210
0.0000000000000003
220
0.0
230
-1.0
 50
180.0000000000021
 51
269.99999999999562
  0
LINE
  5
42DE
  8
0
  6
VERDECKT
 62
     1
 10
194.0
 20
-114.0000000000003
 30
0.0000000000000486
 11
194.0
 21
-121.9999999999998
 31
0.0000000000000486
  0
ARC
  5
42DF
  8
0
  6
VERDECKT
 62
     1
 10
199.99999999999949
 20
-113.9999999999998
 30
0.0000000000000502
 40
5.9999999999997717
 50
89.999999999997854
 51
180.00000000000429
  0
LINE
  5
42E0
  8
0
  6
VERDECKT
 62
     1
 10
205.9999999999998
 20
-108.0
 30
0.0000000000000515
 11
199.9999999999998
 21
-108.0
 31
0.00000000000005
  0
ARC
  5
42E1
  8
0
  6
VERDECKT
 62
     1
 10
206.0
 20
-113.9999999999998
 30
0.0000000000000515
 40
5.9999999999995444
 50
359.99999999999568
 51
90.000000000002174
  0
LINE
  5
42E2
  8
0
  6
VERDECKT
 62
     1
 10
212.0
 20
-121.9999999999999
 30
0.0000000000000531
 11
211.9999999999998
 21
-114.0000000000003
 31
0.0000000000000531
  0
POLYLINE
  8
0
  5
4AFD
  62
1
  66
     1
 10
0.000000
 20
0.000000
 30
0.000000
  70
     8
  0
VERTEX
  8
0
  5
4AFE
 10
214.172
 20
124.883
 30
5.36000e-014
  70
    32
  0
VERTEX
  8
0
  5
4AFF
 10
214.175
 20
124.884
 30
5.36026e-014
  70
    32
  0
VERTEX
  8
0
  5
4B00
 10
214.178
 20
124.885
 30
5.36051e-014
  70
    32
  0
VERTEX
  8
0
  5
4B01
 10
214.181
 20
124.886
 30
5.36076e-014
  70
    32
  0
VERTEX
  8
0
  5
4B02
 10
214.184
 20
124.887
 30
5.36101e-014
  70
    32
  0
VERTEX
  8
0
  5
4B03
 10
214.187
 20
124.888
 30
5.36125e-014
  70
    32
  0
VERTEX
  8
0
  5
4B04
 10
214.190
 20
124.889
 30
5.36148e-014
  70
    32
  0
VERTEX
  8
0
  5
4B05
 10
214.194
 20
124.890
 30
5.36172e-014
  70
    32
  0
VERTEX
  8
0
  5
4B06
 10
214.197
 20
124.890
 30
5.36194e-014
  70
    32
  0
VERTEX
  8
0
  5
4B07
 10
214.200
 20
124.891
 30
5.36217e-014
  70
    32
  0
VERTEX
  8
0
  5
4B08
 10
214.203
 20
124.892
 30
5.36239e-014
  70
    32
  0
VERTEX
  8
0
  5
4B09
 10
214.206
 20
124.893
 30
5.36261e-014
  70
    32
  0
VERTEX
  8
0
  5
4B0A
 10
214.209
 20
124.894
 30
5.36282e-014
  70
    32
  0
VERTEX
  8
0
  5
4B0B
 10
214.213
 20
124.895
 30
5.36303e-014
  70
    32
  0
VERTEX
  8
0
  5
4B0C
 10
214.216
 20
124.896
 30
5.36323e-014
  70
    32
  0
VERTEX
  8
0
  5
4B0D
 10
214.219
 20
124.897
 30
5.36343e-014
  70
    32
  0
VERTEX
  8
0
  5
4B0E
 10
214.222
 20
124.897
 30
5.36363e-014
  70
    32
  0
VERTEX
  8
0
  5
4B0F
 10
214.225
 20
124.898
 30
5.36382e-014
  70
    32
  0
VERTEX
  8
0
  5
4B10
 10
214.229
 20
124.899
 30
5.36401e-014
  70
    32
  0
VERTEX
  8
0
  5
4B11
 10
214.232
 20
124.900
 30
5.36420e-014
  70
    32
  0
VERTEX
  8
0
  5
4B12
 10
214.235
 20
124.901
 30
5.36438e-014
  70
    32
  0
VERTEX
  8
0
  5
4B13
 10
214.238
 20
124.902
 30
5.36456e-014
  70
    32
  0
VERTEX
  8
0
  5
4B14
 10
214.241
 20
124.902
 30
5.36474e-014
  70
    32
  0
VERTEX
  8
0
  5
4B15
 10
214.245
 20
124.903
 30
5.36491e-014
  70
    32
  0
VERTEX
  8
0
  5
4B16
 10
214.248
 20
124.904
 30
5.36509e-014
  70
    32
  0
VERTEX
  8
0
  5
4B17
 10
214.251
 20
124.905
 30
5.36525e-014
  70
    32
  0
VERTEX
  8
0
  5
4B18
 10
214.254
 20
124.906
 30
5.36542e-014
  70
    32
  0
VERTEX
  8
0
  5
4B19
 10
214.257
 20
124.907
 30
5.36558e-014
  70
    32
  0
VERTEX
  8
0
  5
4B1A
 10
214.261
 20
124.907
 30
5.36574e-014
  70
    32
  0
VERTEX
  8
0
  5
4B1B
 10
214.264
 20
124.908
 30
5.36589e-014
  70
    32
  0
VERTEX
  8
0
  5
4B1C
 10
214.267
 20
124.909
 30
5.36604e-014
  70
    32
  0
VERTEX
  8
0
  5
4B1D
 10
214.270
 20
124.910
 30
5.36619e-014
  70
    32
  0
VERTEX
  8
0
  5
4B1E
 10
214.273
 20
124.911
 30
5.36634e-014
  70
    32
  0
VERTEX
  8
0
  5
4B1F
 10
214.277
 20
124.911
 30
5.36649e-014
  70
    32
  0
VERTEX
  8
0
  5
4B20
 10
214.280
 20
124.912
 30
5.36663e-014
  70
    32
  0
VERTEX
  8
0
  5
4B21
 10
214.283
 20
124.913
 30
5.36677e-014
  70
    32
  0
VERTEX
  8
0
  5
4B22
 10
214.286
 20
124.914
 30
5.36690e-014
  70
    32
  0
VERTEX
  8
0
  5
4B23
 10
214.290
 20
124.915
 30
5.36704e-014
  70
    32
  0
VERTEX
  8
0
  5
4B24
 10
214.293
 20
124.915
 30
5.36717e-014
  70
    32
  0
VERTEX
  8
0
  5
4B25
 10
214.296
 20
124.916
 30
5.36730e-014
  70
    32
  0
VERTEX
  8
0
  5
4B26
 10
214.299
 20
124.917
 30
5.36743e-014
  70
    32
  0
VERTEX
  8
0
  5
4B27
 10
214.302
 20
124.918
 30
5.36756e-014
  70
    32
  0
VERTEX
  8
0
  5
4B28
 10
214.306
 20
124.919
 30
5.36768e-014
  70
    32
  0
VERTEX
  8
0
  5
4B29
 10
214.309
 20
124.919
 30
5.36780e-014
  70
    32
  0
VERTEX
  8
0
  5
4B2A
 10
214.312
 20
124.920
 30
5.36792e-014
  70
    32
  0
VERTEX
  8
0
  5
4B2B
 10
214.315
 20
124.921
 30
5.36804e-014
  70
    32
  0
VERTEX
  8
0
  5
4B2C
 10
214.319
 20
124.922
 30
5.36815e-014
  70
    32
  0
VERTEX
  8
0
  5
4B2D
 10
214.322
 20
124.922
 30
5.36827e-014
  70
    32
  0
VERTEX
  8
0
  5
4B2E
 10
214.325
 20
124.923
 30
5.36838e-014
  70
    32
  0
VERTEX
  8
0
  5
4B2F
 10
214.328
 20
124.924
 30
5.36849e-014
  70
    32
  0
VERTEX
  8
0
  5
4B30
 10
214.332
 20
124.925
 30
5.36860e-014
  70
    32
  0
VERTEX
  8
0
  5
4B31
 10
214.335
 20
124.925
 30
5.36871e-014
  70
    32
  0
VERTEX
  8
0
  5
4B32
 10
214.338
 20
124.926
 30
5.36881e-014
  70
    32
  0
VERTEX
  8
0
  5
4B33
 10
214.341
 20
124.927
 30
5.36891e-014
  70
    32
  0
VERTEX
  8
0
  5
4B34
 10
214.345
 20
124.927
 30
5.36902e-014
  70
    32
  0
VERTEX
  8
0
  5
4B35
 10
214.348
 20
124.928
 30
5.36912e-014
  70
    32
  0
VERTEX
  8
0
  5
4B36
 10
214.351
 20
124.929
 30
5.36922e-014
  70
    32
  0
VERTEX
  8
0
  5
4B37
 10
214.354
 20
124.930
 30
5.36932e-014
  70
    32
  0
VERTEX
  8
0
  5
4B38
 10
214.358
 20
124.930
 30
5.36942e-014
  70
    32
  0
VERTEX
  8
0
  5
4B39
 10
214.361
 20
124.931
 30
5.36951e-014
  70
    32
  0
VERTEX
  8
0
  5
4B3A
 10
214.364
 20
124.932
 30
5.36961e-014
  70
    32
  0
VERTEX
  8
0
  5
4B3B
 10
214.367
 20
124.933
 30
5.36970e-014
  70
    32
  0
VERTEX
  8
0
  5
4B3C
 10
214.371
 20
124.933
 30
5.36980e-014
  70
    32
  0
VERTEX
  8
0
  5
4B3D
 10
214.374
 20
124.934
 30
5.36989e-014
  70
    32
  0
VERTEX
  8
0
  5
4B3E
 10
214.377
 20
124.935
 30
5.36998e-014
  70
    32
  0
VERTEX
  8
0
  5
4B3F
 10
214.380
 20
124.935
 30
5.37007e-014
  70
    32
  0
VERTEX
  8
0
  5
4B40
 10
214.384
 20
124.936
 30
5.37016e-014
  70
    32
  0
VERTEX
  8
0
  5
4B41
 10
214.387
 20
124.937
 30
5.37025e-014
  70
    32
  0
VERTEX
  8
0
  5
4B42
 10
214.390
 20
124.937
 30
5.37034e-014
  70
    32
  0
VERTEX
  8
0
  5
4B43
 10
214.394
 20
124.938
 30
5.37043e-014
  70
    32
  0
VERTEX
  8
0
  5
4B44
 10
214.397
 20
124.939
 30
5.37052e-014
  70
    32
  0
VERTEX
  8
0
  5
4B45
 10
214.400
 20
124.939
 30
5.37061e-014
  70
    32
  0
VERTEX
  8
0
  5
4B46
 10
214.403
 20
124.940
 30
5.37070e-014
  70
    32
  0
VERTEX
  8
0
  5
4B47
 10
214.407
 20
124.941
 30
5.37078e-014
  70
    32
  0
VERTEX
  8
0
  5
4B48
 10
214.410
 20
124.941
 30
5.37087e-014
  70
    32
  0
VERTEX
  8
0
  5
4B49
 10
214.413
 20
124.942
 30
5.37096e-014
  70
    32
  0
VERTEX
  8
0
  5
4B4A
 10
214.416
 20
124.943
 30
5.37104e-014
  70
    32
  0
VERTEX
  8
0
  5
4B4B
 10
214.420
 20
124.943
 30
5.37113e-014
  70
    32
  0
VERTEX
  8
0
  5
4B4C
 10
214.423
 20
124.944
 30
5.37122e-014
  70
    32
  0
VERTEX
  8
0
  5
4B4D
 10
214.426
 20
124.945
 30
5.37130e-014
  70
    32
  0
VERTEX
  8
0
  5
4B4E
 10
214.430
 20
124.945
 30
5.37139e-014
  70
    32
  0
VERTEX
  8
0
  5
4B4F
 10
214.433
 20
124.946
 30
5.37148e-014
  70
    32
  0
VERTEX
  8
0
  5
4B50
 10
214.436
 20
124.947
 30
5.37157e-014
  70
    32
  0
VERTEX
  8
0
  5
4B51
 10
214.439
 20
124.947
 30
5.37165e-014
  70
    32
  0
VERTEX
  8
0
  5
4B52
 10
214.443
 20
124.948
 30
5.37174e-014
  70
    32
  0
VERTEX
  8
0
  5
4B53
 10
214.446
 20
124.948
 30
5.37183e-014
  70
    32
  0
VERTEX
  8
0
  5
4B54
 10
214.449
 20
124.949
 30
5.37192e-014
  70
    32
  0
VERTEX
  8
0
  5
4B55
 10
214.453
 20
124.950
 30
5.37201e-014
  70
    32
  0
VERTEX
  8
0
  5
4B56
 10
214.456
 20
124.950
 30
5.37210e-014
  70
    32
  0
VERTEX
  8
0
  5
4B57
 10
214.459
 20
124.951
 30
5.37219e-014
  70
    32
  0
VERTEX
  8
0
  5
4B58
 10
214.462
 20
124.951
 30
5.37228e-014
  70
    32
  0
VERTEX
  8
0
  5
4B59
 10
214.466
 20
124.952
 30
5.37238e-014
  70
    32
  0
VERTEX
  8
0
  5
4B5A
 10
214.469
 20
124.953
 30
5.37247e-014
  70
    32
  0
VERTEX
  8
0
  5
4B5B
 10
214.472
 20
124.953
 30
5.37256e-014
  70
    32
  0
VERTEX
  8
0
  5
4B5C
 10
214.476
 20
124.954
 30
5.37266e-014
  70
    32
  0
VERTEX
  8
0
  5
4B5D
 10
214.479
 20
124.954
 30
5.37275e-014
  70
    32
  0
VERTEX
  8
0
  5
4B5E
 10
214.482
 20
124.955
 30
5.37285e-014
  70
    32
  0
VERTEX
  8
0
  5
4B5F
 10
214.486
 20
124.956
 30
5.37295e-014
  70
    32
  0
VERTEX
  8
0
  5
4B60
 10
214.489
 20
124.956
 30
5.37305e-014
  70
    32
  0
VERTEX
  8
0
  5
4B61
 10
214.492
 20
124.957
 30
5.37315e-014
  70
    32
  0
VERTEX
  8
0
  5
4B62
 10
214.495
 20
124.957
 30
5.37325e-014
  70
    32
  0
VERTEX
  8
0
  5
4B63
 10
214.499
 20
124.958
 30
5.37335e-014
  70
    32
  0
VERTEX
  8
0
  5
4B64
 10
214.502
 20
124.958
 30
5.37346e-014
  70
    32
  0
VERTEX
  8
0
  5
4B65
 10
214.505
 20
124.959
 30
5.37357e-014
  70
    32
  0
VERTEX
  8
0
  5
4B66
 10
214.509
 20
124.959
 30
5.37367e-014
  70
    32
  0
VERTEX
  8
0
  5
4B67
 10
214.512
 20
124.960
 30
5.37378e-014
  70
    32
  0
VERTEX
  8
0
  5
4B68
 10
214.515
 20
124.961
 30
5.37389e-014
  70
    32
  0
VERTEX
  8
0
  5
4B69
 10
214.519
 20
124.961
 30
5.37401e-014
  70
    32
  0
VERTEX
  8
0
  5
4B6A
 10
214.522
 20
124.962
 30
5.37412e-014
  70
    32
  0
VERTEX
  8
0
  5
4B6B
 10
214.525
 20
124.962
 30
5.37424e-014
  70
    32
  0
VERTEX
  8
0
  5
4B6C
 10
214.528
 20
124.963
 30
5.37436e-014
  70
    32
  0
VERTEX
  8
0
  5
4B6D
 10
214.532
 20
124.963
 30
5.37448e-014
  70
    32
  0
VERTEX
  8
0
  5
4B6E
 10
214.535
 20
124.964
 30
5.37460e-014
  70
    32
  0
VERTEX
  8
0
  5
4B6F
 10
214.538
 20
124.964
 30
5.37472e-014
  70
    32
  0
VERTEX
  8
0
  5
4B70
 10
214.542
 20
124.965
 30
5.37485e-014
  70
    32
  0
VERTEX
  8
0
  5
4B71
 10
214.545
 20
124.965
 30
5.37498e-014
  70
    32
  0
VERTEX
  8
0
  5
4B72
 10
214.548
 20
124.966
 30
5.37511e-014
  70
    32
  0
VERTEX
  8
0
  5
4B73
 10
214.552
 20
124.966
 30
5.37524e-014
  70
    32
  0
VERTEX
  8
0
  5
4B74
 10
214.555
 20
124.967
 30
5.37536e-014
  70
    32
  0
VERTEX
  8
0
  5
4B75
 10
214.558
 20
124.967
 30
5.37548e-014
  70
    32
  0
VERTEX
  8
0
  5
4B76
 10
214.561
 20
124.968
 30
5.37560e-014
  70
    32
  0
VERTEX
  8
0
  5
4B77
 10
214.565
 20
124.968
 30
5.37572e-014
  70
    32
  0
VERTEX
  8
0
  5
4B78
 10
214.568
 20
124.969
 30
5.37584e-014
  70
    32
  0
VERTEX
  8
0
  5
4B79
 10
214.571
 20
124.969
 30
5.37595e-014
  70
    32
  0
VERTEX
  8
0
  5
4B7A
 10
214.575
 20
124.970
 30
5.37607e-014
  70
    32
  0
VERTEX
  8
0
  5
4B7B
 10
214.578
 20
124.970
 30
5.37618e-014
  70
    32
  0
VERTEX
  8
0
  5
4B7C
 10
214.581
 20
124.971
 30
5.37628e-014
  70
    32
  0
VERTEX
  8
0
  5
4B7D
 10
214.585
 20
124.971
 30
5.37639e-014
  70
    32
  0
VERTEX
  8
0
  5
4B7E
 10
214.588
 20
124.972
 30
5.37649e-014
  70
    32
  0
VERTEX
  8
0
  5
4B7F
 10
214.591
 20
124.972
 30
5.37660e-014
  70
    32
  0
VERTEX
  8
0
  5
4B80
 10
214.595
 20
124.972
 30
5.37670e-014
  70
    32
  0
VERTEX
  8
0
  5
4B81
 10
214.598
 20
124.973
 30
5.37679e-014
  70
    32
  0
VERTEX
  8
0
  5
4B82
 10
214.601
 20
124.973
 30
5.37689e-014
  70
    32
  0
VERTEX
  8
0
  5
4B83
 10
214.604
 20
124.974
 30
5.37698e-014
  70
    32
  0
VERTEX
  8
0
  5
4B84
 10
214.608
 20
124.974
 30
5.37707e-014
  70
    32
  0
VERTEX
  8
0
  5
4B85
 10
214.611
 20
124.975
 30
5.37717e-014
  70
    32
  0
VERTEX
  8
0
  5
4B86
 10
214.614
 20
124.975
 30
5.37725e-014
  70
    32
  0
VERTEX
  8
0
  5
4B87
 10
214.618
 20
124.976
 30
5.37734e-014
  70
    32
  0
VERTEX
  8
0
  5
4B88
 10
214.621
 20
124.976
 30
5.37742e-014
  70
    32
  0
VERTEX
  8
0
  5
4B89
 10
214.624
 20
124.976
 30
5.37751e-014
  70
    32
  0
VERTEX
  8
0
  5
4B8A
 10
214.628
 20
124.977
 30
5.37759e-014
  70
    32
  0
VERTEX
  8
0
  5
4B8B
 10
214.631
 20
124.977
 30
5.37767e-014
  70
    32
  0
VERTEX
  8
0
  5
4B8C
 10
214.634
 20
124.978
 30
5.37774e-014
  70
    32
  0
VERTEX
  8
0
  5
4B8D
 10
214.637
 20
124.978
 30
5.37782e-014
  70
    32
  0
VERTEX
  8
0
  5
4B8E
 10
214.641
 20
124.978
 30
5.37789e-014
  70
    32
  0
VERTEX
  8
0
  5
4B8F
 10
214.644
 20
124.979
 30
5.37797e-014
  70
    32
  0
VERTEX
  8
0
  5
4B90
 10
214.647
 20
124.979
 30
5.37804e-014
  70
    32
  0
VERTEX
  8
0
  5
4B91
 10
214.651
 20
124.980
 30
5.37811e-014
  70
    32
  0
VERTEX
  8
0
  5
4B92
 10
214.654
 20
124.980
 30
5.37817e-014
  70
    32
  0
VERTEX
  8
0
  5
4B93
 10
214.657
 20
124.980
 30
5.37824e-014
  70
    32
  0
VERTEX
  8
0
  5
4B94
 10
214.661
 20
124.981
 30
5.37830e-014
  70
    32
  0
VERTEX
  8
0
  5
4B95
 10
214.664
 20
124.981
 30
5.37837e-014
  70
    32
  0
VERTEX
  8
0
  5
4B96
 10
214.667
 20
124.981
 30
5.37843e-014
  70
    32
  0
VERTEX
  8
0
  5
4B97
 10
214.670
 20
124.982
 30
5.37849e-014
  70
    32
  0
VERTEX
  8
0
  5
4B98
 10
214.674
 20
124.982
 30
5.37854e-014
  70
    32
  0
VERTEX
  8
0
  5
4B99
 10
214.677
 20
124.983
 30
5.37860e-014
  70
    32
  0
VERTEX
  8
0
  5
4B9A
 10
214.680
 20
124.983
 30
5.37866e-014
  70
    32
  0
VERTEX
  8
0
  5
4B9B
 10
214.684
 20
124.983
 30
5.37871e-014
  70
    32
  0
VERTEX
  8
0
  5
4B9C
 10
214.687
 20
124.984
 30
5.37876e-014
  70
    32
  0
VERTEX
  8
0
  5
4B9D
 10
214.690
 20
124.984
 30
5.37881e-014
  70
    32
  0
VERTEX
  8
0
  5
4B9E
 10
214.693
 20
124.984
 30
5.37886e-014
  70
    32
  0
VERTEX
  8
0
  5
4B9F
 10
214.697
 20
124.985
 30
5.37891e-014
  70
    32
  0
VERTEX
  8
0
  5
4BA0
 10
214.700
 20
124.985
 30
5.37896e-014
  70
    32
  0
VERTEX
  8
0
  5
4BA1
 10
214.703
 20
124.985
 30
5.37900e-014
  70
    32
  0
VERTEX
  8
0
  5
4BA2
 10
214.707
 20
124.986
 30
5.37905e-014
  70
    32
  0
VERTEX
  8
0
  5
4BA3
 10
214.710
 20
124.986
 30
5.37909e-014
  70
    32
  0
VERTEX
  8
0
  5
4BA4
 10
214.713
 20
124.986
 30
5.37913e-014
  70
    32
  0
VERTEX
  8
0
  5
4BA5
 10
214.716
 20
124.987
 30
5.37917e-014
  70
    32
  0
VERTEX
  8
0
  5
4BA6
 10
214.720
 20
124.987
 30
5.37921e-014
  70
    32
  0
VERTEX
  8
0
  5
4BA7
 10
214.723
 20
124.987
 30
5.37925e-014
  70
    32
  0
VERTEX
  8
0
  5
4BA8
 10
214.726
 20
124.987
 30
5.37928e-014
  70
    32
  0
VERTEX
  8
0
  5
4BA9
 10
214.730
 20
124.988
 30
5.37932e-014
  70
    32
  0
VERTEX
  8
0
  5
4BAA
 10
214.733
 20
124.988
 30
5.37935e-014
  70
    32
  0
VERTEX
  8
0
  5
4BAB
 10
214.736
 20
124.988
 30
5.37938e-014
  70
    32
  0
VERTEX
  8
0
  5
4BAC
 10
214.739
 20
124.989
 30
5.37942e-014
  70
    32
  0
VERTEX
  8
0
  5
4BAD
 10
214.743
 20
124.989
 30
5.37945e-014
  70
    32
  0
VERTEX
  8
0
  5
4BAE
 10
214.746
 20
124.989
 30
5.37948e-014
  70
    32
  0
VERTEX
  8
0
  5
4BAF
 10
214.749
 20
124.989
 30
5.37950e-014
  70
    32
  0
VERTEX
  8
0
  5
4BB0
 10
214.753
 20
124.990
 30
5.37953e-014
  70
    32
  0
VERTEX
  8
0
  5
4BB1
 10
214.756
 20
124.990
 30
5.37956e-014
  70
    32
  0
VERTEX
  8
0
  5
4BB2
 10
214.759
 20
124.990
 30
5.37958e-014
  70
    32
  0
VERTEX
  8
0
  5
4BB3
 10
214.762
 20
124.991
 30
5.37961e-014
  70
    32
  0
VERTEX
  8
0
  5
4BB4
 10
214.766
 20
124.991
 30
5.37963e-014
  70
    32
  0
VERTEX
  8
0
  5
4BB5
 10
214.769
 20
124.991
 30
5.37965e-014
  70
    32
  0
VERTEX
  8
0
  5
4BB6
 10
214.772
 20
124.991
 30
5.37967e-014
  70
    32
  0
VERTEX
  8
0
  5
4BB7
 10
214.775
 20
124.992
 30
5.37970e-014
  70
    32
  0
VERTEX
  8
0
  5
4BB8
 10
214.779
 20
124.992
 30
5.37972e-014
  70
    32
  0
VERTEX
  8
0
  5
4BB9
 10
214.782
 20
124.992
 30
5.37973e-014
  70
    32
  0
VERTEX
  8
0
  5
4BBA
 10
214.785
 20
124.992
 30
5.37975e-014
  70
    32
  0
VERTEX
  8
0
  5
4BBB
 10
214.789
 20
124.993
 30
5.37977e-014
  70
    32
  0
VERTEX
  8
0
  5
4BBC
 10
214.792
 20
124.993
 30
5.37979e-014
  70
    32
  0
VERTEX
  8
0
  5
4BBD
 10
214.795
 20
124.993
 30
5.37980e-014
  70
    32
  0
VERTEX
  8
0
  5
4BBE
 10
214.798
 20
124.993
 30
5.37982e-014
  70
    32
  0
VERTEX
  8
0
  5
4BBF
 10
214.802
 20
124.993
 30
5.37983e-014
  70
    32
  0
VERTEX
  8
0
  5
4BC0
 10
214.805
 20
124.994
 30
5.37984e-014
  70
    32
  0
VERTEX
  8
0
  5
4BC1
 10
214.808
 20
124.994
 30
5.37986e-014
  70
    32
  0
VERTEX
  8
0
  5
4BC2
 10
214.811
 20
124.994
 30
5.37987e-014
  70
    32
  0
VERTEX
  8
0
  5
4BC3
 10
214.815
 20
124.994
 30
5.37988e-014
  70
    32
  0
VERTEX
  8
0
  5
4BC4
 10
214.818
 20
124.994
 30
5.37989e-014
  70
    32
  0
VERTEX
  8
0
  5
4BC5
 10
214.821
 20
124.995
 30
5.37990e-014
  70
    32
  0
VERTEX
  8
0
  5
4BC6
 10
214.824
 20
124.995
 30
5.37991e-014
  70
    32
  0
VERTEX
  8
0
  5
4BC7
 10
214.828
 20
124.995
 30
5.37992e-014
  70
    32
  0
VERTEX
  8
0
  5
4BC8
 10
214.831
 20
124.995
 30
5.37993e-014
  70
    32
  0
VERTEX
  8
0
  5
4BC9
 10
214.834
 20
124.995
 30
5.37993e-014
  70
    32
  0
VERTEX
  8
0
  5
4BCA
 10
214.837
 20
124.996
 30
5.37994e-014
  70
    32
  0
VERTEX
  8
0
  5
4BCB
 10
214.841
 20
124.996
 30
5.37995e-014
  70
    32
  0
VERTEX
  8
0
  5
4BCC
 10
214.844
 20
124.996
 30
5.37995e-014
  70
    32
  0
VERTEX
  8
0
  5
4BCD
 10
214.847
 20
124.996
 30
5.37996e-014
  70
    32
  0
VERTEX
  8
0
  5
4BCE
 10
214.850
 20
124.996
 30
5.37996e-014
  70
    32
  0
VERTEX
  8
0
  5
4BCF
 10
214.853
 20
124.996
 30
5.37997e-014
  70
    32
  0
VERTEX
  8
0
  5
4BD0
 10
214.857
 20
124.997
 30
5.37997e-014
  70
    32
  0
VERTEX
  8
0
  5
4BD1
 10
214.860
 20
124.997
 30
5.37998e-014
  70
    32
  0
VERTEX
  8
0
  5
4BD2
 10
214.863
 20
124.997
 30
5.37998e-014
  70
    32
  0
VERTEX
  8
0
  5
4BD3
 10
214.866
 20
124.997
 30
5.37998e-014
  70
    32
  0
VERTEX
  8
0
  5
4BD4
 10
214.870
 20
124.997
 30
5.37999e-014
  70
    32
  0
VERTEX
  8
0
  5
4BD5
 10
214.873
 20
124.997
 30
5.37999e-014
  70
    32
  0
VERTEX
  8
0
  5
4BD6
 10
214.876
 20
124.997
 30
5.37999e-014
  70
    32
  0
VERTEX
  8
0
  5
4BD7
 10
214.879
 20
124.998
 30
5.37999e-014
  70
    32
  0
VERTEX
  8
0
  5
4BD8
 10
214.882
 20
124.998
 30
5.37999e-014
  70
    32
  0
VERTEX
  8
0
  5
4BD9
 10
214.886
 20
124.998
 30
5.38000e-014
  70
    32
  0
VERTEX
  8
0
  5
4BDA
 10
214.889
 20
124.998
 30
5.38000e-014
  70
    32
  0
VERTEX
  8
0
  5
4BDB
 10
214.892
 20
124.998
 30
5.38000e-014
  70
    32
  0
VERTEX
  8
0
  5
4BDC
 10
214.895
 20
124.998
 30
5.38000e-014
  70
    32
  0
VERTEX
  8
0
  5
4BDD
 10
214.899
 20
124.998
 30
5.38000e-014
  70
    32
  0
VERTEX
  8
0
  5
4BDE
 10
214.902
 20
124.998
 30
5.38000e-014
  70
    32
  0
VERTEX
  8
0
  5
4BDF
 10
214.905
 20
124.998
 30
5.38000e-014
  70
    32
  0
VERTEX
  8
0
  5
4BE0
 10
214.908
 20
124.999
 30
5.38000e-014
  70
    32
  0
VERTEX
  8
0
  5
4BE1
 10
214.911
 20
124.999
 30
5.38000e-014
  70
    32
  0
VERTEX
  8
0
  5
4BE2
 10
214.915
 20
124.999
 30
5.38000e-014
  70
    32
  0
VERTEX
  8
0
  5
4BE3
 10
214.918
 20
124.999
 30
5.38000e-014
  70
    32
  0
VERTEX
  8
0
  5
4BE4
 10
214.921
 20
124.999
 30
5.38000e-014
  70
    32
  0
VERTEX
  8
0
  5
4BE5
 10
214.924
 20
124.999
 30
5.38000e-014
  70
    32
  0
VERTEX
  8
0
  5
4BE6
 10
214.927
 20
124.999
 30
5.38000e-014
  70
    32
  0
VERTEX
  8
0
  5
4BE7
 10
214.930
 20
124.999
 30
5.38000e-014
  70
    32
  0
VERTEX
  8
0
  5
4BE8
 10
214.934
 20
124.999
 30
5.38000e-014
  70
    32
  0
VERTEX
  8
0
  5
4BE9
 10
214.937
 20
124.999
 30
5.38000e-014
  70
    32
  0
VERTEX
  8
0
  5
4BEA
 10
214.940
 20
124.999
 30
5.38000e-014
  70
    32
  0
VERTEX
  8
0
  5
4BEB
 10
214.943
 20
124.999
 30
5.38000e-014
  70
    32
  0
VERTEX
  8
0
  5
4BEC
 10
214.946
 20
125.000
 30
5.38000e-014
  70
    32
  0
VERTEX
  8
0
  5
4BED
 10
214.950
 20
125.000
 30
5.38000e-014
  70
    32
  0
VERTEX
  8
0
  5
4BEE
 10
214.953
 20
125.000
 30
5.38000e-014
  70
    32
  0
VERTEX
  8
0
  5
4BEF
 10
214.956
 20
125.000
 30
5.38000e-014
  70
    32
  0
VERTEX
  8
0
  5
4BF0
 10
214.959
 20
125.000
 30
5.38000e-014
  70
    32
  0
VERTEX
  8
0
  5
4BF1
 10
214.962
 20
125.000
 30
5.38000e-014
  70
    32
  0
VERTEX
  8
0
  5
4BF2
 10
214.965
 20
125.000
 30
5.38000e-014
  70
    32
  0
VERTEX
  8
0
  5
4BF3
 10
214.969
 20
125.000
 30
5.38000e-014
  70
    32
  0
VERTEX
  8
0
  5
4BF4
 10
214.972
 20
125.000
 30
5.38000e-014
  70
    32
  0
VERTEX
  8
0
  5
4BF5
 10
214.975
 20
125.000
 30
5.38000e-014
  70
    32
  0
VERTEX
  8
0
  5
4BF6
 10
214.978
 20
125.000
 30
5.38000e-014
  70
    32
  0
VERTEX
  8
0
  5
4BF7
 10
214.981
 20
125.000
 30
5.38000e-014
  70
    32
  0
VERTEX
  8
0
  5
4BF8
 10
214.984
 20
125.000
 30
5.38000e-014
  70
    32
  0
VERTEX
  8
0
  5
4BF9
 10
214.987
 20
125.000
 30
5.38000e-014
  70
    32
  0
VERTEX
  8
0
  5
4BFA
 10
214.991
 20
125.000
 30
5.38000e-014
  70
    32
  0
VERTEX
  8
0
  5
4BFB
 10
214.994
 20
125.000
 30
5.38000e-014
  70
    32
  0
VERTEX
  8
0
  5
4BFC
 10
214.997
 20
125.000
 30
5.38000e-014
  70
    32
  0
VERTEX
  8
0
  5
4BFD
 10
215.000
 20
125.000
 30
5.38000e-014
  70
    32
  0
SEQEND
  8
0
  5
4BFE
  0
ARC
  5
42E4
  8
0
  6
VERDECKT
 62
     1
 10
-214.9999999999998
 20
121.9999999999999
 30
0.0000000000000001
 40
2.9999999999997722
210
0.0000000000000003
220
0.0
230
-1.0
 50
359.99999999999733
 51
73.969896185158575
  0
LINE
  5
42E5
  8
0
  6
VERDECKT
 62
     1
 10
317.0
 20
125.0000000000007
 30
0.0000000000000853
 11
316.9979277213792
 21
125.0000000000007
 31
0.0000000000000853
  0
LINE
  5
42E6
  8
0
  6
VERDECKT
 62
     1
 10
316.9979277213792
 20
-124.9999999999996
 30
0.0000000000000853
 11
317.0
 21
-124.9999999999996
 31
0.0000000000000853
  0
LINE
  5
42E7
  8
0
  6
VERDECKT
 62
     1
 10
317.00000000000011
 20
196.5
 30
0.0000000000000853
 11
314.99999999999989
 21
194.4999999999998
 31
0.0000000000000848
  0
LINE
  5
42E8
  8
0
  6
VERDECKT
 62
     1
 10
317.00000000000011
 20
203.5
 30
0.0000000000000853
 11
314.99999999999989
 21
205.5000000000002
 31
0.0000000000000848
  0
LINE
  5
42E9
  8
0
  6
VERDECKT
 62
     1
 10
317.00000000000011
 20
-203.5
 30
0.0000000000000853
 11
314.99999999999989
 21
-205.5000000000002
 31
0.0000000000000848
  0
LINE
  5
42EA
  8
0
  6
VERDECKT
 62
     1
 10
317.00000000000011
 20
-196.5
 30
0.0000000000000853
 11
314.99999999999989
 21
-194.4999999999998
 31
0.0000000000000848
  0
POLYLINE
  8
0
  5
4BFF
  62
1
  66
     1
 10
0.000000
 20
0.000000
 30
0.000000
  70
     8
  0
VERTEX
  8
0
  5
4C00
 10
314.996
 20
13.5388
 30
7.89000e-014
  70
    32
  0
VERTEX
  8
0
  5
4C01
 10
314.996
 20
13.5413
 30
7.89000e-014
  70
    32
  0
VERTEX
  8
0
  5
4C02
 10
314.996
 20
13.5438
 30
7.89000e-014
  70
    32
  0
VERTEX
  8
0
  5
4C03
 10
314.996
 20
13.5463
 30
7.89000e-014
  70
    32
  0
VERTEX
  8
0
  5
4C04
 10
314.996
 20
13.5489
 30
7.89000e-014
  70
    32
  0
VERTEX
  8
0
  5
4C05
 10
314.996
 20
13.5514
 30
7.89000e-014
  70
    32
  0
VERTEX
  8
0
  5
4C06
 10
314.996
 20
13.5539
 30
7.89000e-014
  70
    32
  0
VERTEX
  8
0
  5
4C07
 10
314.996
 20
13.5564
 30
7.89000e-014
  70
    32
  0
VERTEX
  8
0
  5
4C08
 10
314.996
 20
13.5589
 30
7.89000e-014
  70
    32
  0
VERTEX
  8
0
  5
4C09
 10
314.996
 20
13.5614
 30
7.89000e-014
  70
    32
  0
VERTEX
  8
0
  5
4C0A
 10
314.996
 20
13.5639
 30
7.89000e-014
  70
    32
  0
VERTEX
  8
0
  5
4C0B
 10
314.996
 20
13.5664
 30
7.89000e-014
  70
    32
  0
VERTEX
  8
0
  5
4C0C
 10
314.996
 20
13.5689
 30
7.89000e-014
  70
    32
  0
VERTEX
  8
0
  5
4C0D
 10
314.996
 20
13.5715
 30
7.89000e-014
  70
    32
  0
VERTEX
  8
0
  5
4C0E
 10
314.996
 20
13.5740
 30
7.89000e-014
  70
    32
  0
VERTEX
  8
0
  5
4C0F
 10
314.996
 20
13.5765
 30
7.89000e-014
  70
    32
  0
VERTEX
  8
0
  5
4C10
 10
314.996
 20
13.5790
 30
7.89000e-014
  70
    32
  0
VERTEX
  8
0
  5
4C11
 10
314.996
 20
13.5815
 30
7.89000e-014
  70
    32
  0
VERTEX
  8
0
  5
4C12
 10
314.996
 20
13.5840
 30
7.89000e-014
  70
    32
  0
VERTEX
  8
0
  5
4C13
 10
314.996
 20
13.5865
 30
7.89000e-014
  70
    32
  0
VERTEX
  8
0
  5
4C14
 10
314.996
 20
13.5890
 30
7.89000e-014
  70
    32
  0
VERTEX
  8
0
  5
4C15
 10
314.996
 20
13.5915
 30
7.89000e-014
  70
    32
  0
VERTEX
  8
0
  5
4C16
 10
314.996
 20
13.5940
 30
7.89000e-014
  70
    32
  0
VERTEX
  8
0
  5
4C17
 10
314.996
 20
13.5965
 30
7.89000e-014
  70
    32
  0
VERTEX
  8
0
  5
4C18
 10
314.996
 20
13.5991
 30
7.89000e-014
  70
    32
  0
VERTEX
  8
0
  5
4C19
 10
314.996
 20
13.6016
 30
7.89000e-014
  70
    32
  0
VERTEX
  8
0
  5
4C1A
 10
314.997
 20
13.6041
 30
7.89000e-014
  70
    32
  0
VERTEX
  8
0
  5
4C1B
 10
314.997
 20
13.6066
 30
7.89000e-014
  70
    32
  0
VERTEX
  8
0
  5
4C1C
 10
314.997
 20
13.6091
 30
7.89000e-014
  70
    32
  0
VERTEX
  8
0
  5
4C1D
 10
314.997
 20
13.6116
 30
7.89000e-014
  70
    32
  0
VERTEX
  8
0
  5
4C1E
 10
314.997
 20
13.6141
 30
7.89000e-014
  70
    32
  0
VERTEX
  8
0
  5
4C1F
 10
314.997
 20
13.6166
 30
7.89000e-014
  70
    32
  0
VERTEX
  8
0
  5
4C20
 10
314.997
 20
13.6191
 30
7.89000e-014
  70
    32
  0
VERTEX
  8
0
  5
4C21
 10
314.997
 20
13.6216
 30
7.89000e-014
  70
    32
  0
VERTEX
  8
0
  5
4C22
 10
314.997
 20
13.6241
 30
7.89000e-014
  70
    32
  0
VERTEX
  8
0
  5
4C23
 10
314.997
 20
13.6266
 30
7.89000e-014
  70
    32
  0
VERTEX
  8
0
  5
4C24
 10
314.997
 20
13.6291
 30
7.89000e-014
  70
    32
  0
VERTEX
  8
0
  5
4C25
 10
314.997
 20
13.6317
 30
7.89000e-014
  70
    32
  0
VERTEX
  8
0
  5
4C26
 10
314.997
 20
13.6342
 30
7.89000e-014
  70
    32
  0
VERTEX
  8
0
  5
4C27
 10
314.997
 20
13.6367
 30
7.89000e-014
  70
    32
  0
VERTEX
  8
0
  5
4C28
 10
314.997
 20
13.6392
 30
7.89000e-014
  70
    32
  0
VERTEX
  8
0
  5
4C29
 10
314.997
 20
13.6417
 30
7.89000e-014
  70
    32
  0
VERTEX
  8
0
  5
4C2A
 10
314.997
 20
13.6442
 30
7.89000e-014
  70
    32
  0
VERTEX
  8
0
  5
4C2B
 10
314.997
 20
13.6467
 30
7.89000e-014
  70
    32
  0
VERTEX
  8
0
  5
4C2C
 10
314.997
 20
13.6492
 30
7.89000e-014
  70
    32
  0
VERTEX
  8
0
  5
4C2D
 10
314.997
 20
13.6517
 30
7.89000e-014
  70
    32
  0
VERTEX
  8
0
  5
4C2E
 10
314.997
 20
13.6542
 30
7.89000e-014
  70
    32
  0
VERTEX
  8
0
  5
4C2F
 10
314.997
 20
13.6567
 30
7.89000e-014
  70
    32
  0
VERTEX
  8
0
  5
4C30
 10
314.997
 20
13.6592
 30
7.89000e-014
  70
    32
  0
VERTEX
  8
0
  5
4C31
 10
314.997
 20
13.6617
 30
7.89000e-014
  70
    32
  0
VERTEX
  8
0
  5
4C32
 10
314.997
 20
13.6642
 30
7.89000e-014
  70
    32
  0
VERTEX
  8
0
  5
4C33
 10
314.997
 20
13.6667
 30
7.89000e-014
  70
    32
  0
VERTEX
  8
0
  5
4C34
 10
314.997
 20
13.6692
 30
7.89000e-014
  70
    32
  0
VERTEX
  8
0
  5
4C35
 10
314.997
 20
13.6717
 30
7.89000e-014
  70
    32
  0
VERTEX
  8
0
  5
4C36
 10
314.997
 20
13.6742
 30
7.89000e-014
  70
    32
  0
VERTEX
  8
0
  5
4C37
 10
314.997
 20
13.6767
 30
7.89000e-014
  70
    32
  0
VERTEX
  8
0
  5
4C38
 10
314.997
 20
13.6792
 30
7.89000e-014
  70
    32
  0
VERTEX
  8
0
  5
4C39
 10
314.997
 20
13.6817
 30
7.89000e-014
  70
    32
  0
VERTEX
  8
0
  5
4C3A
 10
314.997
 20
13.6842
 30
7.89000e-014
  70
    32
  0
VERTEX
  8
0
  5
4C3B
 10
314.997
 20
13.6867
 30
7.89000e-014
  70
    32
  0
VERTEX
  8
0
  5
4C3C
 10
314.997
 20
13.6892
 30
7.89000e-014
  70
    32
  0
VERTEX
  8
0
  5
4C3D
 10
314.997
 20
13.6917
 30
7.89000e-014
  70
    32
  0
VERTEX
  8
0
  5
4C3E
 10
314.997
 20
13.6942
 30
7.89000e-014
  70
    32
  0
VERTEX
  8
0
  5
4C3F
 10
314.997
 20
13.6967
 30
7.89000e-014
  70
    32
  0
VERTEX
  8
0
  5
4C40
 10
314.997
 20
13.6992
 30
7.89000e-014
  70
    32
  0
VERTEX
  8
0
  5
4C41
 10
314.997
 20
13.7017
 30
7.89000e-014
  70
    32
  0
VERTEX
  8
0
  5
4C42
 10
314.997
 20
13.7042
 30
7.89000e-014
  70
    32
  0
VERTEX
  8
0
  5
4C43
 10
314.997
 20
13.7067
 30
7.89000e-014
  70
    32
  0
VERTEX
  8
0
  5
4C44
 10
314.997
 20
13.7092
 30
7.89000e-014
  70
    32
  0
VERTEX
  8
0
  5
4C45
 10
314.997
 20
13.7117
 30
7.89000e-014
  70
    32
  0
VERTEX
  8
0
  5
4C46
 10
314.997
 20
13.7142
 30
7.89000e-014
  70
    32
  0
VERTEX
  8
0
  5
4C47
 10
314.997
 20
13.7167
 30
7.89000e-014
  70
    32
  0
VERTEX
  8
0
  5
4C48
 10
314.997
 20
13.7192
 30
7.89000e-014
  70
    32
  0
VERTEX
  8
0
  5
4C49
 10
314.997
 20
13.7217
 30
7.89000e-014
  70
    32
  0
VERTEX
  8
0
  5
4C4A
 10
314.997
 20
13.7242
 30
7.89000e-014
  70
    32
  0
VERTEX
  8
0
  5
4C4B
 10
314.998
 20
13.7267
 30
7.89000e-014
  70
    32
  0
VERTEX
  8
0
  5
4C4C
 10
314.998
 20
13.7292
 30
7.89000e-014
  70
    32
  0
VERTEX
  8
0
  5
4C4D
 10
314.998
 20
13.7317
 30
7.89000e-014
  70
    32
  0
VERTEX
  8
0
  5
4C4E
 10
314.998
 20
13.7342
 30
7.89000e-014
  70
    32
  0
VERTEX
  8
0
  5
4C4F
 10
314.998
 20
13.7367
 30
7.89000e-014
  70
    32
  0
VERTEX
  8
0
  5
4C50
 10
314.998
 20
13.7392
 30
7.89000e-014
  70
    32
  0
VERTEX
  8
0
  5
4C51
 10
314.998
 20
13.7417
 30
7.89000e-014
  70
    32
  0
VERTEX
  8
0
  5
4C52
 10
314.998
 20
13.7442
 30
7.89000e-014
  70
    32
  0
VERTEX
  8
0
  5
4C53
 10
314.998
 20
13.7467
 30
7.89000e-014
  70
    32
  0
VERTEX
  8
0
  5
4C54
 10
314.998
 20
13.7492
 30
7.89000e-014
  70
    32
  0
VERTEX
  8
0
  5
4C55
 10
314.998
 20
13.7517
 30
7.89000e-014
  70
    32
  0
VERTEX
  8
0
  5
4C56
 10
314.998
 20
13.7542
 30
7.89000e-014
  70
    32
  0
VERTEX
  8
0
  5
4C57
 10
314.998
 20
13.7567
 30
7.89000e-014
  70
    32
  0
VERTEX
  8
0
  5
4C58
 10
314.998
 20
13.7592
 30
7.89000e-014
  70
    32
  0
VERTEX
  8
0
  5
4C59
 10
314.998
 20
13.7617
 30
7.89000e-014
  70
    32
  0
VERTEX
  8
0
  5
4C5A
 10
314.998
 20
13.7642
 30
7.89000e-014
  70
    32
  0
VERTEX
  8
0
  5
4C5B
 10
314.998
 20
13.7667
 30
7.89000e-014
  70
    32
  0
VERTEX
  8
0
  5
4C5C
 10
314.998
 20
13.7692
 30
7.89000e-014
  70
    32
  0
VERTEX
  8
0
  5
4C5D
 10
314.998
 20
13.7717
 30
7.89000e-014
  70
    32
  0
VERTEX
  8
0
  5
4C5E
 10
314.998
 20
13.7742
 30
7.89000e-014
  70
    32
  0
VERTEX
  8
0
  5
4C5F
 10
314.998
 20
13.7767
 30
7.89000e-014
  70
    32
  0
VERTEX
  8
0
  5
4C60
 10
314.998
 20
13.7792
 30
7.89000e-014
  70
    32
  0
VERTEX
  8
0
  5
4C61
 10
314.998
 20
13.7817
 30
7.89000e-014
  70
    32
  0
VERTEX
  8
0
  5
4C62
 10
314.998
 20
13.7842
 30
7.89000e-014
  70
    32
  0
VERTEX
  8
0
  5
4C63
 10
314.998
 20
13.7867
 30
7.89000e-014
  70
    32
  0
VERTEX
  8
0
  5
4C64
 10
314.998
 20
13.7891
 30
7.89000e-014
  70
    32
  0
VERTEX
  8
0
  5
4C65
 10
314.998
 20
13.7916
 30
7.89000e-014
  70
    32
  0
VERTEX
  8
0
  5
4C66
 10
314.998
 20
13.7941
 30
7.89000e-014
  70
    32
  0
VERTEX
  8
0
  5
4C67
 10
314.998
 20
13.7966
 30
7.89000e-014
  70
    32
  0
VERTEX
  8
0
  5
4C68
 10
314.998
 20
13.7991
 30
7.89000e-014
  70
    32
  0
VERTEX
  8
0
  5
4C69
 10
314.998
 20
13.8016
 30
7.89000e-014
  70
    32
  0
VERTEX
  8
0
  5
4C6A
 10
314.998
 20
13.8041
 30
7.89000e-014
  70
    32
  0
VERTEX
  8
0
  5
4C6B
 10
314.998
 20
13.8066
 30
7.89000e-014
  70
    32
  0
VERTEX
  8
0
  5
4C6C
 10
314.998
 20
13.8091
 30
7.89000e-014
  70
    32
  0
VERTEX
  8
0
  5
4C6D
 10
314.998
 20
13.8116
 30
7.89000e-014
  70
    32
  0
VERTEX
  8
0
  5
4C6E
 10
314.998
 20
13.8141
 30
7.89000e-014
  70
    32
  0
VERTEX
  8
0
  5
4C6F
 10
314.998
 20
13.8166
 30
7.89000e-014
  70
    32
  0
VERTEX
  8
0
  5
4C70
 10
314.998
 20
13.8191
 30
7.89000e-014
  70
    32
  0
VERTEX
  8
0
  5
4C71
 10
314.998
 20
13.8215
 30
7.89000e-014
  70
    32
  0
VERTEX
  8
0
  5
4C72
 10
314.998
 20
13.8240
 30
7.89000e-014
  70
    32
  0
VERTEX
  8
0
  5
4C73
 10
314.998
 20
13.8265
 30
7.89000e-014
  70
    32
  0
VERTEX
  8
0
  5
4C74
 10
314.998
 20
13.8290
 30
7.89000e-014
  70
    32
  0
VERTEX
  8
0
  5
4C75
 10
314.998
 20
13.8315
 30
7.89000e-014
  70
    32
  0
VERTEX
  8
0
  5
4C76
 10
314.998
 20
13.8340
 30
7.89000e-014
  70
    32
  0
VERTEX
  8
0
  5
4C77
 10
314.998
 20
13.8365
 30
7.89000e-014
  70
    32
  0
VERTEX
  8
0
  5
4C78
 10
314.998
 20
13.8390
 30
7.89000e-014
  70
    32
  0
VERTEX
  8
0
  5
4C79
 10
314.998
 20
13.8415
 30
7.89000e-014
  70
    32
  0
VERTEX
  8
0
  5
4C7A
 10
314.998
 20
13.8440
 30
7.89000e-014
  70
    32
  0
VERTEX
  8
0
  5
4C7B
 10
314.998
 20
13.8465
 30
7.89000e-014
  70
    32
  0
VERTEX
  8
0
  5
4C7C
 10
314.998
 20
13.8489
 30
7.89000e-014
  70
    32
  0
VERTEX
  8
0
  5
4C7D
 10
314.998
 20
13.8514
 30
7.89000e-014
  70
    32
  0
VERTEX
  8
0
  5
4C7E
 10
314.998
 20
13.8539
 30
7.89000e-014
  70
    32
  0
VERTEX
  8
0
  5
4C7F
 10
314.998
 20
13.8564
 30
7.89000e-014
  70
    32
  0
SEQEND
  8
0
  5
4C80
  0
POLYLINE
  8
0
  5
4C81
  62
1
  66
     1
 10
0.000000
 20
0.000000
 30
0.000000
  70
     8
  0
VERTEX
  8
0
  5
4C82
 10
314.998
 20
-13.8564
 30
7.89000e-014
  70
    32
  0
VERTEX
  8
0
  5
4C83
 10
314.998
 20
-13.8539
 30
7.89000e-014
  70
    32
  0
VERTEX
  8
0
  5
4C84
 10
314.998
 20
-13.8514
 30
7.89000e-014
  70
    32
  0
VERTEX
  8
0
  5
4C85
 10
314.998
 20
-13.8489
 30
7.89000e-014
  70
    32
  0
VERTEX
  8
0
  5
4C86
 10
314.998
 20
-13.8465
 30
7.89000e-014
  70
    32
  0
VERTEX
  8
0
  5
4C87
 10
314.998
 20
-13.8440
 30
7.89000e-014
  70
    32
  0
VERTEX
  8
0
  5
4C88
 10
314.998
 20
-13.8415
 30
7.89000e-014
  70
    32
  0
VERTEX
  8
0
  5
4C89
 10
314.998
 20
-13.8390
 30
7.89000e-014
  70
    32
  0
VERTEX
  8
0
  5
4C8A
 10
314.998
 20
-13.8365
 30
7.89000e-014
  70
    32
  0
VERTEX
  8
0
  5
4C8B
 10
314.998
 20
-13.8340
 30
7.89000e-014
  70
    32
  0
VERTEX
  8
0
  5
4C8C
 10
314.998
 20
-13.8315
 30
7.89000e-014
  70
    32
  0
VERTEX
  8
0
  5
4C8D
 10
314.998
 20
-13.8290
 30
7.89000e-014
  70
    32
  0
VERTEX
  8
0
  5
4C8E
 10
314.998
 20
-13.8265
 30
7.89000e-014
  70
    32
  0
VERTEX
  8
0
  5
4C8F
 10
314.998
 20
-13.8240
 30
7.89000e-014
  70
    32
  0
VERTEX
  8
0
  5
4C90
 10
314.998
 20
-13.8215
 30
7.89000e-014
  70
    32
  0
VERTEX
  8
0
  5
4C91
 10
314.998
 20
-13.8191
 30
7.89000e-014
  70
    32
  0
VERTEX
  8
0
  5
4C92
 10
314.998
 20
-13.8166
 30
7.89000e-014
  70
    32
  0
VERTEX
  8
0
  5
4C93
 10
314.998
 20
-13.8141
 30
7.89000e-014
  70
    32
  0
VERTEX
  8
0
  5
4C94
 10
314.998
 20
-13.8116
 30
7.89000e-014
  70
    32
  0
VERTEX
  8
0
  5
4C95
 10
314.998
 20
-13.8091
 30
7.89000e-014
  70
    32
  0
VERTEX
  8
0
  5
4C96
 10
314.998
 20
-13.8066
 30
7.89000e-014
  70
    32
  0
VERTEX
  8
0
  5
4C97
 10
314.998
 20
-13.8041
 30
7.89000e-014
  70
    32
  0
VERTEX
  8
0
  5
4C98
 10
314.998
 20
-13.8016
 30
7.89000e-014
  70
    32
  0
VERTEX
  8
0
  5
4C99
 10
314.998
 20
-13.7991
 30
7.89000e-014
  70
    32
  0
VERTEX
  8
0
  5
4C9A
 10
314.998
 20
-13.7966
 30
7.89000e-014
  70
    32
  0
VERTEX
  8
0
  5
4C9B
 10
314.998
 20
-13.7941
 30
7.89000e-014
  70
    32
  0
VERTEX
  8
0
  5
4C9C
 10
314.998
 20
-13.7916
 30
7.89000e-014
  70
    32
  0
VERTEX
  8
0
  5
4C9D
 10
314.998
 20
-13.7891
 30
7.89000e-014
  70
    32
  0
VERTEX
  8
0
  5
4C9E
 10
314.998
 20
-13.7867
 30
7.89000e-014
  70
    32
  0
VERTEX
  8
0
  5
4C9F
 10
314.998
 20
-13.7842
 30
7.89000e-014
  70
    32
  0
VERTEX
  8
0
  5
4CA0
 10
314.998
 20
-13.7817
 30
7.89000e-014
  70
    32
  0
VERTEX
  8
0
  5
4CA1
 10
314.998
 20
-13.7792
 30
7.89000e-014
  70
    32
  0
VERTEX
  8
0
  5
4CA2
 10
314.998
 20
-13.7767
 30
7.89000e-014
  70
    32
  0
VERTEX
  8
0
  5
4CA3
 10
314.998
 20
-13.7742
 30
7.89000e-014
  70
    32
  0
VERTEX
  8
0
  5
4CA4
 10
314.998
 20
-13.7717
 30
7.89000e-014
  70
    32
  0
VERTEX
  8
0
  5
4CA5
 10
314.998
 20
-13.7692
 30
7.89000e-014
  70
    32
  0
VERTEX
  8
0
  5
4CA6
 10
314.998
 20
-13.7667
 30
7.89000e-014
  70
    32
  0
VERTEX
  8
0
  5
4CA7
 10
314.998
 20
-13.7642
 30
7.89000e-014
  70
    32
  0
VERTEX
  8
0
  5
4CA8
 10
314.998
 20
-13.7617
 30
7.89000e-014
  70
    32
  0
VERTEX
  8
0
  5
4CA9
 10
314.998
 20
-13.7592
 30
7.89000e-014
  70
    32
  0
VERTEX
  8
0
  5
4CAA
 10
314.998
 20
-13.7567
 30
7.89000e-014
  70
    32
  0
VERTEX
  8
0
  5
4CAB
 10
314.998
 20
-13.7542
 30
7.89000e-014
  70
    32
  0
VERTEX
  8
0
  5
4CAC
 10
314.998
 20
-13.7517
 30
7.89000e-014
  70
    32
  0
VERTEX
  8
0
  5
4CAD
 10
314.998
 20
-13.7492
 30
7.89000e-014
  70
    32
  0
VERTEX
  8
0
  5
4CAE
 10
314.998
 20
-13.7467
 30
7.89000e-014
  70
    32
  0
VERTEX
  8
0
  5
4CAF
 10
314.998
 20
-13.7442
 30
7.89000e-014
  70
    32
  0
VERTEX
  8
0
  5
4CB0
 10
314.998
 20
-13.7417
 30
7.89000e-014
  70
    32
  0
VERTEX
  8
0
  5
4CB1
 10
314.998
 20
-13.7392
 30
7.89000e-014
  70
    32
  0
VERTEX
  8
0
  5
4CB2
 10
314.998
 20
-13.7367
 30
7.89000e-014
  70
    32
  0
VERTEX
  8
0
  5
4CB3
 10
314.998
 20
-13.7342
 30
7.89000e-014
  70
    32
  0
VERTEX
  8
0
  5
4CB4
 10
314.998
 20
-13.7317
 30
7.89000e-014
  70
    32
  0
VERTEX
  8
0
  5
4CB5
 10
314.998
 20
-13.7292
 30
7.89000e-014
  70
    32
  0
VERTEX
  8
0
  5
4CB6
 10
314.998
 20
-13.7267
 30
7.89000e-014
  70
    32
  0
VERTEX
  8
0
  5
4CB7
 10
314.997
 20
-13.7242
 30
7.89000e-014
  70
    32
  0
VERTEX
  8
0
  5
4CB8
 10
314.997
 20
-13.7217
 30
7.89000e-014
  70
    32
  0
VERTEX
  8
0
  5
4CB9
 10
314.997
 20
-13.7192
 30
7.89000e-014
  70
    32
  0
VERTEX
  8
0
  5
4CBA
 10
314.997
 20
-13.7167
 30
7.89000e-014
  70
    32
  0
VERTEX
  8
0
  5
4CBB
 10
314.997
 20
-13.7142
 30
7.89000e-014
  70
    32
  0
VERTEX
  8
0
  5
4CBC
 10
314.997
 20
-13.7117
 30
7.89000e-014
  70
    32
  0
VERTEX
  8
0
  5
4CBD
 10
314.997
 20
-13.7092
 30
7.89000e-014
  70
    32
  0
VERTEX
  8
0
  5
4CBE
 10
314.997
 20
-13.7067
 30
7.89000e-014
  70
    32
  0
VERTEX
  8
0
  5
4CBF
 10
314.997
 20
-13.7042
 30
7.89000e-014
  70
    32
  0
VERTEX
  8
0
  5
4CC0
 10
314.997
 20
-13.7017
 30
7.89000e-014
  70
    32
  0
VERTEX
  8
0
  5
4CC1
 10
314.997
 20
-13.6992
 30
7.89000e-014
  70
    32
  0
VERTEX
  8
0
  5
4CC2
 10
314.997
 20
-13.6967
 30
7.89000e-014
  70
    32
  0
VERTEX
  8
0
  5
4CC3
 10
314.997
 20
-13.6942
 30
7.89000e-014
  70
    32
  0
VERTEX
  8
0
  5
4CC4
 10
314.997
 20
-13.6917
 30
7.89000e-014
  70
    32
  0
VERTEX
  8
0
  5
4CC5
 10
314.997
 20
-13.6892
 30
7.89000e-014
  70
    32
  0
VERTEX
  8
0
  5
4CC6
 10
314.997
 20
-13.6867
 30
7.89000e-014
  70
    32
  0
VERTEX
  8
0
  5
4CC7
 10
314.997
 20
-13.6842
 30
7.89000e-014
  70
    32
  0
VERTEX
  8
0
  5
4CC8
 10
314.997
 20
-13.6817
 30
7.89000e-014
  70
    32
  0
VERTEX
  8
0
  5
4CC9
 10
314.997
 20
-13.6792
 30
7.89000e-014
  70
    32
  0
VERTEX
  8
0
  5
4CCA
 10
314.997
 20
-13.6767
 30
7.89000e-014
  70
    32
  0
VERTEX
  8
0
  5
4CCB
 10
314.997
 20
-13.6742
 30
7.89000e-014
  70
    32
  0
VERTEX
  8
0
  5
4CCC
 10
314.997
 20
-13.6717
 30
7.89000e-014
  70
    32
  0
VERTEX
  8
0
  5
4CCD
 10
314.997
 20
-13.6692
 30
7.89000e-014
  70
    32
  0
VERTEX
  8
0
  5
4CCE
 10
314.997
 20
-13.6667
 30
7.89000e-014
  70
    32
  0
VERTEX
  8
0
  5
4CCF
 10
314.997
 20
-13.6642
 30
7.89000e-014
  70
    32
  0
VERTEX
  8
0
  5
4CD0
 10
314.997
 20
-13.6617
 30
7.89000e-014
  70
    32
  0
VERTEX
  8
0
  5
4CD1
 10
314.997
 20
-13.6592
 30
7.89000e-014
  70
    32
  0
VERTEX
  8
0
  5
4CD2
 10
314.997
 20
-13.6567
 30
7.89000e-014
  70
    32
  0
VERTEX
  8
0
  5
4CD3
 10
314.997
 20
-13.6542
 30
7.89000e-014
  70
    32
  0
VERTEX
  8
0
  5
4CD4
 10
314.997
 20
-13.6517
 30
7.89000e-014
  70
    32
  0
VERTEX
  8
0
  5
4CD5
 10
314.997
 20
-13.6492
 30
7.89000e-014
  70
    32
  0
VERTEX
  8
0
  5
4CD6
 10
314.997
 20
-13.6467
 30
7.89000e-014
  70
    32
  0
VERTEX
  8
0
  5
4CD7
 10
314.997
 20
-13.6442
 30
7.89000e-014
  70
    32
  0
VERTEX
  8
0
  5
4CD8
 10
314.997
 20
-13.6417
 30
7.89000e-014
  70
    32
  0
VERTEX
  8
0
  5
4CD9
 10
314.997
 20
-13.6392
 30
7.89000e-014
  70
    32
  0
VERTEX
  8
0
  5
4CDA
 10
314.997
 20
-13.6367
 30
7.89000e-014
  70
    32
  0
VERTEX
  8
0
  5
4CDB
 10
314.997
 20
-13.6342
 30
7.89000e-014
  70
    32
  0
VERTEX
  8
0
  5
4CDC
 10
314.997
 20
-13.6317
 30
7.89000e-014
  70
    32
  0
VERTEX
  8
0
  5
4CDD
 10
314.997
 20
-13.6291
 30
7.89000e-014
  70
    32
  0
VERTEX
  8
0
  5
4CDE
 10
314.997
 20
-13.6266
 30
7.89000e-014
  70
    32
  0
VERTEX
  8
0
  5
4CDF
 10
314.997
 20
-13.6241
 30
7.89000e-014
  70
    32
  0
VERTEX
  8
0
  5
4CE0
 10
314.997
 20
-13.6216
 30
7.89000e-014
  70
    32
  0
VERTEX
  8
0
  5
4CE1
 10
314.997
 20
-13.6191
 30
7.89000e-014
  70
    32
  0
VERTEX
  8
0
  5
4CE2
 10
314.997
 20
-13.6166
 30
7.89000e-014
  70
    32
  0
VERTEX
  8
0
  5
4CE3
 10
314.997
 20
-13.6141
 30
7.89000e-014
  70
    32
  0
VERTEX
  8
0
  5
4CE4
 10
314.997
 20
-13.6116
 30
7.89000e-014
  70
    32
  0
VERTEX
  8
0
  5
4CE5
 10
314.997
 20
-13.6091
 30
7.89000e-014
  70
    32
  0
VERTEX
  8
0
  5
4CE6
 10
314.997
 20
-13.6066
 30
7.89000e-014
  70
    32
  0
VERTEX
  8
0
  5
4CE7
 10
314.997
 20
-13.6041
 30
7.89000e-014
  70
    32
  0
VERTEX
  8
0
  5
4CE8
 10
314.996
 20
-13.6016
 30
7.89000e-014
  70
    32
  0
VERTEX
  8
0
  5
4CE9
 10
314.996
 20
-13.5991
 30
7.89000e-014
  70
    32
  0
VERTEX
  8
0
  5
4CEA
 10
314.996
 20
-13.5965
 30
7.89000e-014
  70
    32
  0
VERTEX
  8
0
  5
4CEB
 10
314.996
 20
-13.5940
 30
7.89000e-014
  70
    32
  0
VERTEX
  8
0
  5
4CEC
 10
314.996
 20
-13.5915
 30
7.89000e-014
  70
    32
  0
VERTEX
  8
0
  5
4CED
 10
314.996
 20
-13.5890
 30
7.89000e-014
  70
    32
  0
VERTEX
  8
0
  5
4CEE
 10
314.996
 20
-13.5865
 30
7.89000e-014
  70
    32
  0
VERTEX
  8
0
  5
4CEF
 10
314.996
 20
-13.5840
 30
7.89000e-014
  70
    32
  0
VERTEX
  8
0
  5
4CF0
 10
314.996
 20
-13.5815
 30
7.89000e-014
  70
    32
  0
VERTEX
  8
0
  5
4CF1
 10
314.996
 20
-13.5790
 30
7.89000e-014
  70
    32
  0
VERTEX
  8
0
  5
4CF2
 10
314.996
 20
-13.5765
 30
7.89000e-014
  70
    32
  0
VERTEX
  8
0
  5
4CF3
 10
314.996
 20
-13.5740
 30
7.89000e-014
  70
    32
  0
VERTEX
  8
0
  5
4CF4
 10
314.996
 20
-13.5715
 30
7.89000e-014
  70
    32
  0
VERTEX
  8
0
  5
4CF5
 10
314.996
 20
-13.5689
 30
7.89000e-014
  70
    32
  0
VERTEX
  8
0
  5
4CF6
 10
314.996
 20
-13.5664
 30
7.89000e-014
  70
    32
  0
VERTEX
  8
0
  5
4CF7
 10
314.996
 20
-13.5639
 30
7.89000e-014
  70
    32
  0
VERTEX
  8
0
  5
4CF8
 10
314.996
 20
-13.5614
 30
7.89000e-014
  70
    32
  0
VERTEX
  8
0
  5
4CF9
 10
314.996
 20
-13.5589
 30
7.89000e-014
  70
    32
  0
VERTEX
  8
0
  5
4CFA
 10
314.996
 20
-13.5564
 30
7.89000e-014
  70
    32
  0
VERTEX
  8
0
  5
4CFB
 10
314.996
 20
-13.5539
 30
7.89000e-014
  70
    32
  0
VERTEX
  8
0
  5
4CFC
 10
314.996
 20
-13.5514
 30
7.89000e-014
  70
    32
  0
VERTEX
  8
0
  5
4CFD
 10
314.996
 20
-13.5489
 30
7.89000e-014
  70
    32
  0
VERTEX
  8
0
  5
4CFE
 10
314.996
 20
-13.5463
 30
7.89000e-014
  70
    32
  0
VERTEX
  8
0
  5
4CFF
 10
314.996
 20
-13.5438
 30
7.89000e-014
  70
    32
  0
VERTEX
  8
0
  5
4D00
 10
314.996
 20
-13.5413
 30
7.89000e-014
  70
    32
  0
VERTEX
  8
0
  5
4D01
 10
314.996
 20
-13.5388
 30
7.89000e-014
  70
    32
  0
SEQEND
  8
0
  5
4D02
  0
POLYLINE
  8
0
  5
4D03
  62
1
  66
     1
 10
0.000000
 20
0.000000
 30
0.000000
  70
     8
  0
VERTEX
  8
0
  5
4D04
 10
316.998
 20
13.8564
 30
7.94000e-014
  70
    32
  0
VERTEX
  8
0
  5
4D05
 10
316.998
 20
13.8188
 30
7.94000e-014
  70
    32
  0
VERTEX
  8
0
  5
4D06
 10
316.998
 20
13.7812
 30
7.94000e-014
  70
    32
  0
VERTEX
  8
0
  5
4D07
 10
316.998
 20
13.7436
 30
7.94000e-014
  70
    32
  0
VERTEX
  8
0
  5
4D08
 10
316.998
 20
13.7059
 30
7.94000e-014
  70
    32
  0
VERTEX
  8
0
  5
4D09
 10
316.997
 20
13.6682
 30
7.94000e-014
  70
    32
  0
VERTEX
  8
0
  5
4D0A
 10
316.997
 20
13.6305
 30
7.94000e-014
  70
    32
  0
VERTEX
  8
0
  5
4D0B
 10
316.997
 20
13.5927
 30
7.94000e-014
  70
    32
  0
VERTEX
  8
0
  5
4D0C
 10
316.997
 20
13.5549
 30
7.94000e-014
  70
    32
  0
VERTEX
  8
0
  5
4D0D
 10
316.997
 20
13.5171
 30
7.94000e-014
  70
    32
  0
VERTEX
  8
0
  5
4D0E
 10
316.996
 20
13.4793
 30
7.94000e-014
  70
    32
  0
VERTEX
  8
0
  5
4D0F
 10
316.996
 20
13.4414
 30
7.94000e-014
  70
    32
  0
VERTEX
  8
0
  5
4D10
 10
316.996
 20
13.4035
 30
7.94000e-014
  70
    32
  0
VERTEX
  8
0
  5
4D11
 10
316.995
 20
13.3656
 30
7.94000e-014
  70
    32
  0
VERTEX
  8
0
  5
4D12
 10
316.995
 20
13.3276
 30
7.94000e-014
  70
    32
  0
VERTEX
  8
0
  5
4D13
 10
316.995
 20
13.2896
 30
7.94000e-014
  70
    32
  0
VERTEX
  8
0
  5
4D14
 10
316.994
 20
13.2516
 30
7.94000e-014
  70
    32
  0
VERTEX
  8
0
  5
4D15
 10
316.994
 20
13.2135
 30
7.94000e-014
  70
    32
  0
VERTEX
  8
0
  5
4D16
 10
316.993
 20
13.1755
 30
7.94000e-014
  70
    32
  0
VERTEX
  8
0
  5
4D17
 10
316.993
 20
13.1373
 30
7.94000e-014
  70
    32
  0
VERTEX
  8
0
  5
4D18
 10
316.992
 20
13.0992
 30
7.94000e-014
  70
    32
  0
VERTEX
  8
0
  5
4D19
 10
316.991
 20
13.0611
 30
7.94000e-014
  70
    32
  0
VERTEX
  8
0
  5
4D1A
 10
316.991
 20
13.0229
 30
7.94000e-014
  70
    32
  0
VERTEX
  8
0
  5
4D1B
 10
316.990
 20
12.9847
 30
7.94000e-014
  70
    32
  0
VERTEX
  8
0
  5
4D1C
 10
316.989
 20
12.9464
 30
7.94000e-014
  70
    32
  0
VERTEX
  8
0
  5
4D1D
 10
316.989
 20
12.9082
 30
7.94000e-014
  70
    32
  0
VERTEX
  8
0
  5
4D1E
 10
316.988
 20
12.8699
 30
7.94000e-014
  70
    32
  0
VERTEX
  8
0
  5
4D1F
 10
316.987
 20
12.8315
 30
7.94000e-014
  70
    32
  0
VERTEX
  8
0
  5
4D20
 10
316.987
 20
12.7932
 30
7.94000e-014
  70
    32
  0
VERTEX
  8
0
  5
4D21
 10
316.986
 20
12.7548
 30
7.94000e-014
  70
    32
  0
VERTEX
  8
0
  5
4D22
 10
316.985
 20
12.7164
 30
7.94000e-014
  70
    32
  0
VERTEX
  8
0
  5
4D23
 10
316.984
 20
12.6780
 30
7.94000e-014
  70
    32
  0
VERTEX
  8
0
  5
4D24
 10
316.983
 20
12.6395
 30
7.94000e-014
  70
    32
  0
VERTEX
  8
0
  5
4D25
 10
316.982
 20
12.6011
 30
7.94000e-014
  70
    32
  0
VERTEX
  8
0
  5
4D26
 10
316.981
 20
12.5626
 30
7.94000e-014
  70
    32
  0
VERTEX
  8
0
  5
4D27
 10
316.980
 20
12.5240
 30
7.94000e-014
  70
    32
  0
VERTEX
  8
0
  5
4D28
 10
316.980
 20
12.4855
 30
7.94000e-014
  70
    32
  0
VERTEX
  8
0
  5
4D29
 10
316.979
 20
12.4469
 30
7.94000e-014
  70
    32
  0
VERTEX
  8
0
  5
4D2A
 10
316.978
 20
12.4083
 30
7.94000e-014
  70
    32
  0
VERTEX
  8
0
  5
4D2B
 10
316.976
 20
12.3697
 30
7.94000e-014
  70
    32
  0
VERTEX
  8
0
  5
4D2C
 10
316.975
 20
12.3310
 30
7.94000e-014
  70
    32
  0
VERTEX
  8
0
  5
4D2D
 10
316.974
 20
12.2924
 30
7.94000e-014
  70
    32
  0
VERTEX
  8
0
  5
4D2E
 10
316.973
 20
12.2537
 30
7.94000e-014
  70
    32
  0
VERTEX
  8
0
  5
4D2F
 10
316.972
 20
12.2150
 30
7.94000e-014
  70
    32
  0
VERTEX
  8
0
  5
4D30
 10
316.971
 20
12.1762
 30
7.94000e-014
  70
    32
  0
VERTEX
  8
0
  5
4D31
 10
316.970
 20
12.1374
 30
7.94000e-014
  70
    32
  0
VERTEX
  8
0
  5
4D32
 10
316.969
 20
12.0987
 30
7.94000e-014
  70
    32
  0
VERTEX
  8
0
  5
4D33
 10
316.967
 20
12.0598
 30
7.94000e-014
  70
    32
  0
VERTEX
  8
0
  5
4D34
 10
316.966
 20
12.0210
 30
7.94000e-014
  70
    32
  0
VERTEX
  8
0
  5
4D35
 10
316.965
 20
11.9821
 30
7.94000e-014
  70
    32
  0
VERTEX
  8
0
  5
4D36
 10
316.964
 20
11.9433
 30
7.94000e-014
  70
    32
  0
VERTEX
  8
0
  5
4D37
 10
316.962
 20
11.9043
 30
7.94000e-014
  70
    32
  0
VERTEX
  8
0
  5
4D38
 10
316.961
 20
11.8654
 30
7.94000e-014
  70
    32
  0
VERTEX
  8
0
  5
4D39
 10
316.960
 20
11.8265
 30
7.93999e-014
  70
    32
  0
VERTEX
  8
0
  5
4D3A
 10
316.958
 20
11.7875
 30
7.93999e-014
  70
    32
  0
VERTEX
  8
0
  5
4D3B
 10
316.957
 20
11.7485
 30
7.93999e-014
  70
    32
  0
VERTEX
  8
0
  5
4D3C
 10
316.956
 20
11.7095
 30
7.93999e-014
  70
    32
  0
VERTEX
  8
0
  5
4D3D
 10
316.954
 20
11.6704
 30
7.93998e-014
  70
    32
  0
VERTEX
  8
0
  5
4D3E
 10
316.953
 20
11.6314
 30
7.93998e-014
  70
    32
  0
VERTEX
  8
0
  5
4D3F
 10
316.951
 20
11.5923
 30
7.93998e-014
  70
    32
  0
VERTEX
  8
0
  5
4D40
 10
316.950
 20
11.5532
 30
7.93997e-014
  70
    32
  0
VERTEX
  8
0
  5
4D41
 10
316.948
 20
11.5141
 30
7.93997e-014
  70
    32
  0
VERTEX
  8
0
  5
4D42
 10
316.947
 20
11.4749
 30
7.93996e-014
  70
    32
  0
VERTEX
  8
0
  5
4D43
 10
316.945
 20
11.4358
 30
7.93996e-014
  70
    32
  0
VERTEX
  8
0
  5
4D44
 10
316.944
 20
11.3966
 30
7.93995e-014
  70
    32
  0
VERTEX
  8
0
  5
4D45
 10
316.942
 20
11.3574
 30
7.93995e-014
  70
    32
  0
VERTEX
  8
0
  5
4D46
 10
316.941
 20
11.3182
 30
7.93994e-014
  70
    32
  0
VERTEX
  8
0
  5
4D47
 10
316.939
 20
11.2789
 30
7.93993e-014
  70
    32
  0
VERTEX
  8
0
  5
4D48
 10
316.937
 20
11.2397
 30
7.93992e-014
  70
    32
  0
VERTEX
  8
0
  5
4D49
 10
316.936
 20
11.2004
 30
7.93991e-014
  70
    32
  0
VERTEX
  8
0
  5
4D4A
 10
316.934
 20
11.1611
 30
7.93990e-014
  70
    32
  0
VERTEX
  8
0
  5
4D4B
 10
316.932
 20
11.1218
 30
7.93989e-014
  70
    32
  0
VERTEX
  8
0
  5
4D4C
 10
316.931
 20
11.0824
 30
7.93988e-014
  70
    32
  0
VERTEX
  8
0
  5
4D4D
 10
316.929
 20
11.0431
 30
7.93987e-014
  70
    32
  0
VERTEX
  8
0
  5
4D4E
 10
316.927
 20
11.0037
 30
7.93985e-014
  70
    32
  0
VERTEX
  8
0
  5
4D4F
 10
316.925
 20
10.9643
 30
7.93984e-014
  70
    32
  0
VERTEX
  8
0
  5
4D50
 10
316.924
 20
10.9249
 30
7.93982e-014
  70
    32
  0
VERTEX
  8
0
  5
4D51
 10
316.922
 20
10.8854
 30
7.93981e-014
  70
    32
  0
VERTEX
  8
0
  5
4D52
 10
316.920
 20
10.8460
 30
7.93979e-014
  70
    32
  0
VERTEX
  8
0
  5
4D53
 10
316.918
 20
10.8065
 30
7.93977e-014
  70
    32
  0
VERTEX
  8
0
  5
4D54
 10
316.917
 20
10.7670
 30
7.93975e-014
  70
    32
  0
VERTEX
  8
0
  5
4D55
 10
316.915
 20
10.7275
 30
7.93973e-014
  70
    32
  0
VERTEX
  8
0
  5
4D56
 10
316.913
 20
10.6880
 30
7.93971e-014
  70
    32
  0
VERTEX
  8
0
  5
4D57
 10
316.911
 20
10.6485
 30
7.93969e-014
  70
    32
  0
VERTEX
  8
0
  5
4D58
 10
316.909
 20
10.6089
 30
7.93966e-014
  70
    32
  0
VERTEX
  8
0
  5
4D59
 10
316.907
 20
10.5694
 30
7.93964e-014
  70
    32
  0
VERTEX
  8
0
  5
4D5A
 10
316.905
 20
10.5298
 30
7.93961e-014
  70
    32
  0
VERTEX
  8
0
  5
4D5B
 10
316.903
 20
10.4902
 30
7.93959e-014
  70
    32
  0
VERTEX
  8
0
  5
4D5C
 10
316.902
 20
10.4506
 30
7.93956e-014
  70
    32
  0
VERTEX
  8
0
  5
4D5D
 10
316.900
 20
10.4109
 30
7.93953e-014
  70
    32
  0
VERTEX
  8
0
  5
4D5E
 10
316.898
 20
10.3713
 30
7.93950e-014
  70
    32
  0
VERTEX
  8
0
  5
4D5F
 10
316.896
 20
10.3316
 30
7.93947e-014
  70
    32
  0
VERTEX
  8
0
  5
4D60
 10
316.894
 20
10.2919
 30
7.93943e-014
  70
    32
  0
VERTEX
  8
0
  5
4D61
 10
316.892
 20
10.2522
 30
7.93940e-014
  70
    32
  0
VERTEX
  8
0
  5
4D62
 10
316.890
 20
10.2125
 30
7.93936e-014
  70
    32
  0
VERTEX
  8
0
  5
4D63
 10
316.888
 20
10.1728
 30
7.93932e-014
  70
    32
  0
VERTEX
  8
0
  5
4D64
 10
316.886
 20
10.1331
 30
7.93929e-014
  70
    32
  0
VERTEX
  8
0
  5
4D65
 10
316.884
 20
10.0933
 30
7.93924e-014
  70
    32
  0
VERTEX
  8
0
  5
4D66
 10
316.882
 20
10.0535
 30
7.93920e-014
  70
    32
  0
VERTEX
  8
0
  5
4D67
 10
316.880
 20
10.0138
 30
7.93916e-014
  70
    32
  0
VERTEX
  8
0
  5
4D68
 10
316.877
 20
9.97395
 30
7.93911e-014
  70
    32
  0
VERTEX
  8
0
  5
4D69
 10
316.875
 20
9.93414
 30
7.93907e-014
  70
    32
  0
VERTEX
  8
0
  5
4D6A
 10
316.873
 20
9.89432
 30
7.93902e-014
  70
    32
  0
VERTEX
  8
0
  5
4D6B
 10
316.871
 20
9.85448
 30
7.93897e-014
  70
    32
  0
VERTEX
  8
0
  5
4D6C
 10
316.869
 20
9.81463
 30
7.93892e-014
  70
    32
  0
VERTEX
  8
0
  5
4D6D
 10
316.867
 20
9.77476
 30
7.93886e-014
  70
    32
  0
VERTEX
  8
0
  5
4D6E
 10
316.865
 20
9.73488
 30
7.93881e-014
  70
    32
  0
VERTEX
  8
0
  5
4D6F
 10
316.863
 20
9.69499
 30
7.93875e-014
  70
    32
  0
VERTEX
  8
0
  5
4D70
 10
316.860
 20
9.65509
 30
7.93869e-014
  70
    32
  0
VERTEX
  8
0
  5
4D71
 10
316.858
 20
9.61517
 30
7.93863e-014
  70
    32
  0
VERTEX
  8
0
  5
4D72
 10
316.856
 20
9.57525
 30
7.93857e-014
  70
    32
  0
VERTEX
  8
0
  5
4D73
 10
316.854
 20
9.53531
 30
7.93851e-014
  70
    32
  0
VERTEX
  8
0
  5
4D74
 10
316.852
 20
9.49535
 30
7.93844e-014
  70
    32
  0
VERTEX
  8
0
  5
4D75
 10
316.850
 20
9.45539
 30
7.93837e-014
  70
    32
  0
VERTEX
  8
0
  5
4D76
 10
316.847
 20
9.41542
 30
7.93830e-014
  70
    32
  0
VERTEX
  8
0
  5
4D77
 10
316.845
 20
9.37543
 30
7.93823e-014
  70
    32
  0
VERTEX
  8
0
  5
4D78
 10
316.843
 20
9.33543
 30
7.93816e-014
  70
    32
  0
VERTEX
  8
0
  5
4D79
 10
316.841
 20
9.29542
 30
7.93808e-014
  70
    32
  0
VERTEX
  8
0
  5
4D7A
 10
316.838
 20
9.25540
 30
7.93801e-014
  70
    32
  0
VERTEX
  8
0
  5
4D7B
 10
316.836
 20
9.21537
 30
7.93793e-014
  70
    32
  0
VERTEX
  8
0
  5
4D7C
 10
316.834
 20
9.17533
 30
7.93784e-014
  70
    32
  0
VERTEX
  8
0
  5
4D7D
 10
316.832
 20
9.13528
 30
7.93776e-014
  70
    32
  0
VERTEX
  8
0
  5
4D7E
 10
316.829
 20
9.09522
 30
7.93767e-014
  70
    32
  0
VERTEX
  8
0
  5
4D7F
 10
316.827
 20
9.05514
 30
7.93758e-014
  70
    32
  0
VERTEX
  8
0
  5
4D80
 10
316.825
 20
9.01506
 30
7.93749e-014
  70
    32
  0
VERTEX
  8
0
  5
4D81
 10
316.823
 20
8.97497
 30
7.93740e-014
  70
    32
  0
VERTEX
  8
0
  5
4D82
 10
316.820
 20
8.93487
 30
7.93731e-014
  70
    32
  0
VERTEX
  8
0
  5
4D83
 10
316.818
 20
8.89476
 30
7.93721e-014
  70
    32
  0
VERTEX
  8
0
  5
4D84
 10
316.816
 20
8.85464
 30
7.93711e-014
  70
    32
  0
VERTEX
  8
0
  5
4D85
 10
316.813
 20
8.81451
 30
7.93701e-014
  70
    32
  0
VERTEX
  8
0
  5
4D86
 10
316.811
 20
8.77438
 30
7.93690e-014
  70
    32
  0
VERTEX
  8
0
  5
4D87
 10
316.809
 20
8.73423
 30
7.93679e-014
  70
    32
  0
VERTEX
  8
0
  5
4D88
 10
316.806
 20
8.69408
 30
7.93669e-014
  70
    32
  0
VERTEX
  8
0
  5
4D89
 10
316.804
 20
8.65391
 30
7.93657e-014
  70
    32
  0
VERTEX
  8
0
  5
4D8A
 10
316.802
 20
8.61374
 30
7.93646e-014
  70
    32
  0
VERTEX
  8
0
  5
4D8B
 10
316.799
 20
8.57356
 30
7.93634e-014
  70
    32
  0
VERTEX
  8
0
  5
4D8C
 10
316.797
 20
8.53338
 30
7.93622e-014
  70
    32
  0
VERTEX
  8
0
  5
4D8D
 10
316.795
 20
8.49319
 30
7.93610e-014
  70
    32
  0
VERTEX
  8
0
  5
4D8E
 10
316.792
 20
8.45298
 30
7.93598e-014
  70
    32
  0
VERTEX
  8
0
  5
4D8F
 10
316.790
 20
8.41278
 30
7.93585e-014
  70
    32
  0
VERTEX
  8
0
  5
4D90
 10
316.788
 20
8.37256
 30
7.93572e-014
  70
    32
  0
VERTEX
  8
0
  5
4D91
 10
316.785
 20
8.33234
 30
7.93559e-014
  70
    32
  0
VERTEX
  8
0
  5
4D92
 10
316.783
 20
8.29211
 30
7.93545e-014
  70
    32
  0
VERTEX
  8
0
  5
4D93
 10
316.781
 20
8.25187
 30
7.93531e-014
  70
    32
  0
VERTEX
  8
0
  5
4D94
 10
316.778
 20
8.21163
 30
7.93517e-014
  70
    32
  0
VERTEX
  8
0
  5
4D95
 10
316.776
 20
8.17138
 30
7.93503e-014
  70
    32
  0
VERTEX
  8
0
  5
4D96
 10
316.774
 20
8.13113
 30
7.93489e-014
  70
    32
  0
VERTEX
  8
0
  5
4D97
 10
316.771
 20
8.09087
 30
7.93474e-014
  70
    32
  0
VERTEX
  8
0
  5
4D98
 10
316.769
 20
8.05060
 30
7.93461e-014
  70
    32
  0
VERTEX
  8
0
  5
4D99
 10
316.766
 20
8.01033
 30
7.93447e-014
  70
    32
  0
VERTEX
  8
0
  5
4D9A
 10
316.764
 20
7.97005
 30
7.93434e-014
  70
    32
  0
VERTEX
  8
0
  5
4D9B
 10
316.762
 20
7.92977
 30
7.93420e-014
  70
    32
  0
VERTEX
  8
0
  5
4D9C
 10
316.759
 20
7.88948
 30
7.93408e-014
  70
    32
  0
VERTEX
  8
0
  5
4D9D
 10
316.757
 20
7.84919
 30
7.93395e-014
  70
    32
  0
VERTEX
  8
0
  5
4D9E
 10
316.755
 20
7.80889
 30
7.93383e-014
  70
    32
  0
VERTEX
  8
0
  5
4D9F
 10
316.752
 20
7.76859
 30
7.93371e-014
  70
    32
  0
VERTEX
  8
0
  5
4DA0
 10
316.750
 20
7.72828
 30
7.93359e-014
  70
    32
  0
VERTEX
  8
0
  5
4DA1
 10
316.747
 20
7.68797
 30
7.93347e-014
  70
    32
  0
VERTEX
  8
0
  5
4DA2
 10
316.745
 20
7.64766
 30
7.93336e-014
  70
    32
  0
VERTEX
  8
0
  5
4DA3
 10
316.743
 20
7.60734
 30
7.93325e-014
  70
    32
  0
VERTEX
  8
0
  5
4DA4
 10
316.740
 20
7.56701
 30
7.93314e-014
  70
    32
  0
VERTEX
  8
0
  5
4DA5
 10
316.738
 20
7.52669
 30
7.93304e-014
  70
    32
  0
VERTEX
  8
0
  5
4DA6
 10
316.736
 20
7.48636
 30
7.93293e-014
  70
    32
  0
VERTEX
  8
0
  5
4DA7
 10
316.733
 20
7.44602
 30
7.93283e-014
  70
    32
  0
VERTEX
  8
0
  5
4DA8
 10
316.731
 20
7.40569
 30
7.93274e-014
  70
    32
  0
VERTEX
  8
0
  5
4DA9
 10
316.728
 20
7.36535
 30
7.93264e-014
  70
    32
  0
VERTEX
  8
0
  5
4DAA
 10
316.726
 20
7.32501
 30
7.93255e-014
  70
    32
  0
VERTEX
  8
0
  5
4DAB
 10
316.724
 20
7.28466
 30
7.93245e-014
  70
    32
  0
VERTEX
  8
0
  5
4DAC
 10
316.721
 20
7.24432
 30
7.93236e-014
  70
    32
  0
VERTEX
  8
0
  5
4DAD
 10
316.719
 20
7.20397
 30
7.93228e-014
  70
    32
  0
VERTEX
  8
0
  5
4DAE
 10
316.717
 20
7.16362
 30
7.93219e-014
  70
    32
  0
VERTEX
  8
0
  5
4DAF
 10
316.714
 20
7.12327
 30
7.93211e-014
  70
    32
  0
VERTEX
  8
0
  5
4DB0
 10
316.712
 20
7.08291
 30
7.93203e-014
  70
    32
  0
VERTEX
  8
0
  5
4DB1
 10
316.710
 20
7.04256
 30
7.93195e-014
  70
    32
  0
VERTEX
  8
0
  5
4DB2
 10
316.707
 20
7.00220
 30
7.93187e-014
  70
    32
  0
VERTEX
  8
0
  5
4DB3
 10
316.705
 20
6.96185
 30
7.93180e-014
  70
    32
  0
VERTEX
  8
0
  5
4DB4
 10
316.703
 20
6.92149
 30
7.93173e-014
  70
    32
  0
VERTEX
  8
0
  5
4DB5
 10
316.700
 20
6.88113
 30
7.93166e-014
  70
    32
  0
VERTEX
  8
0
  5
4DB6
 10
316.698
 20
6.84078
 30
7.93159e-014
  70
    32
  0
VERTEX
  8
0
  5
4DB7
 10
316.696
 20
6.80042
 30
7.93152e-014
  70
    32
  0
VERTEX
  8
0
  5
4DB8
 10
316.693
 20
6.76006
 30
7.93146e-014
  70
    32
  0
VERTEX
  8
0
  5
4DB9
 10
316.691
 20
6.71970
 30
7.93139e-014
  70
    32
  0
VERTEX
  8
0
  5
4DBA
 10
316.689
 20
6.67934
 30
7.93133e-014
  70
    32
  0
VERTEX
  8
0
  5
4DBB
 10
316.686
 20
6.63899
 30
7.93127e-014
  70
    32
  0
VERTEX
  8
0
  5
4DBC
 10
316.684
 20
6.59863
 30
7.93121e-014
  70
    32
  0
VERTEX
  8
0
  5
4DBD
 10
316.682
 20
6.55827
 30
7.93116e-014
  70
    32
  0
VERTEX
  8
0
  5
4DBE
 10
316.679
 20
6.51792
 30
7.93110e-014
  70
    32
  0
VERTEX
  8
0
  5
4DBF
 10
316.677
 20
6.47757
 30
7.93105e-014
  70
    32
  0
VERTEX
  8
0
  5
4DC0
 10
316.675
 20
6.43722
 30
7.93100e-014
  70
    32
  0
VERTEX
  8
0
  5
4DC1
 10
316.673
 20
6.39687
 30
7.93095e-014
  70
    32
  0
VERTEX
  8
0
  5
4DC2
 10
316.670
 20
6.35652
 30
7.93091e-014
  70
    32
  0
VERTEX
  8
0
  5
4DC3
 10
316.668
 20
6.31617
 30
7.93086e-014
  70
    32
  0
VERTEX
  8
0
  5
4DC4
 10
316.666
 20
6.27583
 30
7.93082e-014
  70
    32
  0
VERTEX
  8
0
  5
4DC5
 10
316.663
 20
6.23549
 30
7.93077e-014
  70
    32
  0
VERTEX
  8
0
  5
4DC6
 10
316.661
 20
6.19515
 30
7.93073e-014
  70
    32
  0
VERTEX
  8
0
  5
4DC7
 10
316.659
 20
6.15481
 30
7.93069e-014
  70
    32
  0
VERTEX
  8
0
  5
4DC8
 10
316.657
 20
6.11448
 30
7.93065e-014
  70
    32
  0
VERTEX
  8
0
  5
4DC9
 10
316.654
 20
6.07415
 30
7.93062e-014
  70
    32
  0
VERTEX
  8
0
  5
4DCA
 10
316.652
 20
6.03383
 30
7.93058e-014
  70
    32
  0
VERTEX
  8
0
  5
4DCB
 10
316.650
 20
5.99350
 30
7.93055e-014
  70
    32
  0
VERTEX
  8
0
  5
4DCC
 10
316.648
 20
5.95319
 30
7.93052e-014
  70
    32
  0
VERTEX
  8
0
  5
4DCD
 10
316.646
 20
5.91287
 30
7.93048e-014
  70
    32
  0
VERTEX
  8
0
  5
4DCE
 10
316.643
 20
5.87256
 30
7.93045e-014
  70
    32
  0
VERTEX
  8
0
  5
4DCF
 10
316.641
 20
5.83225
 30
7.93043e-014
  70
    32
  0
VERTEX
  8
0
  5
4DD0
 10
316.639
 20
5.79195
 30
7.93040e-014
  70
    32
  0
VERTEX
  8
0
  5
4DD1
 10
316.637
 20
5.75165
 30
7.93037e-014
  70
    32
  0
VERTEX
  8
0
  5
4DD2
 10
316.635
 20
5.71136
 30
7.93035e-014
  70
    32
  0
VERTEX
  8
0
  5
4DD3
 10
316.632
 20
5.67107
 30
7.93032e-014
  70
    32
  0
VERTEX
  8
0
  5
4DD4
 10
316.630
 20
5.63079
 30
7.93030e-014
  70
    32
  0
VERTEX
  8
0
  5
4DD5
 10
316.628
 20
5.59052
 30
7.93028e-014
  70
    32
  0
VERTEX
  8
0
  5
4DD6
 10
316.626
 20
5.55024
 30
7.93026e-014
  70
    32
  0
VERTEX
  8
0
  5
4DD7
 10
316.624
 20
5.50998
 30
7.93024e-014
  70
    32
  0
VERTEX
  8
0
  5
4DD8
 10
316.622
 20
5.46972
 30
7.93022e-014
  70
    32
  0
VERTEX
  8
0
  5
4DD9
 10
316.620
 20
5.42947
 30
7.93020e-014
  70
    32
  0
VERTEX
  8
0
  5
4DDA
 10
316.618
 20
5.38922
 30
7.93018e-014
  70
    32
  0
VERTEX
  8
0
  5
4DDB
 10
316.615
 20
5.34898
 30
7.93017e-014
  70
    32
  0
VERTEX
  8
0
  5
4DDC
 10
316.613
 20
5.30875
 30
7.93015e-014
  70
    32
  0
VERTEX
  8
0
  5
4DDD
 10
316.611
 20
5.26852
 30
7.93014e-014
  70
    32
  0
VERTEX
  8
0
  5
4DDE
 10
316.609
 20
5.22830
 30
7.93013e-014
  70
    32
  0
VERTEX
  8
0
  5
4DDF
 10
316.607
 20
5.18809
 30
7.93012e-014
  70
    32
  0
VERTEX
  8
0
  5
4DE0
 10
316.605
 20
5.14788
 30
7.93010e-014
  70
    32
  0
VERTEX
  8
0
  5
4DE1
 10
316.603
 20
5.10769
 30
7.93009e-014
  70
    32
  0
VERTEX
  8
0
  5
4DE2
 10
316.601
 20
5.06750
 30
7.93008e-014
  70
    32
  0
VERTEX
  8
0
  5
4DE3
 10
316.599
 20
5.02732
 30
7.93007e-014
  70
    32
  0
VERTEX
  8
0
  5
4DE4
 10
316.597
 20
4.98714
 30
7.93007e-014
  70
    32
  0
VERTEX
  8
0
  5
4DE5
 10
316.595
 20
4.94698
 30
7.93006e-014
  70
    32
  0
VERTEX
  8
0
  5
4DE6
 10
316.593
 20
4.90682
 30
7.93005e-014
  70
    32
  0
VERTEX
  8
0
  5
4DE7
 10
316.591
 20
4.86667
 30
7.93004e-014
  70
    32
  0
VERTEX
  8
0
  5
4DE8
 10
316.589
 20
4.82654
 30
7.93004e-014
  70
    32
  0
VERTEX
  8
0
  5
4DE9
 10
316.587
 20
4.78641
 30
7.93003e-014
  70
    32
  0
VERTEX
  8
0
  5
4DEA
 10
316.585
 20
4.74629
 30
7.93003e-014
  70
    32
  0
VERTEX
  8
0
  5
4DEB
 10
316.583
 20
4.70618
 30
7.93002e-014
  70
    32
  0
VERTEX
  8
0
  5
4DEC
 10
316.581
 20
4.66608
 30
7.93002e-014
  70
    32
  0
VERTEX
  8
0
  5
4DED
 10
316.579
 20
4.62599
 30
7.93002e-014
  70
    32
  0
VERTEX
  8
0
  5
4DEE
 10
316.578
 20
4.58591
 30
7.93001e-014
  70
    32
  0
VERTEX
  8
0
  5
4DEF
 10
316.576
 20
4.54584
 30
7.93001e-014
  70
    32
  0
VERTEX
  8
0
  5
4DF0
 10
316.574
 20
4.50578
 30
7.93001e-014
  70
    32
  0
VERTEX
  8
0
  5
4DF1
 10
316.572
 20
4.46573
 30
7.93001e-014
  70
    32
  0
VERTEX
  8
0
  5
4DF2
 10
316.570
 20
4.42569
 30
7.93001e-014
  70
    32
  0
VERTEX
  8
0
  5
4DF3
 10
316.568
 20
4.38566
 30
7.93000e-014
  70
    32
  0
VERTEX
  8
0
  5
4DF4
 10
316.567
 20
4.34564
 30
7.93000e-014
  70
    32
  0
VERTEX
  8
0
  5
4DF5
 10
316.565
 20
4.30564
 30
7.93000e-014
  70
    32
  0
VERTEX
  8
0
  5
4DF6
 10
316.563
 20
4.26565
 30
7.93000e-014
  70
    32
  0
VERTEX
  8
0
  5
4DF7
 10
316.561
 20
4.22566
 30
7.93000e-014
  70
    32
  0
VERTEX
  8
0
  5
4DF8
 10
316.559
 20
4.18569
 30
7.93000e-014
  70
    32
  0
VERTEX
  8
0
  5
4DF9
 10
316.558
 20
4.14574
 30
7.93000e-014
  70
    32
  0
VERTEX
  8
0
  5
4DFA
 10
316.556
 20
4.10579
 30
7.93000e-014
  70
    32
  0
VERTEX
  8
0
  5
4DFB
 10
316.554
 20
4.06586
 30
7.93000e-014
  70
    32
  0
VERTEX
  8
0
  5
4DFC
 10
316.552
 20
4.02594
 30
7.93000e-014
  70
    32
  0
VERTEX
  8
0
  5
4DFD
 10
316.551
 20
3.98603
 30
7.93000e-014
  70
    32
  0
VERTEX
  8
0
  5
4DFE
 10
316.549
 20
3.94614
 30
7.93000e-014
  70
    32
  0
VERTEX
  8
0
  5
4DFF
 10
316.547
 20
3.90626
 30
7.93000e-014
  70
    32
  0
VERTEX
  8
0
  5
4E00
 10
316.546
 20
3.86639
 30
7.93000e-014
  70
    32
  0
VERTEX
  8
0
  5
4E01
 10
316.544
 20
3.82654
 30
7.93000e-014
  70
    32
  0
VERTEX
  8
0
  5
4E02
 10
316.543
 20
3.78670
 30
7.93000e-014
  70
    32
  0
VERTEX
  8
0
  5
4E03
 10
316.541
 20
3.74687
 30
7.93000e-014
  70
    32
  0
VERTEX
  8
0
  5
4E04
 10
316.539
 20
3.70706
 30
7.93000e-014
  70
    32
  0
VERTEX
  8
0
  5
4E05
 10
316.538
 20
3.66726
 30
7.93000e-014
  70
    32
  0
VERTEX
  8
0
  5
4E06
 10
316.536
 20
3.62748
 30
7.93000e-014
  70
    32
  0
VERTEX
  8
0
  5
4E07
 10
316.535
 20
3.58771
 30
7.93000e-014
  70
    32
  0
VERTEX
  8
0
  5
4E08
 10
316.533
 20
3.54796
 30
7.93000e-014
  70
    32
  0
VERTEX
  8
0
  5
4E09
 10
316.532
 20
3.50822
 30
7.93000e-014
  70
    32
  0
VERTEX
  8
0
  5
4E0A
 10
316.530
 20
3.46850
 30
7.93000e-014
  70
    32
  0
VERTEX
  8
0
  5
4E0B
 10
316.529
 20
3.42880
 30
7.93000e-014
  70
    32
  0
VERTEX
  8
0
  5
4E0C
 10
316.527
 20
3.38911
 30
7.93000e-014
  70
    32
  0
VERTEX
  8
0
  5
4E0D
 10
316.526
 20
3.34943
 30
7.93000e-014
  70
    32
  0
VERTEX
  8
0
  5
4E0E
 10
316.524
 20
3.30977
 30
7.93000e-014
  70
    32
  0
VERTEX
  8
0
  5
4E0F
 10
316.523
 20
3.27013
 30
7.93000e-014
  70
    32
  0
VERTEX
  8
0
  5
4E10
 10
316.521
 20
3.23051
 30
7.93000e-014
  70
    32
  0
VERTEX
  8
0
  5
4E11
 10
316.520
 20
3.19090
 30
7.93000e-014
  70
    32
  0
VERTEX
  8
0
  5
4E12
 10
316.519
 20
3.15131
 30
7.93000e-014
  70
    32
  0
VERTEX
  8
0
  5
4E13
 10
316.517
 20
3.11173
 30
7.93000e-014
  70
    32
  0
VERTEX
  8
0
  5
4E14
 10
316.516
 20
3.07218
 30
7.93000e-014
  70
    32
  0
VERTEX
  8
0
  5
4E15
 10
316.515
 20
3.03264
 30
7.93000e-014
  70
    32
  0
VERTEX
  8
0
  5
4E16
 10
316.513
 20
2.99312
 30
7.93000e-014
  70
    32
  0
VERTEX
  8
0
  5
4E17
 10
316.512
 20
2.95361
 30
7.93000e-014
  70
    32
  0
VERTEX
  8
0
  5
4E18
 10
316.511
 20
2.91413
 30
7.93000e-014
  70
    32
  0
VERTEX
  8
0
  5
4E19
 10
316.509
 20
2.87466
 30
7.93000e-014
  70
    32
  0
VERTEX
  8
0
  5
4E1A
 10
316.508
 20
2.83521
 30
7.93000e-014
  70
    32
  0
VERTEX
  8
0
  5
4E1B
 10
316.507
 20
2.79578
 30
7.93000e-014
  70
    32
  0
VERTEX
  8
0
  5
4E1C
 10
316.506
 20
2.75637
 30
7.93000e-014
  70
    32
  0
VERTEX
  8
0
  5
4E1D
 10
316.504
 20
2.71698
 30
7.93000e-014
  70
    32
  0
VERTEX
  8
0
  5
4E1E
 10
316.503
 20
2.67761
 30
7.93000e-014
  70
    32
  0
VERTEX
  8
0
  5
4E1F
 10
316.502
 20
2.63825
 30
7.93000e-014
  70
    32
  0
VERTEX
  8
0
  5
4E20
 10
316.501
 20
2.59892
 30
7.93000e-014
  70
    32
  0
VERTEX
  8
0
  5
4E21
 10
316.500
 20
2.55961
 30
7.93000e-014
  70
    32
  0
VERTEX
  8
0
  5
4E22
 10
316.499
 20
2.52032
 30
7.93000e-014
  70
    32
  0
VERTEX
  8
0
  5
4E23
 10
316.498
 20
2.48104
 30
7.93000e-014
  70
    32
  0
VERTEX
  8
0
  5
4E24
 10
316.496
 20
2.44179
 30
7.93000e-014
  70
    32
  0
VERTEX
  8
0
  5
4E25
 10
316.495
 20
2.40256
 30
7.93000e-014
  70
    32
  0
VERTEX
  8
0
  5
4E26
 10
316.494
 20
2.36335
 30
7.93000e-014
  70
    32
  0
VERTEX
  8
0
  5
4E27
 10
316.493
 20
2.32416
 30
7.93000e-014
  70
    32
  0
VERTEX
  8
0
  5
4E28
 10
316.492
 20
2.28499
 30
7.93000e-014
  70
    32
  0
VERTEX
  8
0
  5
4E29
 10
316.491
 20
2.24584
 30
7.93000e-014
  70
    32
  0
VERTEX
  8
0
  5
4E2A
 10
316.490
 20
2.20672
 30
7.93000e-014
  70
    32
  0
VERTEX
  8
0
  5
4E2B
 10
316.489
 20
2.16761
 30
7.93000e-014
  70
    32
  0
VERTEX
  8
0
  5
4E2C
 10
316.488
 20
2.12853
 30
7.93000e-014
  70
    32
  0
VERTEX
  8
0
  5
4E2D
 10
316.487
 20
2.08947
 30
7.93000e-014
  70
    32
  0
VERTEX
  8
0
  5
4E2E
 10
316.486
 20
2.05044
 30
7.93000e-014
  70
    32
  0
VERTEX
  8
0
  5
4E2F
 10
316.485
 20
2.01142
 30
7.93000e-014
  70
    32
  0
VERTEX
  8
0
  5
4E30
 10
316.485
 20
1.97243
 30
7.93000e-014
  70
    32
  0
VERTEX
  8
0
  5
4E31
 10
316.484
 20
1.93346
 30
7.93000e-014
  70
    32
  0
VERTEX
  8
0
  5
4E32
 10
316.483
 20
1.89452
 30
7.93000e-014
  70
    32
  0
VERTEX
  8
0
  5
4E33
 10
316.482
 20
1.85560
 30
7.93000e-014
  70
    32
  0
VERTEX
  8
0
  5
4E34
 10
316.481
 20
1.81670
 30
7.93000e-014
  70
    32
  0
VERTEX
  8
0
  5
4E35
 10
316.480
 20
1.77782
 30
7.93000e-014
  70
    32
  0
VERTEX
  8
0
  5
4E36
 10
316.480
 20
1.73897
 30
7.93000e-014
  70
    32
  0
VERTEX
  8
0
  5
4E37
 10
316.479
 20
1.70015
 30
7.93000e-014
  70
    32
  0
VERTEX
  8
0
  5
4E38
 10
316.478
 20
1.66135
 30
7.93000e-014
  70
    32
  0
VERTEX
  8
0
  5
4E39
 10
316.477
 20
1.62257
 30
7.93000e-014
  70
    32
  0
VERTEX
  8
0
  5
4E3A
 10
316.477
 20
1.58382
 30
7.93000e-014
  70
    32
  0
VERTEX
  8
0
  5
4E3B
 10
316.476
 20
1.54509
 30
7.93000e-014
  70
    32
  0
VERTEX
  8
0
  5
4E3C
 10
316.475
 20
1.50639
 30
7.93000e-014
  70
    32
  0
VERTEX
  8
0
  5
4E3D
 10
316.475
 20
1.46771
 30
7.93000e-014
  70
    32
  0
VERTEX
  8
0
  5
4E3E
 10
316.474
 20
1.42906
 30
7.93000e-014
  70
    32
  0
VERTEX
  8
0
  5
4E3F
 10
316.473
 20
1.39044
 30
7.93000e-014
  70
    32
  0
VERTEX
  8
0
  5
4E40
 10
316.473
 20
1.35184
 30
7.93000e-014
  70
    32
  0
VERTEX
  8
0
  5
4E41
 10
316.472
 20
1.31326
 30
7.93000e-014
  70
    32
  0
VERTEX
  8
0
  5
4E42
 10
316.472
 20
1.27472
 30
7.93000e-014
  70
    32
  0
VERTEX
  8
0
  5
4E43
 10
316.471
 20
1.23620
 30
7.93000e-014
  70
    32
  0
VERTEX
  8
0
  5
4E44
 10
316.470
 20
1.19770
 30
7.93000e-014
  70
    32
  0
VERTEX
  8
0
  5
4E45
 10
316.470
 20
1.15924
 30
7.93000e-014
  70
    32
  0
VERTEX
  8
0
  5
4E46
 10
316.469
 20
1.12080
 30
7.93000e-014
  70
    32
  0
VERTEX
  8
0
  5
4E47
 10
316.469
 20
1.08239
 30
7.93000e-014
  70
    32
  0
VERTEX
  8
0
  5
4E48
 10
316.468
 20
1.04400
 30
7.93000e-014
  70
    32
  0
VERTEX
  8
0
  5
4E49
 10
316.468
 20
1.00565
 30
7.93000e-014
  70
    32
  0
VERTEX
  8
0
  5
4E4A
 10
316.467
 20
0.967317
 30
7.93000e-014
  70
    32
  0
VERTEX
  8
0
  5
4E4B
 10
316.467
 20
0.929016
 30
7.93000e-014
  70
    32
  0
VERTEX
  8
0
  5
4E4C
 10
316.467
 20
0.890744
 30
7.93000e-014
  70
    32
  0
VERTEX
  8
0
  5
4E4D
 10
316.466
 20
0.852501
 30
7.93000e-014
  70
    32
  0
VERTEX
  8
0
  5
4E4E
 10
316.466
 20
0.814286
 30
7.93000e-014
  70
    32
  0
VERTEX
  8
0
  5
4E4F
 10
316.466
 20
0.776101
 30
7.93000e-014
  70
    32
  0
VERTEX
  8
0
  5
4E50
 10
316.465
 20
0.737944
 30
7.93000e-014
  70
    32
  0
VERTEX
  8
0
  5
4E51
 10
316.465
 20
0.699817
 30
7.93000e-014
  70
    32
  0
VERTEX
  8
0
  5
4E52
 10
316.465
 20
0.661719
 30
7.93000e-014
  70
    32
  0
VERTEX
  8
0
  5
4E53
 10
316.464
 20
0.623651
 30
7.93000e-014
  70
    32
  0
VERTEX
  8
0
  5
4E54
 10
316.464
 20
0.585613
 30
7.93000e-014
  70
    32
  0
VERTEX
  8
0
  5
4E55
 10
316.464
 20
0.547605
 30
7.93000e-014
  70
    32
  0
VERTEX
  8
0
  5
4E56
 10
316.464
 20
0.509628
 30
7.93000e-014
  70
    32
  0
VERTEX
  8
0
  5
4E57
 10
316.463
 20
0.471681
 30
7.93000e-014
  70
    32
  0
VERTEX
  8
0
  5
4E58
 10
316.463
 20
0.433765
 30
7.93000e-014
  70
    32
  0
VERTEX
  8
0
  5
4E59
 10
316.463
 20
0.395879
 30
7.93000e-014
  70
    32
  0
VERTEX
  8
0
  5
4E5A
 10
316.463
 20
0.358025
 30
7.93000e-014
  70
    32
  0
VERTEX
  8
0
  5
4E5B
 10
316.463
 20
0.320202
 30
7.93000e-014
  70
    32
  0
VERTEX
  8
0
  5
4E5C
 10
316.462
 20
0.282411
 30
7.93000e-014
  70
    32
  0
VERTEX
  8
0
  5
4E5D
 10
316.462
 20
0.244651
 30
7.93000e-014
  70
    32
  0
VERTEX
  8
0
  5
4E5E
 10
316.462
 20
0.206923
 30
7.93000e-014
  70
    32
  0
VERTEX
  8
0
  5
4E5F
 10
316.462
 20
0.169228
 30
7.93000e-014
  70
    32
  0
VERTEX
  8
0
  5
4E60
 10
316.462
 20
0.131564
 30
7.93000e-014
  70
    32
  0
VERTEX
  8
0
  5
4E61
 10
316.462
 20
0.0939335
 30
7.93000e-014
  70
    32
  0
VERTEX
  8
0
  5
4E62
 10
316.462
 20
0.0563354
 30
7.93000e-014
  70
    32
  0
VERTEX
  8
0
  5
4E63
 10
316.462
 20
0.0187702
 30
7.93000e-014
  70
    32
  0
VERTEX
  8
0
  5
4E64
 10
316.462
 20
-0.0187702
 30
7.93000e-014
  70
    32
  0
VERTEX
  8
0
  5
4E65
 10
316.462
 20
-0.0563354
 30
7.93000e-014
  70
    32
  0
VERTEX
  8
0
  5
4E66
 10
316.462
 20
-0.0939335
 30
7.93000e-014
  70
    32
  0
VERTEX
  8
0
  5
4E67
 10
316.462
 20
-0.131564
 30
7.93000e-014
  70
    32
  0
VERTEX
  8
0
  5
4E68
 10
316.462
 20
-0.169228
 30
7.93000e-014
  70
    32
  0
VERTEX
  8
0
  5
4E69
 10
316.462
 20
-0.206923
 30
7.93000e-014
  70
    32
  0
VERTEX
  8
0
  5
4E6A
 10
316.462
 20
-0.244651
 30
7.93000e-014
  70
    32
  0
VERTEX
  8
0
  5
4E6B
 10
316.462
 20
-0.282411
 30
7.93000e-014
  70
    32
  0
VERTEX
  8
0
  5
4E6C
 10
316.463
 20
-0.320202
 30
7.93000e-014
  70
    32
  0
VERTEX
  8
0
  5
4E6D
 10
316.463
 20
-0.358025
 30
7.93000e-014
  70
    32
  0
VERTEX
  8
0
  5
4E6E
 10
316.463
 20
-0.395879
 30
7.93000e-014
  70
    32
  0
VERTEX
  8
0
  5
4E6F
 10
316.463
 20
-0.433765
 30
7.93000e-014
  70
    32
  0
VERTEX
  8
0
  5
4E70
 10
316.463
 20
-0.471681
 30
7.93000e-014
  70
    32
  0
VERTEX
  8
0
  5
4E71
 10
316.464
 20
-0.509628
 30
7.93000e-014
  70
    32
  0
VERTEX
  8
0
  5
4E72
 10
316.464
 20
-0.547605
 30
7.93000e-014
  70
    32
  0
VERTEX
  8
0
  5
4E73
 10
316.464
 20
-0.585613
 30
7.93000e-014
  70
    32
  0
VERTEX
  8
0
  5
4E74
 10
316.464
 20
-0.623651
 30
7.93000e-014
  70
    32
  0
VERTEX
  8
0
  5
4E75
 10
316.465
 20
-0.661719
 30
7.93000e-014
  70
    32
  0
VERTEX
  8
0
  5
4E76
 10
316.465
 20
-0.699817
 30
7.93000e-014
  70
    32
  0
VERTEX
  8
0
  5
4E77
 10
316.465
 20
-0.737944
 30
7.93000e-014
  70
    32
  0
VERTEX
  8
0
  5
4E78
 10
316.466
 20
-0.776101
 30
7.93000e-014
  70
    32
  0
VERTEX
  8
0
  5
4E79
 10
316.466
 20
-0.814286
 30
7.93000e-014
  70
    32
  0
VERTEX
  8
0
  5
4E7A
 10
316.466
 20
-0.852501
 30
7.93000e-014
  70
    32
  0
VERTEX
  8
0
  5
4E7B
 10
316.467
 20
-0.890744
 30
7.93000e-014
  70
    32
  0
VERTEX
  8
0
  5
4E7C
 10
316.467
 20
-0.929016
 30
7.93000e-014
  70
    32
  0
VERTEX
  8
0
  5
4E7D
 10
316.467
 20
-0.967317
 30
7.93000e-014
  70
    32
  0
VERTEX
  8
0
  5
4E7E
 10
316.468
 20
-1.00565
 30
7.93000e-014
  70
    32
  0
VERTEX
  8
0
  5
4E7F
 10
316.468
 20
-1.04400
 30
7.93000e-014
  70
    32
  0
VERTEX
  8
0
  5
4E80
 10
316.469
 20
-1.08239
 30
7.93000e-014
  70
    32
  0
VERTEX
  8
0
  5
4E81
 10
316.469
 20
-1.12080
 30
7.93000e-014
  70
    32
  0
VERTEX
  8
0
  5
4E82
 10
316.470
 20
-1.15924
 30
7.93000e-014
  70
    32
  0
VERTEX
  8
0
  5
4E83
 10
316.470
 20
-1.19770
 30
7.93000e-014
  70
    32
  0
VERTEX
  8
0
  5
4E84
 10
316.471
 20
-1.23620
 30
7.93000e-014
  70
    32
  0
VERTEX
  8
0
  5
4E85
 10
316.472
 20
-1.27472
 30
7.93000e-014
  70
    32
  0
VERTEX
  8
0
  5
4E86
 10
316.472
 20
-1.31326
 30
7.93000e-014
  70
    32
  0
VERTEX
  8
0
  5
4E87
 10
316.473
 20
-1.35184
 30
7.93000e-014
  70
    32
  0
VERTEX
  8
0
  5
4E88
 10
316.473
 20
-1.39044
 30
7.93000e-014
  70
    32
  0
VERTEX
  8
0
  5
4E89
 10
316.474
 20
-1.42906
 30
7.93000e-014
  70
    32
  0
VERTEX
  8
0
  5
4E8A
 10
316.475
 20
-1.46771
 30
7.93000e-014
  70
    32
  0
VERTEX
  8
0
  5
4E8B
 10
316.475
 20
-1.50639
 30
7.93000e-014
  70
    32
  0
VERTEX
  8
0
  5
4E8C
 10
316.476
 20
-1.54509
 30
7.93000e-014
  70
    32
  0
VERTEX
  8
0
  5
4E8D
 10
316.477
 20
-1.58382
 30
7.93000e-014
  70
    32
  0
VERTEX
  8
0
  5
4E8E
 10
316.477
 20
-1.62257
 30
7.93000e-014
  70
    32
  0
VERTEX
  8
0
  5
4E8F
 10
316.478
 20
-1.66135
 30
7.93000e-014
  70
    32
  0
VERTEX
  8
0
  5
4E90
 10
316.479
 20
-1.70015
 30
7.93000e-014
  70
    32
  0
VERTEX
  8
0
  5
4E91
 10
316.480
 20
-1.73897
 30
7.93000e-014
  70
    32
  0
VERTEX
  8
0
  5
4E92
 10
316.480
 20
-1.77782
 30
7.93000e-014
  70
    32
  0
VERTEX
  8
0
  5
4E93
 10
316.481
 20
-1.81670
 30
7.93000e-014
  70
    32
  0
VERTEX
  8
0
  5
4E94
 10
316.482
 20
-1.85560
 30
7.93000e-014
  70
    32
  0
VERTEX
  8
0
  5
4E95
 10
316.483
 20
-1.89452
 30
7.93000e-014
  70
    32
  0
VERTEX
  8
0
  5
4E96
 10
316.484
 20
-1.93346
 30
7.93000e-014
  70
    32
  0
VERTEX
  8
0
  5
4E97
 10
316.485
 20
-1.97243
 30
7.93000e-014
  70
    32
  0
VERTEX
  8
0
  5
4E98
 10
316.485
 20
-2.01142
 30
7.93000e-014
  70
    32
  0
VERTEX
  8
0
  5
4E99
 10
316.486
 20
-2.05044
 30
7.93000e-014
  70
    32
  0
VERTEX
  8
0
  5
4E9A
 10
316.487
 20
-2.08947
 30
7.93000e-014
  70
    32
  0
VERTEX
  8
0
  5
4E9B
 10
316.488
 20
-2.12853
 30
7.93000e-014
  70
    32
  0
VERTEX
  8
0
  5
4E9C
 10
316.489
 20
-2.16761
 30
7.93000e-014
  70
    32
  0
VERTEX
  8
0
  5
4E9D
 10
316.490
 20
-2.20672
 30
7.93000e-014
  70
    32
  0
VERTEX
  8
0
  5
4E9E
 10
316.491
 20
-2.24584
 30
7.93000e-014
  70
    32
  0
VERTEX
  8
0
  5
4E9F
 10
316.492
 20
-2.28499
 30
7.93000e-014
  70
    32
  0
VERTEX
  8
0
  5
4EA0
 10
316.493
 20
-2.32416
 30
7.93000e-014
  70
    32
  0
VERTEX
  8
0
  5
4EA1
 10
316.494
 20
-2.36335
 30
7.93000e-014
  70
    32
  0
VERTEX
  8
0
  5
4EA2
 10
316.495
 20
-2.40256
 30
7.93000e-014
  70
    32
  0
VERTEX
  8
0
  5
4EA3
 10
316.496
 20
-2.44179
 30
7.93000e-014
  70
    32
  0
VERTEX
  8
0
  5
4EA4
 10
316.498
 20
-2.48104
 30
7.93000e-014
  70
    32
  0
VERTEX
  8
0
  5
4EA5
 10
316.499
 20
-2.52032
 30
7.93000e-014
  70
    32
  0
VERTEX
  8
0
  5
4EA6
 10
316.500
 20
-2.55961
 30
7.93000e-014
  70
    32
  0
VERTEX
  8
0
  5
4EA7
 10
316.501
 20
-2.59892
 30
7.93000e-014
  70
    32
  0
VERTEX
  8
0
  5
4EA8
 10
316.502
 20
-2.63825
 30
7.93000e-014
  70
    32
  0
VERTEX
  8
0
  5
4EA9
 10
316.503
 20
-2.67761
 30
7.93000e-014
  70
    32
  0
VERTEX
  8
0
  5
4EAA
 10
316.504
 20
-2.71698
 30
7.93000e-014
  70
    32
  0
VERTEX
  8
0
  5
4EAB
 10
316.506
 20
-2.75637
 30
7.93000e-014
  70
    32
  0
VERTEX
  8
0
  5
4EAC
 10
316.507
 20
-2.79578
 30
7.93000e-014
  70
    32
  0
VERTEX
  8
0
  5
4EAD
 10
316.508
 20
-2.83521
 30
7.93000e-014
  70
    32
  0
VERTEX
  8
0
  5
4EAE
 10
316.509
 20
-2.87466
 30
7.93000e-014
  70
    32
  0
VERTEX
  8
0
  5
4EAF
 10
316.511
 20
-2.91413
 30
7.93000e-014
  70
    32
  0
VERTEX
  8
0
  5
4EB0
 10
316.512
 20
-2.95361
 30
7.93000e-014
  70
    32
  0
VERTEX
  8
0
  5
4EB1
 10
316.513
 20
-2.99312
 30
7.93000e-014
  70
    32
  0
VERTEX
  8
0
  5
4EB2
 10
316.515
 20
-3.03264
 30
7.93000e-014
  70
    32
  0
VERTEX
  8
0
  5
4EB3
 10
316.516
 20
-3.07218
 30
7.93000e-014
  70
    32
  0
VERTEX
  8
0
  5
4EB4
 10
316.517
 20
-3.11173
 30
7.93000e-014
  70
    32
  0
VERTEX
  8
0
  5
4EB5
 10
316.519
 20
-3.15131
 30
7.93000e-014
  70
    32
  0
VERTEX
  8
0
  5
4EB6
 10
316.520
 20
-3.19090
 30
7.93000e-014
  70
    32
  0
VERTEX
  8
0
  5
4EB7
 10
316.521
 20
-3.23051
 30
7.93000e-014
  70
    32
  0
VERTEX
  8
0
  5
4EB8
 10
316.523
 20
-3.27013
 30
7.93000e-014
  70
    32
  0
VERTEX
  8
0
  5
4EB9
 10
316.524
 20
-3.30977
 30
7.93000e-014
  70
    32
  0
VERTEX
  8
0
  5
4EBA
 10
316.526
 20
-3.34943
 30
7.93000e-014
  70
    32
  0
VERTEX
  8
0
  5
4EBB
 10
316.527
 20
-3.38911
 30
7.93000e-014
  70
    32
  0
VERTEX
  8
0
  5
4EBC
 10
316.529
 20
-3.42880
 30
7.93000e-014
  70
    32
  0
VERTEX
  8
0
  5
4EBD
 10
316.530
 20
-3.46850
 30
7.93000e-014
  70
    32
  0
VERTEX
  8
0
  5
4EBE
 10
316.532
 20
-3.50822
 30
7.93000e-014
  70
    32
  0
VERTEX
  8
0
  5
4EBF
 10
316.533
 20
-3.54796
 30
7.93000e-014
  70
    32
  0
VERTEX
  8
0
  5
4EC0
 10
316.535
 20
-3.58771
 30
7.93000e-014
  70
    32
  0
VERTEX
  8
0
  5
4EC1
 10
316.536
 20
-3.62748
 30
7.93000e-014
  70
    32
  0
VERTEX
  8
0
  5
4EC2
 10
316.538
 20
-3.66726
 30
7.93000e-014
  70
    32
  0
VERTEX
  8
0
  5
4EC3
 10
316.539
 20
-3.70706
 30
7.93000e-014
  70
    32
  0
VERTEX
  8
0
  5
4EC4
 10
316.541
 20
-3.74687
 30
7.93000e-014
  70
    32
  0
VERTEX
  8
0
  5
4EC5
 10
316.543
 20
-3.78670
 30
7.93000e-014
  70
    32
  0
VERTEX
  8
0
  5
4EC6
 10
316.544
 20
-3.82654
 30
7.93000e-014
  70
    32
  0
VERTEX
  8
0
  5
4EC7
 10
316.546
 20
-3.86639
 30
7.93000e-014
  70
    32
  0
VERTEX
  8
0
  5
4EC8
 10
316.547
 20
-3.90626
 30
7.93000e-014
  70
    32
  0
VERTEX
  8
0
  5
4EC9
 10
316.549
 20
-3.94614
 30
7.93000e-014
  70
    32
  0
VERTEX
  8
0
  5
4ECA
 10
316.551
 20
-3.98603
 30
7.93000e-014
  70
    32
  0
VERTEX
  8
0
  5
4ECB
 10
316.552
 20
-4.02594
 30
7.93000e-014
  70
    32
  0
VERTEX
  8
0
  5
4ECC
 10
316.554
 20
-4.06586
 30
7.93000e-014
  70
    32
  0
VERTEX
  8
0
  5
4ECD
 10
316.556
 20
-4.10579
 30
7.93000e-014
  70
    32
  0
VERTEX
  8
0
  5
4ECE
 10
316.558
 20
-4.14574
 30
7.93000e-014
  70
    32
  0
VERTEX
  8
0
  5
4ECF
 10
316.559
 20
-4.18569
 30
7.93000e-014
  70
    32
  0
VERTEX
  8
0
  5
4ED0
 10
316.561
 20
-4.22566
 30
7.93000e-014
  70
    32
  0
VERTEX
  8
0
  5
4ED1
 10
316.563
 20
-4.26565
 30
7.93000e-014
  70
    32
  0
VERTEX
  8
0
  5
4ED2
 10
316.565
 20
-4.30564
 30
7.93000e-014
  70
    32
  0
VERTEX
  8
0
  5
4ED3
 10
316.567
 20
-4.34564
 30
7.93000e-014
  70
    32
  0
VERTEX
  8
0
  5
4ED4
 10
316.568
 20
-4.38566
 30
7.93000e-014
  70
    32
  0
VERTEX
  8
0
  5
4ED5
 10
316.570
 20
-4.42569
 30
7.93001e-014
  70
    32
  0
VERTEX
  8
0
  5
4ED6
 10
316.572
 20
-4.46573
 30
7.93001e-014
  70
    32
  0
VERTEX
  8
0
  5
4ED7
 10
316.574
 20
-4.50578
 30
7.93001e-014
  70
    32
  0
VERTEX
  8
0
  5
4ED8
 10
316.576
 20
-4.54584
 30
7.93001e-014
  70
    32
  0
VERTEX
  8
0
  5
4ED9
 10
316.578
 20
-4.58591
 30
7.93001e-014
  70
    32
  0
VERTEX
  8
0
  5
4EDA
 10
316.579
 20
-4.62599
 30
7.93002e-014
  70
    32
  0
VERTEX
  8
0
  5
4EDB
 10
316.581
 20
-4.66608
 30
7.93002e-014
  70
    32
  0
VERTEX
  8
0
  5
4EDC
 10
316.583
 20
-4.70618
 30
7.93002e-014
  70
    32
  0
VERTEX
  8
0
  5
4EDD
 10
316.585
 20
-4.74629
 30
7.93003e-014
  70
    32
  0
VERTEX
  8
0
  5
4EDE
 10
316.587
 20
-4.78641
 30
7.93003e-014
  70
    32
  0
VERTEX
  8
0
  5
4EDF
 10
316.589
 20
-4.82654
 30
7.93004e-014
  70
    32
  0
VERTEX
  8
0
  5
4EE0
 10
316.591
 20
-4.86667
 30
7.93004e-014
  70
    32
  0
VERTEX
  8
0
  5
4EE1
 10
316.593
 20
-4.90682
 30
7.93005e-014
  70
    32
  0
VERTEX
  8
0
  5
4EE2
 10
316.595
 20
-4.94698
 30
7.93006e-014
  70
    32
  0
VERTEX
  8
0
  5
4EE3
 10
316.597
 20
-4.98714
 30
7.93007e-014
  70
    32
  0
VERTEX
  8
0
  5
4EE4
 10
316.599
 20
-5.02732
 30
7.93007e-014
  70
    32
  0
VERTEX
  8
0
  5
4EE5
 10
316.601
 20
-5.06750
 30
7.93008e-014
  70
    32
  0
VERTEX
  8
0
  5
4EE6
 10
316.603
 20
-5.10769
 30
7.93009e-014
  70
    32
  0
VERTEX
  8
0
  5
4EE7
 10
316.605
 20
-5.14788
 30
7.93010e-014
  70
    32
  0
VERTEX
  8
0
  5
4EE8
 10
316.607
 20
-5.18809
 30
7.93012e-014
  70
    32
  0
VERTEX
  8
0
  5
4EE9
 10
316.609
 20
-5.22830
 30
7.93013e-014
  70
    32
  0
VERTEX
  8
0
  5
4EEA
 10
316.611
 20
-5.26852
 30
7.93014e-014
  70
    32
  0
VERTEX
  8
0
  5
4EEB
 10
316.613
 20
-5.30875
 30
7.93015e-014
  70
    32
  0
VERTEX
  8
0
  5
4EEC
 10
316.615
 20
-5.34898
 30
7.93017e-014
  70
    32
  0
VERTEX
  8
0
  5
4EED
 10
316.618
 20
-5.38922
 30
7.93018e-014
  70
    32
  0
VERTEX
  8
0
  5
4EEE
 10
316.620
 20
-5.42947
 30
7.93020e-014
  70
    32
  0
VERTEX
  8
0
  5
4EEF
 10
316.622
 20
-5.46972
 30
7.93022e-014
  70
    32
  0
VERTEX
  8
0
  5
4EF0
 10
316.624
 20
-5.50998
 30
7.93024e-014
  70
    32
  0
VERTEX
  8
0
  5
4EF1
 10
316.626
 20
-5.55024
 30
7.93026e-014
  70
    32
  0
VERTEX
  8
0
  5
4EF2
 10
316.628
 20
-5.59052
 30
7.93028e-014
  70
    32
  0
VERTEX
  8
0
  5
4EF3
 10
316.630
 20
-5.63079
 30
7.93030e-014
  70
    32
  0
VERTEX
  8
0
  5
4EF4
 10
316.632
 20
-5.67107
 30
7.93032e-014
  70
    32
  0
VERTEX
  8
0
  5
4EF5
 10
316.635
 20
-5.71136
 30
7.93035e-014
  70
    32
  0
VERTEX
  8
0
  5
4EF6
 10
316.637
 20
-5.75165
 30
7.93037e-014
  70
    32
  0
VERTEX
  8
0
  5
4EF7
 10
316.639
 20
-5.79195
 30
7.93040e-014
  70
    32
  0
VERTEX
  8
0
  5
4EF8
 10
316.641
 20
-5.83225
 30
7.93043e-014
  70
    32
  0
VERTEX
  8
0
  5
4EF9
 10
316.643
 20
-5.87256
 30
7.93045e-014
  70
    32
  0
VERTEX
  8
0
  5
4EFA
 10
316.646
 20
-5.91287
 30
7.93048e-014
  70
    32
  0
VERTEX
  8
0
  5
4EFB
 10
316.648
 20
-5.95319
 30
7.93052e-014
  70
    32
  0
VERTEX
  8
0
  5
4EFC
 10
316.650
 20
-5.99350
 30
7.93055e-014
  70
    32
  0
VERTEX
  8
0
  5
4EFD
 10
316.652
 20
-6.03383
 30
7.93058e-014
  70
    32
  0
VERTEX
  8
0
  5
4EFE
 10
316.654
 20
-6.07415
 30
7.93062e-014
  70
    32
  0
VERTEX
  8
0
  5
4EFF
 10
316.657
 20
-6.11448
 30
7.93065e-014
  70
    32
  0
VERTEX
  8
0
  5
4F00
 10
316.659
 20
-6.15481
 30
7.93069e-014
  70
    32
  0
VERTEX
  8
0
  5
4F01
 10
316.661
 20
-6.19515
 30
7.93073e-014
  70
    32
  0
VERTEX
  8
0
  5
4F02
 10
316.663
 20
-6.23549
 30
7.93077e-014
  70
    32
  0
VERTEX
  8
0
  5
4F03
 10
316.666
 20
-6.27583
 30
7.93082e-014
  70
    32
  0
VERTEX
  8
0
  5
4F04
 10
316.668
 20
-6.31617
 30
7.93086e-014
  70
    32
  0
VERTEX
  8
0
  5
4F05
 10
316.670
 20
-6.35652
 30
7.93091e-014
  70
    32
  0
VERTEX
  8
0
  5
4F06
 10
316.673
 20
-6.39687
 30
7.93095e-014
  70
    32
  0
VERTEX
  8
0
  5
4F07
 10
316.675
 20
-6.43722
 30
7.93100e-014
  70
    32
  0
VERTEX
  8
0
  5
4F08
 10
316.677
 20
-6.47757
 30
7.93105e-014
  70
    32
  0
VERTEX
  8
0
  5
4F09
 10
316.679
 20
-6.51792
 30
7.93110e-014
  70
    32
  0
VERTEX
  8
0
  5
4F0A
 10
316.682
 20
-6.55827
 30
7.93116e-014
  70
    32
  0
VERTEX
  8
0
  5
4F0B
 10
316.684
 20
-6.59863
 30
7.93121e-014
  70
    32
  0
VERTEX
  8
0
  5
4F0C
 10
316.686
 20
-6.63899
 30
7.93127e-014
  70
    32
  0
VERTEX
  8
0
  5
4F0D
 10
316.689
 20
-6.67934
 30
7.93133e-014
  70
    32
  0
VERTEX
  8
0
  5
4F0E
 10
316.691
 20
-6.71970
 30
7.93139e-014
  70
    32
  0
VERTEX
  8
0
  5
4F0F
 10
316.693
 20
-6.76006
 30
7.93146e-014
  70
    32
  0
VERTEX
  8
0
  5
4F10
 10
316.696
 20
-6.80042
 30
7.93152e-014
  70
    32
  0
VERTEX
  8
0
  5
4F11
 10
316.698
 20
-6.84078
 30
7.93159e-014
  70
    32
  0
VERTEX
  8
0
  5
4F12
 10
316.700
 20
-6.88113
 30
7.93166e-014
  70
    32
  0
VERTEX
  8
0
  5
4F13
 10
316.703
 20
-6.92149
 30
7.93173e-014
  70
    32
  0
VERTEX
  8
0
  5
4F14
 10
316.705
 20
-6.96185
 30
7.93180e-014
  70
    32
  0
VERTEX
  8
0
  5
4F15
 10
316.707
 20
-7.00220
 30
7.93187e-014
  70
    32
  0
VERTEX
  8
0
  5
4F16
 10
316.710
 20
-7.04256
 30
7.93195e-014
  70
    32
  0
VERTEX
  8
0
  5
4F17
 10
316.712
 20
-7.08291
 30
7.93203e-014
  70
    32
  0
VERTEX
  8
0
  5
4F18
 10
316.714
 20
-7.12327
 30
7.93211e-014
  70
    32
  0
VERTEX
  8
0
  5
4F19
 10
316.717
 20
-7.16362
 30
7.93219e-014
  70
    32
  0
VERTEX
  8
0
  5
4F1A
 10
316.719
 20
-7.20397
 30
7.93228e-014
  70
    32
  0
VERTEX
  8
0
  5
4F1B
 10
316.721
 20
-7.24432
 30
7.93236e-014
  70
    32
  0
VERTEX
  8
0
  5
4F1C
 10
316.724
 20
-7.28466
 30
7.93245e-014
  70
    32
  0
VERTEX
  8
0
  5
4F1D
 10
316.726
 20
-7.32501
 30
7.93255e-014
  70
    32
  0
VERTEX
  8
0
  5
4F1E
 10
316.728
 20
-7.36535
 30
7.93264e-014
  70
    32
  0
VERTEX
  8
0
  5
4F1F
 10
316.731
 20
-7.40569
 30
7.93274e-014
  70
    32
  0
VERTEX
  8
0
  5
4F20
 10
316.733
 20
-7.44602
 30
7.93283e-014
  70
    32
  0
VERTEX
  8
0
  5
4F21
 10
316.736
 20
-7.48636
 30
7.93293e-014
  70
    32
  0
VERTEX
  8
0
  5
4F22
 10
316.738
 20
-7.52669
 30
7.93304e-014
  70
    32
  0
VERTEX
  8
0
  5
4F23
 10
316.740
 20
-7.56701
 30
7.93314e-014
  70
    32
  0
VERTEX
  8
0
  5
4F24
 10
316.743
 20
-7.60734
 30
7.93325e-014
  70
    32
  0
VERTEX
  8
0
  5
4F25
 10
316.745
 20
-7.64766
 30
7.93336e-014
  70
    32
  0
VERTEX
  8
0
  5
4F26
 10
316.747
 20
-7.68797
 30
7.93347e-014
  70
    32
  0
VERTEX
  8
0
  5
4F27
 10
316.750
 20
-7.72828
 30
7.93359e-014
  70
    32
  0
VERTEX
  8
0
  5
4F28
 10
316.752
 20
-7.76859
 30
7.93371e-014
  70
    32
  0
VERTEX
  8
0
  5
4F29
 10
316.755
 20
-7.80889
 30
7.93383e-014
  70
    32
  0
VERTEX
  8
0
  5
4F2A
 10
316.757
 20
-7.84919
 30
7.93395e-014
  70
    32
  0
VERTEX
  8
0
  5
4F2B
 10
316.759
 20
-7.88948
 30
7.93408e-014
  70
    32
  0
VERTEX
  8
0
  5
4F2C
 10
316.762
 20
-7.92977
 30
7.93420e-014
  70
    32
  0
VERTEX
  8
0
  5
4F2D
 10
316.764
 20
-7.97005
 30
7.93434e-014
  70
    32
  0
VERTEX
  8
0
  5
4F2E
 10
316.766
 20
-8.01033
 30
7.93447e-014
  70
    32
  0
VERTEX
  8
0
  5
4F2F
 10
316.769
 20
-8.05060
 30
7.93461e-014
  70
    32
  0
VERTEX
  8
0
  5
4F30
 10
316.771
 20
-8.09087
 30
7.93474e-014
  70
    32
  0
VERTEX
  8
0
  5
4F31
 10
316.774
 20
-8.13113
 30
7.93489e-014
  70
    32
  0
VERTEX
  8
0
  5
4F32
 10
316.776
 20
-8.17138
 30
7.93503e-014
  70
    32
  0
VERTEX
  8
0
  5
4F33
 10
316.778
 20
-8.21163
 30
7.93517e-014
  70
    32
  0
VERTEX
  8
0
  5
4F34
 10
316.781
 20
-8.25187
 30
7.93531e-014
  70
    32
  0
VERTEX
  8
0
  5
4F35
 10
316.783
 20
-8.29211
 30
7.93545e-014
  70
    32
  0
VERTEX
  8
0
  5
4F36
 10
316.785
 20
-8.33234
 30
7.93559e-014
  70
    32
  0
VERTEX
  8
0
  5
4F37
 10
316.788
 20
-8.37256
 30
7.93572e-014
  70
    32
  0
VERTEX
  8
0
  5
4F38
 10
316.790
 20
-8.41278
 30
7.93585e-014
  70
    32
  0
VERTEX
  8
0
  5
4F39
 10
316.792
 20
-8.45298
 30
7.93598e-014
  70
    32
  0
VERTEX
  8
0
  5
4F3A
 10
316.795
 20
-8.49319
 30
7.93610e-014
  70
    32
  0
VERTEX
  8
0
  5
4F3B
 10
316.797
 20
-8.53338
 30
7.93622e-014
  70
    32
  0
VERTEX
  8
0
  5
4F3C
 10
316.799
 20
-8.57356
 30
7.93634e-014
  70
    32
  0
VERTEX
  8
0
  5
4F3D
 10
316.802
 20
-8.61374
 30
7.93646e-014
  70
    32
  0
VERTEX
  8
0
  5
4F3E
 10
316.804
 20
-8.65391
 30
7.93657e-014
  70
    32
  0
VERTEX
  8
0
  5
4F3F
 10
316.806
 20
-8.69408
 30
7.93669e-014
  70
    32
  0
VERTEX
  8
0
  5
4F40
 10
316.809
 20
-8.73423
 30
7.93679e-014
  70
    32
  0
VERTEX
  8
0
  5
4F41
 10
316.811
 20
-8.77438
 30
7.93690e-014
  70
    32
  0
VERTEX
  8
0
  5
4F42
 10
316.813
 20
-8.81451
 30
7.93701e-014
  70
    32
  0
VERTEX
  8
0
  5
4F43
 10
316.816
 20
-8.85464
 30
7.93711e-014
  70
    32
  0
VERTEX
  8
0
  5
4F44
 10
316.818
 20
-8.89476
 30
7.93721e-014
  70
    32
  0
VERTEX
  8
0
  5
4F45
 10
316.820
 20
-8.93487
 30
7.93731e-014
  70
    32
  0
VERTEX
  8
0
  5
4F46
 10
316.823
 20
-8.97497
 30
7.93740e-014
  70
    32
  0
VERTEX
  8
0
  5
4F47
 10
316.825
 20
-9.01506
 30
7.93749e-014
  70
    32
  0
VERTEX
  8
0
  5
4F48
 10
316.827
 20
-9.05514
 30
7.93758e-014
  70
    32
  0
VERTEX
  8
0
  5
4F49
 10
316.829
 20
-9.09522
 30
7.93767e-014
  70
    32
  0
VERTEX
  8
0
  5
4F4A
 10
316.832
 20
-9.13528
 30
7.93776e-014
  70
    32
  0
VERTEX
  8
0
  5
4F4B
 10
316.834
 20
-9.17533
 30
7.93784e-014
  70
    32
  0
VERTEX
  8
0
  5
4F4C
 10
316.836
 20
-9.21537
 30
7.93793e-014
  70
    32
  0
VERTEX
  8
0
  5
4F4D
 10
316.838
 20
-9.25540
 30
7.93801e-014
  70
    32
  0
VERTEX
  8
0
  5
4F4E
 10
316.841
 20
-9.29542
 30
7.93808e-014
  70
    32
  0
VERTEX
  8
0
  5
4F4F
 10
316.843
 20
-9.33543
 30
7.93816e-014
  70
    32
  0
VERTEX
  8
0
  5
4F50
 10
316.845
 20
-9.37543
 30
7.93823e-014
  70
    32
  0
VERTEX
  8
0
  5
4F51
 10
316.847
 20
-9.41542
 30
7.93830e-014
  70
    32
  0
VERTEX
  8
0
  5
4F52
 10
316.850
 20
-9.45539
 30
7.93837e-014
  70
    32
  0
VERTEX
  8
0
  5
4F53
 10
316.852
 20
-9.49535
 30
7.93844e-014
  70
    32
  0
VERTEX
  8
0
  5
4F54
 10
316.854
 20
-9.53531
 30
7.93851e-014
  70
    32
  0
VERTEX
  8
0
  5
4F55
 10
316.856
 20
-9.57525
 30
7.93857e-014
  70
    32
  0
VERTEX
  8
0
  5
4F56
 10
316.858
 20
-9.61517
 30
7.93863e-014
  70
    32
  0
VERTEX
  8
0
  5
4F57
 10
316.860
 20
-9.65509
 30
7.93869e-014
  70
    32
  0
VERTEX
  8
0
  5
4F58
 10
316.863
 20
-9.69499
 30
7.93875e-014
  70
    32
  0
VERTEX
  8
0
  5
4F59
 10
316.865
 20
-9.73488
 30
7.93881e-014
  70
    32
  0
VERTEX
  8
0
  5
4F5A
 10
316.867
 20
-9.77476
 30
7.93886e-014
  70
    32
  0
VERTEX
  8
0
  5
4F5B
 10
316.869
 20
-9.81463
 30
7.93892e-014
  70
    32
  0
VERTEX
  8
0
  5
4F5C
 10
316.871
 20
-9.85448
 30
7.93897e-014
  70
    32
  0
VERTEX
  8
0
  5
4F5D
 10
316.873
 20
-9.89432
 30
7.93902e-014
  70
    32
  0
VERTEX
  8
0
  5
4F5E
 10
316.875
 20
-9.93414
 30
7.93907e-014
  70
    32
  0
VERTEX
  8
0
  5
4F5F
 10
316.877
 20
-9.97395
 30
7.93911e-014
  70
    32
  0
VERTEX
  8
0
  5
4F60
 10
316.880
 20
-10.0138
 30
7.93916e-014
  70
    32
  0
VERTEX
  8
0
  5
4F61
 10
316.882
 20
-10.0535
 30
7.93920e-014
  70
    32
  0
VERTEX
  8
0
  5
4F62
 10
316.884
 20
-10.0933
 30
7.93924e-014
  70
    32
  0
VERTEX
  8
0
  5
4F63
 10
316.886
 20
-10.1331
 30
7.93929e-014
  70
    32
  0
VERTEX
  8
0
  5
4F64
 10
316.888
 20
-10.1728
 30
7.93932e-014
  70
    32
  0
VERTEX
  8
0
  5
4F65
 10
316.890
 20
-10.2125
 30
7.93936e-014
  70
    32
  0
VERTEX
  8
0
  5
4F66
 10
316.892
 20
-10.2522
 30
7.93940e-014
  70
    32
  0
VERTEX
  8
0
  5
4F67
 10
316.894
 20
-10.2919
 30
7.93943e-014
  70
    32
  0
VERTEX
  8
0
  5
4F68
 10
316.896
 20
-10.3316
 30
7.93947e-014
  70
    32
  0
VERTEX
  8
0
  5
4F69
 10
316.898
 20
-10.3713
 30
7.93950e-014
  70
    32
  0
VERTEX
  8
0
  5
4F6A
 10
316.900
 20
-10.4109
 30
7.93953e-014
  70
    32
  0
VERTEX
  8
0
  5
4F6B
 10
316.902
 20
-10.4506
 30
7.93956e-014
  70
    32
  0
VERTEX
  8
0
  5
4F6C
 10
316.903
 20
-10.4902
 30
7.93959e-014
  70
    32
  0
VERTEX
  8
0
  5
4F6D
 10
316.905
 20
-10.5298
 30
7.93961e-014
  70
    32
  0
VERTEX
  8
0
  5
4F6E
 10
316.907
 20
-10.5694
 30
7.93964e-014
  70
    32
  0
VERTEX
  8
0
  5
4F6F
 10
316.909
 20
-10.6089
 30
7.93966e-014
  70
    32
  0
VERTEX
  8
0
  5
4F70
 10
316.911
 20
-10.6485
 30
7.93969e-014
  70
    32
  0
VERTEX
  8
0
  5
4F71
 10
316.913
 20
-10.6880
 30
7.93971e-014
  70
    32
  0
VERTEX
  8
0
  5
4F72
 10
316.915
 20
-10.7275
 30
7.93973e-014
  70
    32
  0
VERTEX
  8
0
  5
4F73
 10
316.917
 20
-10.7670
 30
7.93975e-014
  70
    32
  0
VERTEX
  8
0
  5
4F74
 10
316.918
 20
-10.8065
 30
7.93977e-014
  70
    32
  0
VERTEX
  8
0
  5
4F75
 10
316.920
 20
-10.8460
 30
7.93979e-014
  70
    32
  0
VERTEX
  8
0
  5
4F76
 10
316.922
 20
-10.8854
 30
7.93981e-014
  70
    32
  0
VERTEX
  8
0
  5
4F77
 10
316.924
 20
-10.9249
 30
7.93982e-014
  70
    32
  0
VERTEX
  8
0
  5
4F78
 10
316.925
 20
-10.9643
 30
7.93984e-014
  70
    32
  0
VERTEX
  8
0
  5
4F79
 10
316.927
 20
-11.0037
 30
7.93985e-014
  70
    32
  0
VERTEX
  8
0
  5
4F7A
 10
316.929
 20
-11.0431
 30
7.93987e-014
  70
    32
  0
VERTEX
  8
0
  5
4F7B
 10
316.931
 20
-11.0824
 30
7.93988e-014
  70
    32
  0
VERTEX
  8
0
  5
4F7C
 10
316.932
 20
-11.1218
 30
7.93989e-014
  70
    32
  0
VERTEX
  8
0
  5
4F7D
 10
316.934
 20
-11.1611
 30
7.93990e-014
  70
    32
  0
VERTEX
  8
0
  5
4F7E
 10
316.936
 20
-11.2004
 30
7.93991e-014
  70
    32
  0
VERTEX
  8
0
  5
4F7F
 10
316.937
 20
-11.2397
 30
7.93992e-014
  70
    32
  0
VERTEX
  8
0
  5
4F80
 10
316.939
 20
-11.2789
 30
7.93993e-014
  70
    32
  0
VERTEX
  8
0
  5
4F81
 10
316.941
 20
-11.3182
 30
7.93994e-014
  70
    32
  0
VERTEX
  8
0
  5
4F82
 10
316.942
 20
-11.3574
 30
7.93995e-014
  70
    32
  0
VERTEX
  8
0
  5
4F83
 10
316.944
 20
-11.3966
 30
7.93995e-014
  70
    32
  0
VERTEX
  8
0
  5
4F84
 10
316.945
 20
-11.4358
 30
7.93996e-014
  70
    32
  0
VERTEX
  8
0
  5
4F85
 10
316.947
 20
-11.4749
 30
7.93996e-014
  70
    32
  0
VERTEX
  8
0
  5
4F86
 10
316.948
 20
-11.5141
 30
7.93997e-014
  70
    32
  0
VERTEX
  8
0
  5
4F87
 10
316.950
 20
-11.5532
 30
7.93997e-014
  70
    32
  0
VERTEX
  8
0
  5
4F88
 10
316.951
 20
-11.5923
 30
7.93998e-014
  70
    32
  0
VERTEX
  8
0
  5
4F89
 10
316.953
 20
-11.6314
 30
7.93998e-014
  70
    32
  0
VERTEX
  8
0
  5
4F8A
 10
316.954
 20
-11.6704
 30
7.93998e-014
  70
    32
  0
VERTEX
  8
0
  5
4F8B
 10
316.956
 20
-11.7095
 30
7.93999e-014
  70
    32
  0
VERTEX
  8
0
  5
4F8C
 10
316.957
 20
-11.7485
 30
7.93999e-014
  70
    32
  0
VERTEX
  8
0
  5
4F8D
 10
316.958
 20
-11.7875
 30
7.93999e-014
  70
    32
  0
VERTEX
  8
0
  5
4F8E
 10
316.960
 20
-11.8265
 30
7.93999e-014
  70
    32
  0
VERTEX
  8
0
  5
4F8F
 10
316.961
 20
-11.8654
 30
7.94000e-014
  70
    32
  0
VERTEX
  8
0
  5
4F90
 10
316.962
 20
-11.9043
 30
7.94000e-014
  70
    32
  0
VERTEX
  8
0
  5
4F91
 10
316.964
 20
-11.9433
 30
7.94000e-014
  70
    32
  0
VERTEX
  8
0
  5
4F92
 10
316.965
 20
-11.9821
 30
7.94000e-014
  70
    32
  0
VERTEX
  8
0
  5
4F93
 10
316.966
 20
-12.0210
 30
7.94000e-014
  70
    32
  0
VERTEX
  8
0
  5
4F94
 10
316.967
 20
-12.0598
 30
7.94000e-014
  70
    32
  0
VERTEX
  8
0
  5
4F95
 10
316.969
 20
-12.0987
 30
7.94000e-014
  70
    32
  0
VERTEX
  8
0
  5
4F96
 10
316.970
 20
-12.1374
 30
7.94000e-014
  70
    32
  0
VERTEX
  8
0
  5
4F97
 10
316.971
 20
-12.1762
 30
7.94000e-014
  70
    32
  0
VERTEX
  8
0
  5
4F98
 10
316.972
 20
-12.2150
 30
7.94000e-014
  70
    32
  0
VERTEX
  8
0
  5
4F99
 10
316.973
 20
-12.2537
 30
7.94000e-014
  70
    32
  0
VERTEX
  8
0
  5
4F9A
 10
316.974
 20
-12.2924
 30
7.94000e-014
  70
    32
  0
VERTEX
  8
0
  5
4F9B
 10
316.975
 20
-12.3310
 30
7.94000e-014
  70
    32
  0
VERTEX
  8
0
  5
4F9C
 10
316.976
 20
-12.3697
 30
7.94000e-014
  70
    32
  0
VERTEX
  8
0
  5
4F9D
 10
316.978
 20
-12.4083
 30
7.94000e-014
  70
    32
  0
VERTEX
  8
0
  5
4F9E
 10
316.979
 20
-12.4469
 30
7.94000e-014
  70
    32
  0
VERTEX
  8
0
  5
4F9F
 10
316.980
 20
-12.4855
 30
7.94000e-014
  70
    32
  0
VERTEX
  8
0
  5
4FA0
 10
316.980
 20
-12.5240
 30
7.94000e-014
  70
    32
  0
VERTEX
  8
0
  5
4FA1
 10
316.981
 20
-12.5626
 30
7.94000e-014
  70
    32
  0
VERTEX
  8
0
  5
4FA2
 10
316.982
 20
-12.6011
 30
7.94000e-014
  70
    32
  0
VERTEX
  8
0
  5
4FA3
 10
316.983
 20
-12.6395
 30
7.94000e-014
  70
    32
  0
VERTEX
  8
0
  5
4FA4
 10
316.984
 20
-12.6780
 30
7.94000e-014
  70
    32
  0
VERTEX
  8
0
  5
4FA5
 10
316.985
 20
-12.7164
 30
7.94000e-014
  70
    32
  0
VERTEX
  8
0
  5
4FA6
 10
316.986
 20
-12.7548
 30
7.94000e-014
  70
    32
  0
VERTEX
  8
0
  5
4FA7
 10
316.987
 20
-12.7932
 30
7.94000e-014
  70
    32
  0
VERTEX
  8
0
  5
4FA8
 10
316.987
 20
-12.8315
 30
7.94000e-014
  70
    32
  0
VERTEX
  8
0
  5
4FA9
 10
316.988
 20
-12.8699
 30
7.94000e-014
  70
    32
  0
VERTEX
  8
0
  5
4FAA
 10
316.989
 20
-12.9082
 30
7.94000e-014
  70
    32
  0
VERTEX
  8
0
  5
4FAB
 10
316.989
 20
-12.9464
 30
7.94000e-014
  70
    32
  0
VERTEX
  8
0
  5
4FAC
 10
316.990
 20
-12.9847
 30
7.94000e-014
  70
    32
  0
VERTEX
  8
0
  5
4FAD
 10
316.991
 20
-13.0229
 30
7.94000e-014
  70
    32
  0
VERTEX
  8
0
  5
4FAE
 10
316.991
 20
-13.0611
 30
7.94000e-014
  70
    32
  0
VERTEX
  8
0
  5
4FAF
 10
316.992
 20
-13.0992
 30
7.94000e-014
  70
    32
  0
VERTEX
  8
0
  5
4FB0
 10
316.993
 20
-13.1373
 30
7.94000e-014
  70
    32
  0
VERTEX
  8
0
  5
4FB1
 10
316.993
 20
-13.1755
 30
7.94000e-014
  70
    32
  0
VERTEX
  8
0
  5
4FB2
 10
316.994
 20
-13.2135
 30
7.94000e-014
  70
    32
  0
VERTEX
  8
0
  5
4FB3
 10
316.994
 20
-13.2516
 30
7.94000e-014
  70
    32
  0
VERTEX
  8
0
  5
4FB4
 10
316.995
 20
-13.2896
 30
7.94000e-014
  70
    32
  0
VERTEX
  8
0
  5
4FB5
 10
316.995
 20
-13.3276
 30
7.94000e-014
  70
    32
  0
VERTEX
  8
0
  5
4FB6
 10
316.995
 20
-13.3656
 30
7.94000e-014
  70
    32
  0
VERTEX
  8
0
  5
4FB7
 10
316.996
 20
-13.4035
 30
7.94000e-014
  70
    32
  0
VERTEX
  8
0
  5
4FB8
 10
316.996
 20
-13.4414
 30
7.94000e-014
  70
    32
  0
VERTEX
  8
0
  5
4FB9
 10
316.996
 20
-13.4793
 30
7.94000e-014
  70
    32
  0
VERTEX
  8
0
  5
4FBA
 10
316.997
 20
-13.5171
 30
7.94000e-014
  70
    32
  0
VERTEX
  8
0
  5
4FBB
 10
316.997
 20
-13.5549
 30
7.94000e-014
  70
    32
  0
VERTEX
  8
0
  5
4FBC
 10
316.997
 20
-13.5927
 30
7.94000e-014
  70
    32
  0
VERTEX
  8
0
  5
4FBD
 10
316.997
 20
-13.6305
 30
7.94000e-014
  70
    32
  0
VERTEX
  8
0
  5
4FBE
 10
316.997
 20
-13.6682
 30
7.94000e-014
  70
    32
  0
VERTEX
  8
0
  5
4FBF
 10
316.998
 20
-13.7059
 30
7.94000e-014
  70
    32
  0
VERTEX
  8
0
  5
4FC0
 10
316.998
 20
-13.7436
 30
7.94000e-014
  70
    32
  0
VERTEX
  8
0
  5
4FC1
 10
316.998
 20
-13.7812
 30
7.94000e-014
  70
    32
  0
VERTEX
  8
0
  5
4FC2
 10
316.998
 20
-13.8188
 30
7.94000e-014
  70
    32
  0
VERTEX
  8
0
  5
4FC3
 10
316.998
 20
-13.8564
 30
7.94000e-014
  70
    32
  0
SEQEND
  8
0
  5
4FC4
  0
LINE
  5
42EE
  8
0
  6
VERDECKT
 62
     1
 10
316.99786454863602
 20
127.0000000000003
 30
0.0000000000000853
 11
316.99786454863602
 21
-126.9999999999996
 31
0.0000000000000853
  0
LINE
  5
42EF
  8
0
  6
VERDECKT
 62
     1
 10
314.99572566983471
 20
-124.9978611211979
 30
0.0000000000000782
 11
314.99786454863653
 21
-124.9999999999997
 31
0.0000000000000782
  0
LINE
  5
42F0
  8
0
  6
VERDECKT
 62
     1
 10
316.99786454863602
 20
127.0000000000003
 30
0.0000000000000782
 11
314.99786454863619
 21
125.0000000000005
 31
0.0000000000000782
  0
LINE
  5
42F1
  8
0
  6
VERDECKT
 62
     1
 10
114.9978645486362
 20
125.0
 30
0.0000000000000284
 11
112.997864548636
 21
127.0000000000003
 31
0.0000000000000284
  0
LINE
  5
42F2
  8
0
  6
VERDECKT
 62
     1
 10
314.99786454863619
 20
-124.9999999999999
 30
0.0000000000000782
 11
316.99786454863602
 21
-126.9999999999997
 31
0.0000000000000782
  0
LINE
  5
42F3
  8
0
  6
VERDECKT
 62
     1
 10
314.99786454863653
 20
125.0000000000003
 30
0.0000000000000782
 11
314.99572566983471
 21
124.9978611211984
 31
0.0000000000000782
  0
LINE
  5
42F4
  8
0
  6
VERDECKT
 62
     1
 10
116.9978645486364
 20
123.0000000000003
 30
0.0000000000000284
 11
114.9978645486364
 21
125.0000000000003
 31
0.0000000000000284
  0
LINE
  5
42F5
  8
0
  6
VERDECKT
 62
     1
 10
112.997864548636
 20
-126.9999999999997
 30
0.0000000000000284
 11
114.9978645486362
 21
-124.9999999999994
 31
0.0000000000000284
  0
LINE
  5
42F6
  8
0
  6
VERDECKT
 62
     1
 10
114.9978645486364
 20
-124.9999999999997
 30
0.0000000000000284
 11
116.9978645486364
 21
-122.9999999999997
 31
0.0000000000000284
  0
LINE
  5
42F7
  8
0
  6
VERDECKT
 62
     1
 10
114.997864548636
 20
-124.9999999999997
 30
0.0000000000000289
 11
114.997864548636
 21
125.0000000000003
 31
0.0000000000000289
  0
LINE
  5
42F8
  8
0
  6
VERDECKT
 62
     1
 10
214.1694374238898
 20
-124.9999999999997
 30
0.0000000000000537
 11
190.9999999999998
 21
-124.9999999999997
 31
0.0000000000000479
  0
LINE
  5
42F9
  8
0
  6
VERDECKT
 62
     1
 10
130.0
 20
-124.9999999999997
 30
0.0000000000000326
 11
114.997864548636
 21
-124.9999999999997
 31
0.0000000000000289
  0
LINE
  5
42FA
  8
0
  6
VERDECKT
 62
     1
 10
215.0
 20
-124.9999999999997
 30
0.0000000000000537
 11
214.1694374238898
 21
-124.9999999999997
 31
0.0000000000000537
  0
LINE
  5
42FB
  8
0
  6
VERDECKT
 62
     1
 10
214.1694374238898
 20
125.0000000000003
 30
0.0000000000000537
 11
215.0
 21
125.0000000000003
 31
0.0000000000000537
  0
LINE
  5
42FC
  8
0
  6
VERDECKT
 62
     1
 10
114.997864548636
 20
125.0000000000003
 30
0.0000000000000289
 11
130.0
 21
125.0000000000003
 31
0.0000000000000326
  0
LINE
  5
42FD
  8
0
  6
VERDECKT
 62
     1
 10
190.9999999999998
 20
125.0000000000003
 30
0.0000000000000477
 11
214.1694374238898
 21
125.0000000000003
 31
0.0000000000000535
  0
LINE
  5
42FE
  8
0
  6
VERDECKT
 62
     1
 10
216.99786454863559
 20
-126.9999999999997
 30
0.0000000000000542
 11
316.99786454863602
 21
-126.9999999999997
 31
0.0000000000000826
  0
LINE
  5
42FF
  8
0
  6
VERDECKT
 62
     1
 10
316.99786454863602
 20
127.0000000000003
 30
0.0000000000000853
 11
216.9978645486355
 21
127.0000000000003
 31
0.0000000000000568
  0
LINE
  5
4300
  8
0
  6
VERDECKT
 62
     1
 10
214.16943742388929
 20
-126.9999999999997
 30
0.0000000000000537
 11
216.99786454863559
 21
-126.9999999999997
 31
0.0000000000000542
  0
LINE
  5
4301
  8
0
  6
VERDECKT
 62
     1
 10
112.997864548636
 20
127.0000000000003
 30
0.0000000000000282
 11
112.997864548636
 21
-126.9999999999997
 31
0.0000000000000282
  0
LINE
  5
4302
  8
0
  6
VERDECKT
 62
     1
 10
214.16943742388929
 20
127.0000000000003
 30
0.0000000000000537
 11
112.997864548636
 21
127.0000000000003
 31
0.0000000000000284
  0
LINE
  5
4303
  8
0
  6
VERDECKT
 62
     1
 10
112.997864548636
 20
-126.9999999999997
 30
0.0000000000000282
 11
214.16943742388929
 21
-126.9999999999997
 31
0.0000000000000535
  0
LINE
  5
4304
  8
0
  6
VERDECKT
 62
     1
 10
216.99786454863559
 20
127.0000000000003
 30
0.0000000000000542
 11
214.16943742388929
 21
127.0000000000003
 31
0.0000000000000537
  0
LINE
  5
4305
  8
0
  6
VERDECKT
 62
     1
 10
316.99786454863602
 20
-48.999999999999687
 30
0.0000000000000795
 11
314.99786454863562
 21
-48.999999999999687
 31
0.000000000000079
  0
LINE
  5
4306
  8
0
  6
VERDECKT
 62
     1
 10
316.99786454863602
 20
49.000000000000313
 30
0.0000000000000795
 11
314.99786454863562
 21
49.000000000000313
 31
0.000000000000079
  0
ENDBLK
  5
4308
  8
0
  0
ENDSEC
  0
SECTION
  2
ENTITIES
  0
INSERT
  5
4230
  8
BEM
  2
A$C58C55520
 10
981.35948114285009
 20
58.68744318254312
 30
0.0
  0
INSERT
  5
4309
  8
BEM
  2
A$C64592669
 10
981.35948114285009
 20
-413.20080345577583
 30
0.0
  0
VIEWPORT
  5
3914
 67
     1
  8
0
 10
5.1348365237314706
 20
5.3153708014013077
 30
0.0
 40
15.0362226531131
 41
7.0867045515317066
 68
     1
 69
     1
1001
ACAD
1000
MVIEW
1002
{
1070
    16
1010
0.0
1020
0.0
1030
0.0
1010
0.0
1020
0.0
1030
1.0
1040
0.0
1040
7.0867045515317066
1040
5.1348365237314706
1040
5.3153708014013077
1040
50.0
1040
0.0
1040
0.0
1070
     0
1070
   500
1070
     1
1070
     1
1070
     0
1070
     0
1070
     0
1070
     0
1040
0.0
1040
0.0
1040
0.0
1040
10.0
1040
10.0
1040
10.0
1040
10.0
1070
     0
1002
{
1002
}
1002
}
  0
ENDSEC
  0
EOF
