  0
SECTION
  2
HEADER
  9
$ACADVER
  1
AC1009
  9
$INSBASE
 10
0.0
 20
0.0
 30
0.0
  9
$EXTMIN
 10
-31.5000320571281591
 20
-0.00000000000002
 30
-0.0000000000002439
  9
$EXTMAX
 10
31.5000320571281591
 20
1090.0
 30
0.0
  9
$LIMMIN
 10
0.0
 20
0.0
  9
$LIMMAX
 10
210.0
 20
297.0
  9
$ORTHOMODE
 70
     1
  9
$REGENMODE
 70
     1
  9
$FILLMODE
 70
     1
  9
$QTEXTMODE
 70
     0
  9
$MIRRTEXT
 70
     1
  9
$DRAGMODE
 70
     2
  9
$LTSCALE
 40
10.0
  9
$OSMODE
 70
  2559
  9
$ATTMODE
 70
     1
  9
$TEXTSIZE
 40
3.5
  9
$TRACEWID
 40
0.5
  9
$TEXTSTYLE
  7
STANDARD
  9
$CLAYER
  8
STEMPEL
  9
$CELTYPE
  6
BYLAYER
  9
$CECOLOR
 62
   256
  9
$DIMSCALE
 40
1.0
  9
$DIMASZ
 40
3.5
  9
$DIMEXO
 40
1.0
  9
$DIMDLI
 40
7.0
  9
$DIMRND
 40
0.0
  9
$DIMDLE
 40
0.0
  9
$DIMEXE
 40
1.0
  9
$DIMTP
 40
0.0
  9
$DIMTM
 40
0.0
  9
$DIMTXT
 40
3.5
  9
$DIMCEN
 40
1.5
  9
$DIMTSZ
 40
0.0
  9
$DIMTOL
 70
     0
  9
$DIMLIM
 70
     0
  9
$DIMTIH
 70
     0
  9
$DIMTOH
 70
     0
  9
$DIMSE1
 70
     0
  9
$DIMSE2
 70
     0
  9
$DIMTAD
 70
     1
  9
$DIMZIN
 70
     8
  9
$DIMBLK
  1

  9
$DIMASO
 70
     1
  9
$DIMSHO
 70
     0
  9
$DIMPOST
  1

  9
$DIMAPOST
  1

  9
$DIMALT
 70
     0
  9
$DIMALTD
 70
     2
  9
$DIMALTF
 40
25.3999999999999986
  9
$DIMLFAC
 40
1.0
  9
$DIMTOFL
 70
     1
  9
$DIMTVP
 40
0.0
  9
$DIMTIX
 70
     0
  9
$DIMSOXD
 70
     0
  9
$DIMSAH
 70
     0
  9
$DIMBLK1
  1

  9
$DIMBLK2
  1

  9
$DIMSTYLE
  2
STANDARD
  9
$DIMCLRD
 70
     0
  9
$DIMCLRE
 70
     0
  9
$DIMCLRT
 70
     1
  9
$DIMTFAC
 40
0.5142857142857143
  9
$DIMGAP
 40
1.5
  9
$LUNITS
 70
     2
  9
$LUPREC
 70
     2
  9
$SKETCHINC
 40
1.0
  9
$FILLETRAD
 40
0.0
  9
$AUNITS
 70
     0
  9
$AUPREC
 70
     0
  9
$MENU
  1
ACAD
  9
$ELEVATION
 40
0.0
  9
$PELEVATION
 40
0.0
  9
$THICKNESS
 40
0.0
  9
$LIMCHECK
 70
     0
  9
$BLIPMODE
 70
     0
  9
$CHAMFERA
 40
0.0
  9
$CHAMFERB
 40
0.0
  9
$SKPOLY
 70
     0
  9
$TDCREATE
 40
2455397.8646990740671754
  9
$TDUPDATE
 40
2458701.4333101850934327
  9
$TDINDWG
 40
0.3946082176
  9
$TDUSRTIMER
 40
0.3946082176
  9
$USRTIMER
 70
     1
  9
$ANGBASE
 50
0.0
  9
$ANGDIR
 70
     0
  9
$PDMODE
 70
     0
  9
$PDSIZE
 40
0.0
  9
$PLINEWID
 40
0.0
  9
$COORDS
 70
     1
  9
$SPLFRAME
 70
     0
  9
$SPLINETYPE
 70
     6
  9
$SPLINESEGS
 70
     8
  9
$ATTDIA
 70
     1
  9
$ATTREQ
 70
     1
  9
$HANDLING
 70
     1
  9
$HANDSEED
  5
D1B
  9
$SURFTAB1
 70
     6
  9
$SURFTAB2
 70
     6
  9
$SURFTYPE
 70
     6
  9
$SURFU
 70
     6
  9
$SURFV
 70
     6
  9
$UCSNAME
  2

  9
$UCSORG
 10
0.0
 20
0.0
 30
0.0
  9
$UCSXDIR
 10
1.0
 20
0.0
 30
0.0
  9
$UCSYDIR
 10
0.0
 20
1.0
 30
0.0
  9
$PUCSNAME
  2

  9
$PUCSORG
 10
0.0
 20
0.0
 30
0.0
  9
$PUCSXDIR
 10
1.0
 20
0.0
 30
0.0
  9
$PUCSYDIR
 10
0.0
 20
1.0
 30
0.0
  9
$USERI1
 70
     0
  9
$USERI2
 70
     0
  9
$USERI3
 70
     0
  9
$USERI4
 70
     0
  9
$USERI5
 70
     0
  9
$USERR1
 40
0.0
  9
$USERR2
 40
0.0
  9
$USERR3
 40
0.0
  9
$USERR4
 40
0.0
  9
$USERR5
 40
0.0
  9
$WORLDVIEW
 70
     1
  9
$SHADEDGE
 70
     3
  9
$SHADEDIF
 70
    70
  9
$TILEMODE
 70
     1
  9
$MAXACTVP
 70
    16
  9
$PLIMCHECK
 70
     0
  9
$PEXTMIN
 10
1.0000000000000000E+20
 20
1.0000000000000000E+20
 30
1.0000000000000000E+20
  9
$PEXTMAX
 10
-1.0000000000000000E+20
 20
-1.0000000000000000E+20
 30
-1.0000000000000000E+20
  9
$PLIMMIN
 10
-5.7377403142605372
 20
-3.1785532041511759
  9
$PLIMMAX
 10
204.470575707625386
 20
294.1221170311956143
  9
$UNITMODE
 70
     0
  9
$VISRETAIN
 70
     0
  9
$PLINEGEN
 70
     0
  9
$PSLTSCALE
 70
     0
  0
ENDSEC
  0
SECTION
  2
TABLES
  0
TABLE
  2
VPORT
 70
     1
  0
VPORT
  2
*ACTIVE
 70
     0
 10
0.0
 20
0.0
 11
1.0
 21
1.0
 12
-0.0000000000001137
 22
0.0000000000001137
 13
0.0
 23
0.0
 14
1.0
 24
1.0
 15
10.0
 25
10.0
 16
-0.0000000000006235
 26
0.0
 36
2807.8240398048019415
 17
0.0
 27
545.0
 37
-0.000000000000121
 40
1095.5564995751910828
 41
1.868197278911564
 42
50.0
 43
0.0
 44
0.0
 50
0.0
 51
0.0
 71
     0
 72
  1500
 73
     1
 74
     0
 75
     0
 76
     0
 77
     0
 78
     0
  0
ENDTAB
  0
TABLE
  2
LTYPE
 70
     6
  0
LTYPE
  2
CONTINUOUS
 70
     0
  3
Solid line
 72
    65
 73
     0
 40
0.0
  0
LTYPE
  2
VERDECKT
 70
     0
  3
_ _ _ _ _ _ _ _ _ _ _ _ _ _ _ _ _ _ _ _ _ _ _
 72
    65
 73
     2
 40
0.375
 49
0.25
 49
-0.125
  0
ENDTAB
  0
TABLE
  2
LAYER
 70
    16
  0
LAYER
  2
0
 70
     0
 62
     7
  6
CONTINUOUS
  0
LAYER
  2
VOLL
 70
     0
 62
     1
  6
CONTINUOUS
  0
LAYER
  2
STEMPEL
 70
     0
 62
     3
  6
CONTINUOUS
  0
LAYER
  2
DEFPOINTS
 70
     0
 62
     7
  6
CONTINUOUS
  0
LAYER
  2
ADSK_ASSOC_ENTITY_BACKUPS
 70
     1
 62
    -7
  6
CONTINUOUS
  0
ENDTAB
  0
TABLE
  2
STYLE
 70
     2
  0
STYLE
  2
STANDARD
 70
     0
 40
0.0
 41
0.8
 50
0.0
 71
     0
 42
3.5
  3
simplex.shx
  4

  0
STYLE
  2
GREEKS
 70
     0
 40
0.0
 41
0.8
 50
0.0
 71
     0
 42
2.5
  3
SIMPLEX.shx
  4

  0
ENDTAB
  0
TABLE
  2
VIEW
 70
     1
  0
ENDTAB
  0
TABLE
  2
UCS
 70
     0
  0
ENDTAB
  0
TABLE
  2
APPID
 70
    15
  0
APPID
  2
ACAD
 70
     0
  0
APPID
  2
ACAD_NAV_VCDISPLAY
 70
     0
  0
APPID
  2
ACAD_PSEXT
 70
     0
  0
APPID
  2
ACAECLAYERSTANDARD
 70
     0
  0
APPID
  2
ACCMTRANSPARENCY
 70
     0
  0
APPID
  2
ACDBDYNAMICBLOCKGUID
 70
     0
  0
APPID
  2
ACADANNOMONITORALERTICONDI
 70
     0
  0
APPID
  2
ACAD_EXEMPT_FROM_CAD_STANDARDS
 70
     0
  0
APPID
  2
ACSYNERGY
 70
     0
  0
APPID
  2
SYNERGY_BODY_TBR_ID
 70
     0
  0
APPID
  2
ACAD_VIEW_EDGE_ID
 70
     0
  0
APPID
  2
ACSYNERGYSKETCH
 70
     0
  0
APPID
  2
ACADANNOPO
 70
     0
  0
APPID
  2
ACAD_MLEADERVER
 70
     0
  0
APPID
  2
AcDbAttr
 70
     0
  0
ENDTAB
  0
TABLE
  2
DIMSTYLE
 70
     1
  0
DIMSTYLE
  2
STANDARD
 70
     0
  3

  4

  5

  6

  7

 40
1.0
 41
0.18
 42
0.0625
 43
0.38
 44
0.18
 45
0.0
 46
0.0
 47
0.0
 48
0.0
140
0.18
141
0.09
142
0.0
143
25.3999999999999986
144
1.0
145
0.0
146
1.0
147
0.09
 71
     0
 72
     0
 73
     1
 74
     1
 75
     0
 76
     0
 77
     0
 78
     0
170
     0
171
     2
172
     0
173
     0
174
     0
175
     0
176
     0
177
     0
178
     0
  0
ENDTAB
  0
ENDSEC
  0
SECTION
  2
BLOCKS
  0
BLOCK
  8
0
  2
$MODEL_SPACE
 70
     0
 10
0.0
 20
0.0
 30
0.0
  3
$MODEL_SPACE
  1

  0
ENDBLK
  5
36
  8
0
  0
BLOCK
 67
     1
  8
0
  2
$PAPER_SPACE
 70
     0
 10
0.0
 20
0.0
 30
0.0
  3
$PAPER_SPACE
  1

  0
ENDBLK
  5
34
 67
     1
  8
0
  0
BLOCK
  8
0
  2
*S6
 70
     1
 10
0.0
 20
0.0
 30
0.0
  3
*S6
  1

  0
ENDBLK
  5
948
  8
0
  0
BLOCK
  8
0
  2
A$C71FD334E
 70
     0
 10
0.0
 20
0.0
 30
0.0
  3
A$C71FD334E
  1

  0
LINE
  5
C97
  8
0
  6
CONTINUOUS
 62
     3
 10
-29.60635314993851
 20
1090.0
 30
-0.000000000000242
 11
29.60635314993851
 21
1090.0
 31
-0.000000000000242
210
0.0
220
1.0
230
-0.0000000000000002
  0
LINE
  5
C98
  8
0
  6
CONTINUOUS
 62
     3
 10
26.0625566823705412
 20
0.0
 30
0.0
 11
-26.0625566823705412
 21
0.0
 31
0.0
210
0.0
220
1.0
230
-0.0000000000000002
  0
ARC
  5
C99
  8
0
  6
CONTINUOUS
 62
     3
 10
11.9999999999998401
 20
1081.6174986573430488
 30
0.0
 40
19.5000000000001599
210
0.0
220
-0.0000000000000002
230
-1.0
 50
0.0
 51
25.4594285688073505
  0
ARC
  5
C9A
  8
0
  6
CONTINUOUS
 62
     3
 10
-11.9999999999999698
 20
1081.6174986573430488
 30
0.0
 40
19.5
210
0.0
220
-0.0000000000000002
230
-1.0
 50
154.5405714311924896
 51
180.0
  0
LINE
  5
C9B
  8
0
  6
CONTINUOUS
 62
     3
 10
31.5
 20
1081.6174986573419119
 30
-0.0000000000002402
 11
31.5
 21
1077.2020357020119263
 31
-0.0000000000002392
210
0.0
220
1.0
230
-0.0000000000000002
  0
LINE
  5
C9C
  8
0
  6
CONTINUOUS
 62
     3
 10
-31.5
 20
1081.6174986573419119
 30
-0.0000000000002402
 11
-31.5
 21
1077.2020357020119263
 31
-0.0000000000002392
210
0.0
220
1.0
230
-0.0000000000000002
  0
ARC
  5
C9D
  8
0
  6
CONTINUOUS
 62
     3
 10
6.50000000000081
 20
1077.1620000000029904
 30
0.0
 40
25.0000320571273313
210
0.0
220
-0.0000000000000002
230
-1.0
 50
340.5369005553084207
 51
0.0917549917598063
  0
ARC
  5
C9E
  8
0
  6
CONTINUOUS
 62
     3
 10
-6.5000000000010481
 20
1077.1620000000029904
 30
0.0
 40
25.0000320571271217
210
0.0
220
-0.0000000000000002
230
-1.0
 50
179.9082450082401863
 51
199.4630994446918066
  0
ARC
  5
C9F
  8
0
  6
CONTINUOUS
 62
     3
 10
39.4999999999946922
 20
1065.5000000000040927
 30
0.0
 40
9.9999999999946905
210
0.0
220
-0.0000000000000002
230
-1.0
 50
160.5369005553137924
 51
180.0000000000038085
  0
ARC
  5
CA0
  8
0
  6
CONTINUOUS
 62
     3
 10
-39.4999999999946922
 20
1065.5000000000040927
 30
0.0
 40
9.9999999999946851
210
0.0
220
-0.0000000000000002
230
-1.0
 50
359.9999999999960778
 51
19.4630994446862005
  0
LINE
  5
CA1
  8
0
  6
CONTINUOUS
 62
     3
 10
29.5000000000000107
 20
1065.5000000000029559
 30
-0.0000000000002366
 11
29.5
 21
1005.4083269131989482
 31
-0.0000000000002232
210
0.0
220
1.0
230
-0.0000000000000002
  0
LINE
  5
CA2
  8
0
  6
CONTINUOUS
 62
     3
 10
-29.5
 20
1065.5000000000029559
 30
-0.0000000000002366
 11
-29.5000000000000107
 21
1005.4083269131989482
 31
-0.0000000000002232
210
0.0
220
1.0
230
-0.0000000000000002
  0
ARC
  5
CA3
  8
0
  6
CONTINUOUS
 62
     3
 10
17.5000000000004903
 20
1005.4083269131989482
 30
0.0
 40
11.99999999999946
210
0.0
220
-0.0000000000000002
230
-1.0
 50
328.2116693829510155
 51
0.0000000000010814
  0
ARC
  5
CA4
  8
0
  6
CONTINUOUS
 62
     3
 10
-17.5000000000004903
 20
1005.4083269131989482
 30
0.0
 40
11.9999999999994902
210
0.0
220
-0.0000000000000002
230
-1.0
 50
179.9999999999988916
 51
211.788330617049013
  0
ARC
  5
CA5
  8
0
  6
CONTINUOUS
 62
     3
 10
34.5000000000018829
 20
994.8726731603463804
 30
0.0
 40
8.0000000000018581
210
0.0
220
-0.0000000000000002
230
-1.0
 50
148.2116693829480027
 51
179.9999999999984084
  0
ARC
  5
CA6
  8
0
  6
CONTINUOUS
 62
     3
 10
-34.5000000000018829
 20
994.8726731603463804
 30
0.0
 40
8.0000000000018758
210
0.0
220
-0.0000000000000002
230
-1.0
 50
0.0000000000016284
 51
31.7883306170519795
  0
LINE
  5
CA7
  8
0
  6
CONTINUOUS
 62
     3
 10
-26.0625566823707686
 20
-0.00000000000002
 30
0.0
 11
-26.5000000000002309
 21
4.9999999999999813
 31
-0.0000000000000011
210
0.0
220
1.0
230
-0.0000000000000002
  0
LINE
  5
CA8
  8
0
  6
CONTINUOUS
 62
     3
 10
26.0625566823707686
 20
-0.00000000000002
 30
0.0
 11
26.5000000000002309
 21
4.9999999999999813
 31
-0.0000000000000011
210
0.0
220
1.0
230
-0.0000000000000002
  0
LINE
  5
CA9
  8
0
  6
CONTINUOUS
 62
     3
 10
-26.5
 20
5.0
 30
-0.0000000000000011
 11
-26.5
 21
994.8726731603468352
 31
-0.0000000000002209
210
0.0
220
1.0
230
-0.0000000000000002
  0
LINE
  5
CAA
  8
0
  6
CONTINUOUS
 62
     3
 10
26.5
 20
5.0
 30
-0.0000000000000011
 11
26.5
 21
994.8726731603468352
 31
-0.0000000000002209
210
0.0
220
1.0
230
-0.0000000000000002
  0
LINE
  5
CAB
  8
0
  6
VERDECKT
 62
     1
 10
-28.2520182922507885
 20
1089.3551922044109688
 30
-0.0000000000002419
 11
28.2520182922507885
 21
1089.3551922044109688
 31
-0.0000000000002419
210
0.0
220
1.0
230
-0.0000000000000002
  0
LINE
  5
CAC
  8
0
  6
VERDECKT
 62
     1
 10
24.5682646352329392
 20
0.1307336141214535
 30
0.0
 11
-24.5682646352329392
 21
0.1307336141214535
 31
0.0
210
0.0
220
1.0
230
-0.0000000000000002
  0
ARC
  5
CAD
  8
0
  6
VERDECKT
 62
     1
 10
34.5000000000013429
 20
994.8726731603463804
 30
0.0
 40
9.5000000000014087
210
0.0
220
-0.0000000000000002
230
-1.0
 50
148.2116693829455869
 51
179.9999999999978968
  0
ARC
  5
CAE
  8
0
  6
VERDECKT
 62
     1
 10
-34.5000000000013998
 20
994.8726731603463804
 30
0.0
 40
9.5000000000013998
210
0.0
220
-0.0000000000000002
230
-1.0
 50
0.0
 51
31.7883306170521607
  0
ARC
  5
CAF
  8
0
  6
VERDECKT
 62
     1
 10
17.50000000000054
 20
1005.4083269131989482
 30
0.0
 40
10.4999999999994706
210
0.0
220
-0.0000000000000002
230
-1.0
 50
328.2116693829512997
 51
0.0000000000012468
  0
ARC
  5
CB0
  8
0
  6
VERDECKT
 62
     1
 10
-17.5000000000006288
 20
1005.4083269131989482
 30
0.0
 40
10.4999999999993694
210
0.0
220
-0.0000000000000002
230
-1.0
 50
179.9999999999988063
 51
211.788330617049013
  0
LINE
  5
CB1
  8
0
  6
VERDECKT
 62
     1
 10
28.0000000000000107
 20
1065.5000000000029559
 30
-0.0000000000002366
 11
28.0
 21
1005.4083269131989482
 31
-0.0000000000002232
210
0.0
220
1.0
230
-0.0000000000000002
  0
LINE
  5
CB2
  8
0
  6
VERDECKT
 62
     1
 10
-28.0
 20
1065.5000000000029559
 30
-0.0000000000002366
 11
-28.0000000000000107
 21
1005.4083269131989482
 31
-0.0000000000002232
210
0.0
220
1.0
230
-0.0000000000000002
  0
ARC
  5
CB3
  8
0
  6
VERDECKT
 62
     1
 10
39.4999999999980602
 20
1065.5000000000040927
 30
0.0
 40
11.4999999999980709
210
0.0
220
-0.0000000000000002
230
-1.0
 50
160.5369005553150998
 51
180.0000000000011084
  0
ARC
  5
CB4
  8
0
  6
VERDECKT
 62
     1
 10
-39.4999999999980673
 20
1065.5000000000040927
 30
0.0
 40
11.4999999999980602
210
0.0
220
-0.0000000000000002
230
-1.0
 50
359.9999999999988063
 51
19.4630994446848895
  0
ARC
  5
CB5
  8
0
  6
VERDECKT
 62
     1
 10
6.499999999998411
 20
1077.1620000000029904
 30
0.0
 40
23.5000320571297401
210
0.0
220
-0.0000000000000002
230
-1.0
 50
340.5369005553100124
 51
0.0946380447218039
  0
ARC
  5
CB6
  8
0
  6
VERDECKT
 62
     1
 10
-6.4999999999985363
 20
1077.1620000000029904
 30
0.0
 40
23.5000320571296193
210
0.0
220
-0.0000000000000002
230
-1.0
 50
179.9053619552782095
 51
199.4630994446901013
  0
LINE
  5
CB7
  8
0
  6
VERDECKT
 62
     1
 10
30.0
 20
1081.6174986573430488
 30
-0.0000000000002402
 11
30.0
 21
1077.2008160540378867
 31
-0.0000000000002392
210
0.0
220
1.0
230
-0.0000000000000002
  0
LINE
  5
CB8
  8
0
  6
VERDECKT
 62
     1
 10
-30.0
 20
1081.6174986573430488
 30
-0.0000000000002402
 11
-30.0
 21
1077.2008160540378867
 31
-0.0000000000002392
210
0.0
220
1.0
230
-0.0000000000000002
  0
ARC
  5
CB9
  8
0
  6
VERDECKT
 62
     1
 10
11.9999999999992006
 20
1081.6174986573419119
 30
0.0
 40
18.0000000000007887
210
0.0
220
-0.0000000000000002
230
-1.0
 50
0.0000000000007252
 51
25.4594285688077413
  0
ARC
  5
CBA
  8
0
  6
VERDECKT
 62
     1
 10
-11.9999999999991402
 20
1081.6174986573419119
 30
0.0
 40
18.0000000000009415
210
0.0
220
-0.0000000000000002
230
-1.0
 50
154.5405714311922907
 51
179.9999999999992042
  0
LINE
  5
CBB
  8
0
  6
VERDECKT
 62
     1
 10
-28.2520182922508596
 20
1089.3551922044109688
 30
-0.0000000000002419
 11
-29.6063531499384105
 21
1090.0
 31
-0.000000000000242
210
0.0
220
1.0
230
-0.0000000000000002
  0
LINE
  5
CBC
  8
0
  6
VERDECKT
 62
     1
 10
28.2520182922508596
 20
1089.3551922044109688
 30
-0.0000000000002419
 11
29.6063531499384105
 21
1090.0
 31
-0.000000000000242
210
0.0
220
1.0
230
-0.0000000000000002
  0
LINE
  5
CBD
  8
0
  6
VERDECKT
 62
     1
 10
24.5682646352329392
 20
0.1307336141214676
 30
0.0
 11
26.0625566823705412
 21
0.0000000000000141
 31
0.0
210
0.0
220
1.0
230
-0.0000000000000002
  0
LINE
  5
CBE
  8
0
  6
VERDECKT
 62
     1
 10
-24.5682646352329392
 20
0.1307336141214676
 30
0.0
 11
-26.0625566823705412
 21
0.0000000000000141
 31
0.0
210
0.0
220
1.0
230
-0.0000000000000002
  0
LINE
  5
CBF
  8
0
  6
VERDECKT
 62
     1
 10
-25.0
 20
5.0654914143676137
 30
-0.0000000000000011
 11
-25.0
 21
994.8726731603468352
 31
-0.0000000000002209
210
0.0
220
1.0
230
-0.0000000000000002
  0
LINE
  5
CC0
  8
0
  6
VERDECKT
 62
     1
 10
25.0
 20
5.0654914143676137
 30
-0.0000000000000011
 11
25.0
 21
994.8726731603468352
 31
-0.0000000000002209
210
0.0
220
1.0
230
-0.0000000000000002
  0
LINE
  5
CC1
  8
0
  6
VERDECKT
 62
     1
 10
-24.5682646352329392
 20
0.1307336141214535
 30
0.0
 11
-25.0000000000004583
 21
5.0654914143676137
 31
-0.0000000000000011
210
0.0
220
1.0
230
-0.0000000000000002
  0
LINE
  5
CC2
  8
0
  6
VERDECKT
 62
     1
 10
24.5682646352329392
 20
0.1307336141214535
 30
0.0
 11
25.0000000000004583
 21
5.0654914143676137
 31
-0.0000000000000011
210
0.0
220
1.0
230
-0.0000000000000002
  0
ENDBLK
  5
CC4
  8
0
  0
ENDSEC
  0
SECTION
  2
ENTITIES
  0
TEXT
  5
8F
  8
VOLL
 10
78.076754716981128
 20
31.025947764705851
 30
0.0
 40
1.8
  1

  7
GREEKS
  0
INSERT
  5
94A
  8
ADSK_ASSOC_ENTITY_BACKUPS
  2
*S6
 10
0.0
 20
0.0
 30
0.0
  0
INSERT
  5
CC5
  8
STEMPEL
  2
A$C71FD334E
 10
0.0
 20
0.0
 30
0.0
  0
VIEWPORT
  5
583
 67
     1
  8
0
 10
99.3664176966824755
 20
145.471781913522193
 30
0.0
 40
558.2476521912682301
 41
298.8162216554080146
 68
     1
 69
     1
1001
ACAD
1000
MVIEW
1002
{
1070
    16
1010
0.0
1020
0.0
1030
0.0
1010
0.0
1020
0.0
1030
1.0
1040
0.0
1040
298.8162216554080146
1040
99.3664176966824755
1040
145.471781913522193
1040
50.0
1040
0.0
1040
0.0
1070
     0
1070
  1500
1070
     1
1070
     1
1070
     0
1070
     0
1070
     0
1070
     0
1040
0.0
1040
0.0
1040
0.0
1040
10.0
1040
10.0
1040
10.0
1040
10.0
1070
     0
1002
{
1002
}
1002
}
  0
ENDSEC
  0
EOF
