  0
SECTION
  2
HEADER
  9
$ACADVER
  1
AC1009
  9
$INSBASE
 10
0.0
 20
0.0
 30
0.0
  9
$EXTMIN
 10
-31.5000320571282195
 20
-131.5000320571278962
 30
-0.0000000000002323
  9
$EXTMAX
 10
31.5000320571279993
 20
1038.0048529757020788
 30
0.0
  9
$LIMMIN
 10
0.0
 20
0.0
  9
$LIMMAX
 10
210.0
 20
297.0
  9
$ORTHOMODE
 70
     1
  9
$REGENMODE
 70
     1
  9
$FILLMODE
 70
     1
  9
$QTEXTMODE
 70
     0
  9
$MIRRTEXT
 70
     1
  9
$DRAGMODE
 70
     2
  9
$LTSCALE
 40
20.0
  9
$OSMODE
 70
  1335
  9
$ATTMODE
 70
     1
  9
$TEXTSIZE
 40
3.5
  9
$TRACEWID
 40
0.5
  9
$TEXTSTYLE
  7
STANDARD
  9
$CLAYER
  8
ROHR
  9
$CELTYPE
  6
BYLAYER
  9
$CECOLOR
 62
   256
  9
$DIMSCALE
 40
2.0
  9
$DIMASZ
 40
3.5
  9
$DIMEXO
 40
1.0
  9
$DIMDLI
 40
7.0
  9
$DIMRND
 40
0.0
  9
$DIMDLE
 40
0.0
  9
$DIMEXE
 40
1.0
  9
$DIMTP
 40
0.0
  9
$DIMTM
 40
0.0
  9
$DIMTXT
 40
3.5
  9
$DIMCEN
 40
1.5
  9
$DIMTSZ
 40
0.0
  9
$DIMTOL
 70
     0
  9
$DIMLIM
 70
     0
  9
$DIMTIH
 70
     0
  9
$DIMTOH
 70
     0
  9
$DIMSE1
 70
     0
  9
$DIMSE2
 70
     0
  9
$DIMTAD
 70
     1
  9
$DIMZIN
 70
     8
  9
$DIMBLK
  1

  9
$DIMASO
 70
     1
  9
$DIMSHO
 70
     0
  9
$DIMPOST
  1

  9
$DIMAPOST
  1

  9
$DIMALT
 70
     0
  9
$DIMALTD
 70
     2
  9
$DIMALTF
 40
25.3999999999999986
  9
$DIMLFAC
 40
1.0
  9
$DIMTOFL
 70
     1
  9
$DIMTVP
 40
0.0
  9
$DIMTIX
 70
     0
  9
$DIMSOXD
 70
     0
  9
$DIMSAH
 70
     0
  9
$DIMBLK1
  1

  9
$DIMBLK2
  1

  9
$DIMSTYLE
  2
STANDARD
  9
$DIMCLRD
 70
     0
  9
$DIMCLRE
 70
     0
  9
$DIMCLRT
 70
     1
  9
$DIMTFAC
 40
0.5142857142857143
  9
$DIMGAP
 40
1.5
  9
$LUNITS
 70
     2
  9
$LUPREC
 70
     2
  9
$SKETCHINC
 40
1.0
  9
$FILLETRAD
 40
0.0
  9
$AUNITS
 70
     0
  9
$AUPREC
 70
     0
  9
$MENU
  1
ACAD
  9
$ELEVATION
 40
0.0
  9
$PELEVATION
 40
0.0
  9
$THICKNESS
 40
0.0
  9
$LIMCHECK
 70
     0
  9
$BLIPMODE
 70
     0
  9
$CHAMFERA
 40
0.0
  9
$CHAMFERB
 40
0.0
  9
$SKPOLY
 70
     0
  9
$TDCREATE
 40
2455397.8646990740671754
  9
$TDUPDATE
 40
2460444.3435648148879409
  9
$TDINDWG
 40
0.1587081366
  9
$TDUSRTIMER
 40
0.1587081366
  9
$USRTIMER
 70
     1
  9
$ANGBASE
 50
0.0
  9
$ANGDIR
 70
     0
  9
$PDMODE
 70
     0
  9
$PDSIZE
 40
0.0
  9
$PLINEWID
 40
0.0
  9
$COORDS
 70
     1
  9
$SPLFRAME
 70
     0
  9
$SPLINETYPE
 70
     6
  9
$SPLINESEGS
 70
     8
  9
$ATTDIA
 70
     1
  9
$ATTREQ
 70
     0
  9
$HANDLING
 70
     1
  9
$HANDSEED
  5
CD2
  9
$SURFTAB1
 70
     6
  9
$SURFTAB2
 70
     6
  9
$SURFTYPE
 70
     6
  9
$SURFU
 70
     6
  9
$SURFV
 70
     6
  9
$UCSNAME
  2

  9
$UCSORG
 10
0.0
 20
0.0
 30
0.0
  9
$UCSXDIR
 10
1.0
 20
0.0
 30
0.0
  9
$UCSYDIR
 10
0.0
 20
1.0
 30
0.0
  9
$PUCSNAME
  2

  9
$PUCSORG
 10
0.0
 20
0.0
 30
0.0
  9
$PUCSXDIR
 10
1.0
 20
0.0
 30
0.0
  9
$PUCSYDIR
 10
0.0
 20
1.0
 30
0.0
  9
$USERI1
 70
     0
  9
$USERI2
 70
     0
  9
$USERI3
 70
     0
  9
$USERI4
 70
     0
  9
$USERI5
 70
     0
  9
$USERR1
 40
0.0
  9
$USERR2
 40
0.0
  9
$USERR3
 40
0.0
  9
$USERR4
 40
0.0
  9
$USERR5
 40
0.0
  9
$WORLDVIEW
 70
     1
  9
$SHADEDGE
 70
     3
  9
$SHADEDIF
 70
    70
  9
$TILEMODE
 70
     1
  9
$MAXACTVP
 70
    16
  9
$PLIMCHECK
 70
     0
  9
$PEXTMIN
 10
-197.9796037044862089
 20
-823.6970112707493854
 30
0.0
  9
$PEXTMAX
 10
439.2763752595510027
 20
265.5010161375709004
 30
0.0
  9
$PLIMMIN
 10
-0.2500002402958907
 20
-0.2499999962453767
  9
$PLIMMAX
 10
10.7499995194082203
 20
8.2499997634587334
  9
$UNITMODE
 70
     0
  9
$VISRETAIN
 70
     0
  9
$PLINEGEN
 70
     0
  9
$PSLTSCALE
 70
     0
  0
ENDSEC
  0
SECTION
  2
TABLES
  0
TABLE
  2
VPORT
 70
     1
  0
VPORT
  2
*ACTIVE
 70
     0
 10
0.0
 20
0.0
 11
1.0
 21
1.0
 12
0.0
 22
-50.0000147344995867
 13
0.0
 23
0.0
 14
1.0
 24
1.0
 15
10.0
 25
10.0
 16
-0.00000000000067
 26
0.0
 36
3017.5698080377351289
 17
0.0
 27
503.2524251937866211
 37
-0.0000000000001152
 40
1176.7018381714929092
 41
2.102669404517453
 42
50.0
 43
0.0
 44
0.0
 50
0.0
 51
0.0
 71
     0
 72
  1500
 73
     1
 74
     0
 75
     0
 76
     0
 77
     0
 78
     0
  0
ENDTAB
  0
TABLE
  2
LTYPE
 70
     4
  0
LTYPE
  2
CONTINUOUS
 70
     0
  3
Solid line
 72
    65
 73
     0
 40
0.0
  0
LTYPE
  2
VERDECKT
 70
     0
  3
Verdeckt __ __ __ __ __ __ __ __ __ __ __ __ __
 72
    65
 73
     2
 40
0.375
 49
0.25
 49
-0.125
  0
ENDTAB
  0
TABLE
  2
LAYER
 70
    12
  0
LAYER
  2
0
 70
     0
 62
     7
  6
CONTINUOUS
  0
LAYER
  2
VOLL
 70
     0
 62
     1
  6
CONTINUOUS
  0
LAYER
  2
DEFPOINTS
 70
     0
 62
     7
  6
CONTINUOUS
  0
LAYER
  2
ROHR
 70
     0
 62
     9
  6
CONTINUOUS
  0
LAYER
  2
ADSK_ASSOC_ENTITY_BACKUPS
 70
     1
 62
    -7
  6
CONTINUOUS
  0
ENDTAB
  0
TABLE
  2
STYLE
 70
     3
  0
STYLE
  2
STANDARD
 70
     0
 40
0.0
 41
0.8
 50
0.0
 71
     0
 42
3.5
  3
simplex.shx
  4

  0
STYLE
  2
GREEKS
 70
     0
 40
0.0
 41
0.8
 50
0.0
 71
     0
 42
2.5
  3
SIMPLEX.shx
  4

  0
STYLE
  2

 70
     1
 40
0.0
 41
1.0
 50
0.0
 71
     0
 42
2.5
  3
ltypeshp.shx
  4

  0
ENDTAB
  0
TABLE
  2
VIEW
 70
     1
  0
ENDTAB
  0
TABLE
  2
UCS
 70
     0
  0
ENDTAB
  0
TABLE
  2
APPID
 70
    17
  0
APPID
  2
ACAD
 70
     0
  0
APPID
  2
ACAD_DSTYLE_DIMJAG
 70
     0
  0
APPID
  2
ACAD_DSTYLE_DIMTALN
 70
     0
  0
APPID
  2
ACAD_EXEMPT_FROM_CAD_STANDARDS
 70
     0
  0
APPID
  2
ACAD_NAV_VCDISPLAY
 70
     0
  0
APPID
  2
ACAD_MLEADERVER
 70
     0
  0
APPID
  2
GRADIENTCOLOR1ACI
 70
     0
  0
APPID
  2
GRADIENTCOLOR2ACI
 70
     0
  0
APPID
  2
ACAECLAYERSTANDARD
 70
     0
  0
APPID
  2
ACCMTRANSPARENCY
 70
     0
  0
APPID
  2
ACAD_PSEXT
 70
     0
  0
APPID
  2
ACSYNERGY
 70
     0
  0
APPID
  2
SYNERGY_BODY_TBR_ID
 70
     0
  0
APPID
  2
ACAD_VIEW_EDGE_ID
 70
     0
  0
APPID
  2
ACADANNOMONITORALERTICONDI
 70
     0
  0
APPID
  2
ACAD_DSTYLE_DIMRADIAL_EXTENSION
 70
     0
  0
APPID
  2
ACSYNERGYSKETCH
 70
     0
  0
ENDTAB
  0
TABLE
  2
DIMSTYLE
 70
     1
  0
DIMSTYLE
  2
STANDARD
 70
     0
  3

  4

  5

  6

  7

 40
1.0
 41
0.18
 42
0.0625
 43
0.38
 44
0.18
 45
0.0
 46
0.0
 47
0.0
 48
0.0
140
0.18
141
0.09
142
0.0
143
25.3999999999999986
144
1.0
145
0.0
146
1.0
147
0.09
 71
     0
 72
     0
 73
     1
 74
     1
 75
     0
 76
     0
 77
     0
 78
     0
170
     0
171
     2
172
     0
173
     0
174
     0
175
     0
176
     0
177
     0
178
     0
  0
ENDTAB
  0
ENDSEC
  0
SECTION
  2
BLOCKS
  0
BLOCK
  8
0
  2
$MODEL_SPACE
 70
     0
 10
0.0
 20
0.0
 30
0.0
  3
$MODEL_SPACE
  1

  0
ENDBLK
  5
36
  8
0
  0
BLOCK
 67
     1
  8
0
  2
$PAPER_SPACE
 70
     0
 10
0.0
 20
0.0
 30
0.0
  3
$PAPER_SPACE
  1

  0
ENDBLK
  5
34
 67
     1
  8
0
  0
BLOCK
  8
0
  2
*S0
 70
     1
 10
0.0
 20
0.0
 30
0.0
  3
*S0
  1

  0
ENDBLK
  5
446
  8
0
  0
BLOCK
  8
0
  2
A$CE3FF9C0D
 70
     0
 10
0.0
 20
0.0
 30
0.0
  3
A$CE3FF9C0D
  1

  0
CIRCLE
  5
C42
  8
0
  6
CONTINUOUS
 62
     3
 10
0.0000000000000504
 20
0.0000000000000566
 30
0.0
 40
24.9999999999999893
  0
CIRCLE
  5
C43
  8
0
  6
CONTINUOUS
 62
     3
 10
0.0000000000000031
 20
0.0000000000000593
 30
0.0
 40
27.9290197827825288
  0
CIRCLE
  5
C44
  8
0
  6
CONTINUOUS
 62
     3
 10
0.0000000000000031
 20
0.0000000000000593
 30
0.0
 40
29.606353149936929
  0
CIRCLE
  5
C45
  8
0
  6
CONTINUOUS
 62
     3
 10
0.0000000000000012
 20
0.0000000000000588
 30
0.0
 40
31.4999999999999005
  0
CIRCLE
  5
C46
  8
0
  6
CONTINUOUS
 62
     3
 10
0.0
 20
-0.0000000000000043
 30
0.0
 40
24.5568269260553507
  0
CIRCLE
  5
C47
  8
0
  6
CONTINUOUS
 62
     3
 10
0.0000000000000009
 20
0.0000000000000587
 30
0.0
 40
31.5000320571279993
  0
CIRCLE
  5
C48
  8
0
  6
VERDECKT
 62
     1
 10
-0.0000000000000017
 20
0.000000000000058
 30
0.0
 40
27.9999999999999183
  0
CIRCLE
  5
C49
  8
0
  6
VERDECKT
 62
     1
 10
0.0000000000000012
 20
0.0000000000000588
 30
0.0
 40
29.9999999999997904
  0
CIRCLE
  5
C4A
  8
0
  6
VERDECKT
 62
     1
 10
-0.0000000000000017
 20
0.000000000000058
 30
0.0
 40
29.4999999999999183
  0
CIRCLE
  5
C4B
  8
0
  6
VERDECKT
 62
     1
 10
0.0000000000000504
 20
0.0000000000000566
 30
0.0
 40
26.4999999999999893
  0
CIRCLE
  5
C4C
  8
0
  6
VERDECKT
 62
     1
 10
0.0
 20
-0.0000000000000043
 30
0.0
 40
26.0625566823703707
  0
CIRCLE
  5
C4D
  8
0
  6
VERDECKT
 62
     1
 10
0.0000000000000009
 20
0.0000000000000587
 30
0.0
 40
30.0000320571279708
  0
ENDBLK
  5
C4F
  8
0
  0
BLOCK
  8
0
  2
A$C6D163556
 70
     0
 10
0.0
 20
0.0
 30
0.0
  3
A$C6D163556
  1

  0
LINE
  5
C53
  8
0
  6
CONTINUOUS
 62
     3
 10
-29.6063531499371493
 20
1038.0048529757009419
 30
-0.0000000000002305
 11
29.6063531499367016
 21
1038.0048529757009419
 31
-0.0000000000002305
210
0.0
220
1.0
230
-0.0000000000000002
  0
LINE
  5
C54
  8
0
  6
CONTINUOUS
 62
     3
 10
-26.0625566823703707
 20
0.0000000000000142
 30
0.0
 11
26.0625566823703707
 21
0.0000000000000142
 31
0.0
210
0.0
220
1.0
230
-0.0000000000000002
  0
ARC
  5
C55
  8
0
  6
CONTINUOUS
 62
     3
 10
11.9999999999807105
 20
1029.6223516330360326
 30
0.0
 40
19.5000000000194191
210
0.0
220
-0.0000000000000002
230
-1.0
 50
359.9999999999980105
 51
25.4594285688054498
  0
ARC
  5
C56
  8
0
  6
CONTINUOUS
 62
     3
 10
-11.9999999999813305
 20
1029.6223516330369421
 30
0.0
 40
19.5000000000183107
210
0.0
220
-0.0000000000000002
230
-1.0
 50
154.5405714311935981
 51
180.0000000000032117
  0
LINE
  5
C57
  8
0
  6
CONTINUOUS
 62
     3
 10
31.4999999999995488
 20
1029.6223516330360326
 30
-0.0000000000002286
 11
31.4999999999995488
 21
1028.2068886778019987
 31
-0.0000000000002283
210
0.0
220
1.0
230
-0.0000000000000002
  0
LINE
  5
C58
  8
0
  6
CONTINUOUS
 62
     3
 10
-31.5
 20
1029.6223516330360326
 30
-0.0000000000002286
 11
-31.5
 21
1028.2068886778019987
 31
-0.0000000000002283
210
0.0
220
1.0
230
-0.0000000000000002
  0
ARC
  5
C59
  8
0
  6
CONTINUOUS
 62
     3
 10
6.4999999999994493
 20
1028.1668529757009765
 30
0.0
 40
25.0000320571287595
210
0.0
220
-0.0000000000000002
230
-1.0
 50
340.5369005553122861
 51
0.09175499197242
  0
ARC
  5
C5A
  8
0
  6
CONTINUOUS
 62
     3
 10
-6.4999999999984404
 20
1028.1668529757009765
 30
0.0
 40
25.0000320571293315
210
0.0
220
-0.0000000000000002
230
-1.0
 50
179.9082450080265119
 51
199.4630994446876002
  0
ARC
  5
C5B
  8
0
  6
CONTINUOUS
 62
     3
 10
39.5000000000002416
 20
1016.5048529757010556
 30
0.0
 40
10.0000000000000693
210
0.0
220
-0.0000000000000002
230
-1.0
 50
160.5369005553122861
 51
180.0000000000005969
  0
ARC
  5
C5C
  8
0
  6
CONTINUOUS
 62
     3
 10
-39.4999999999999005
 20
1016.5048529757010556
 30
0.0
 40
10.0000000000002096
210
0.0
220
-0.0000000000000002
230
-1.0
 50
0.0
 51
19.4630994446881402
  0
LINE
  5
C5D
  8
0
  6
CONTINUOUS
 62
     3
 10
29.4999999999997691
 20
1016.5048529757010556
 30
-0.0000000000002257
 11
29.4999999999997797
 21
1005.4131798888970479
 31
-0.0000000000002232
210
0.0
220
1.0
230
-0.0000000000000002
  0
LINE
  5
C5E
  8
0
  6
CONTINUOUS
 62
     3
 10
-29.5000000000001208
 20
1016.5048529757010556
 30
-0.0000000000002257
 11
-29.5000000000001101
 21
1005.4131798888970479
 31
-0.0000000000002232
210
0.0
220
1.0
230
-0.0000000000000002
  0
ARC
  5
C5F
  8
0
  6
CONTINUOUS
 62
     3
 10
17.5000000000002984
 20
1005.4131798888970479
 30
0.0
 40
11.9999999999997495
210
0.0
220
-0.0000000000000002
230
-1.0
 50
328.2116693829466954
 51
0.0000000000005598
  0
ARC
  5
C60
  8
0
  6
CONTINUOUS
 62
     3
 10
-17.4999999999999609
 20
1005.4131798888970479
 30
0.0
 40
11.9999999999997904
210
0.0
220
-0.0000000000000002
230
-1.0
 50
179.9999999999994031
 51
211.788330617053191
  0
ARC
  5
C61
  8
0
  6
CONTINUOUS
 62
     3
 10
34.4999999999994102
 20
994.8775261360449349
 30
0.0
 40
7.999999999999245
210
0.0
220
-0.0000000000000002
230
-1.0
 50
148.2116693829507028
 51
180.000000000003098
  0
ARC
  5
C62
  8
0
  6
CONTINUOUS
 62
     3
 10
-34.4999999999987921
 20
994.8775261360450486
 30
0.0
 40
7.9999999999989759
210
0.0
220
-0.0000000000000002
230
-1.0
 50
359.9999999999959073
 51
31.7883306170486293
  0
LINE
  5
C63
  8
0
  6
CONTINUOUS
 62
     3
 10
-26.0625566823703494
 20
0.0000000000000169
 30
0.0
 11
-26.4999999999999716
 21
5.0000000000000018
 31
-0.0000000000000011
210
0.0
220
1.0
230
-0.0000000000000002
  0
LINE
  5
C64
  8
0
  6
CONTINUOUS
 62
     3
 10
26.0625566823703494
 20
0.0000000000000169
 30
0.0
 11
26.4999999999999716
 21
5.0000000000000018
 31
-0.0000000000000011
210
0.0
220
1.0
230
-0.0000000000000002
  0
LINE
  5
C65
  8
0
  6
CONTINUOUS
 62
     3
 10
26.5
 20
994.8775261360444802
 30
-0.0000000000002209
 11
26.5
 21
5.0
 31
-0.0000000000000011
210
0.0
220
1.0
230
-0.0000000000000002
  0
LINE
  5
C66
  8
0
  6
CONTINUOUS
 62
     3
 10
-26.5
 20
994.8775261360444802
 30
-0.0000000000002209
 11
-26.5
 21
5.0
 31
-0.0000000000000011
210
0.0
220
1.0
230
-0.0000000000000002
  0
ARC
  5
C67
  8
0
  6
VERDECKT
 62
     1
 10
34.5000000000002203
 20
994.8775261360442528
 30
0.0
 40
9.5000000000000551
210
0.0
220
-0.0000000000000002
230
-1.0
 50
148.2116693829462122
 51
179.9999999999992895
  0
ARC
  5
C68
  8
0
  6
VERDECKT
 62
     1
 10
-34.4999999999998721
 20
994.8775261360442528
 30
0.0
 40
9.5000000000000604
210
0.0
220
-0.0000000000000002
230
-1.0
 50
0.0
 51
31.7883306170539086
  0
ARC
  5
C69
  8
0
  6
VERDECKT
 62
     1
 10
17.5000000000011298
 20
1005.4131798888970479
 30
0.0
 40
10.4999999999989893
210
0.0
220
-0.0000000000000002
230
-1.0
 50
328.2116693829489122
 51
0.0000000000024808
  0
ARC
  5
C6A
  8
0
  6
VERDECKT
 62
     1
 10
-17.5000000000006999
 20
1005.4131798888970479
 30
0.0
 40
10.4999999999990496
210
0.0
220
-0.0000000000000002
230
-1.0
 50
179.9999999999974989
 51
211.7883306170500077
  0
LINE
  5
C6B
  8
0
  6
VERDECKT
 62
     1
 10
27.9999999999997691
 20
1016.5048529757010556
 30
-0.0000000000002257
 11
27.9999999999997797
 21
1005.4131798888970479
 31
-0.0000000000002232
210
0.0
220
1.0
230
-0.0000000000000002
  0
LINE
  5
C6C
  8
0
  6
VERDECKT
 62
     1
 10
-28.0000000000001208
 20
1016.5048529757010556
 30
-0.0000000000002257
 11
-28.0000000000001101
 21
1005.4131798888970479
 31
-0.0000000000002232
210
0.0
220
1.0
230
-0.0000000000000002
  0
ARC
  5
C6D
  8
0
  6
VERDECKT
 62
     1
 10
39.5000000000020606
 20
1016.5048529757010556
 30
0.0
 40
11.5000000000019398
210
0.0
220
-0.0000000000000002
230
-1.0
 50
160.5369005553129114
 51
179.9999999999988063
  0
ARC
  5
C6E
  8
0
  6
VERDECKT
 62
     1
 10
-39.5000000000018403
 20
1016.5048529757010556
 30
0.0
 40
11.5000000000021494
210
0.0
220
-0.0000000000000002
230
-1.0
 50
0.0000000000011323
 51
19.4630994446866907
  0
ARC
  5
C6F
  8
0
  6
VERDECKT
 62
     1
 10
6.4999999998900861
 20
1028.1668529757200758
 30
0.0
 40
23.5000320572381014
210
0.0
220
-0.0000000000000002
230
-1.0
 50
340.5369005553571924
 51
0.0946380447635086
  0
ARC
  5
C70
  8
0
  6
VERDECKT
 62
     1
 10
-6.4999999998909308
 20
1028.166852975718939
 30
0.0
 40
23.5000320572368118
210
0.0
220
-0.0000000000000002
230
-1.0
 50
179.9053619552358896
 51
199.4630994446430066
  0
LINE
  5
C71
  8
0
  6
VERDECKT
 62
     1
 10
29.9999999999995488
 20
1029.6223516330398979
 30
-0.0000000000002286
 11
29.9999999999995488
 21
1028.2056690297708883
 31
-0.0000000000002283
210
0.0
220
1.0
230
-0.0000000000000002
  0
LINE
  5
C72
  8
0
  6
VERDECKT
 62
     1
 10
-30.0
 20
1029.6223516330398979
 30
-0.0000000000002286
 11
-30.0
 21
1028.2056690297708883
 31
-0.0000000000002283
210
0.0
220
1.0
230
-0.0000000000000002
  0
ARC
  5
C73
  8
0
  6
VERDECKT
 62
     1
 10
11.9999999999998703
 20
1029.6223516330398979
 30
0.0
 40
18.0000000000001492
210
0.0
220
-0.0000000000000002
230
-1.0
 50
359.9999999999992042
 51
27.7551793916161706
  0
ARC
  5
C74
  8
0
  6
VERDECKT
 62
     1
 10
-12.0000000000006608
 20
1029.6223516330410348
 30
0.0
 40
17.9999999999989484
210
0.0
220
-0.0000000000000002
230
-1.0
 50
152.2448206083817865
 51
180.0000000000013074
  0
LINE
  5
C75
  8
0
  6
VERDECKT
 62
     1
 10
-24.5568269260553791
 20
0.0000000000000115
 30
0.0
 11
-25.0000000000000888
 21
5.0654914143624108
 31
-0.0000000000000011
210
0.0
220
1.0
230
-0.0000000000000002
  0
LINE
  5
C76
  8
0
  6
VERDECKT
 62
     1
 10
24.5568269260553791
 20
0.0000000000000115
 30
0.0
 11
25.0000000000000888
 21
5.0654914143624108
 31
-0.0000000000000011
210
0.0
220
1.0
230
-0.0000000000000002
  0
LINE
  5
C77
  8
0
  6
VERDECKT
 62
     1
 10
25.0
 20
994.8775261360444802
 30
-0.0000000000002209
 11
25.0
 21
5.065491414362441
 31
-0.0000000000000011
210
0.0
220
1.0
230
-0.0000000000000002
  0
LINE
  5
C78
  8
0
  6
VERDECKT
 62
     1
 10
-25.0
 20
994.8775261360444802
 30
-0.0000000000002209
 11
-25.0
 21
5.065491414362441
 31
-0.0000000000000011
210
0.0
220
1.0
230
-0.0000000000000002
  0
ENDBLK
  5
C7A
  8
0
  0
ENDSEC
  0
SECTION
  2
ENTITIES
  0
TEXT
  5
8F
  8
VOLL
 10
78.076754716981128
 20
31.025947764705851
 30
0.0
 40
1.8
  1

  7
GREEKS
  0
TEXT
  5
339
  8
VOLL
 10
395.5275183573892832
 20
219.5004393337491138
 30
0.0
 40
1.8
  1

  7
GREEKS
  0
INSERT
  5
448
  8
ADSK_ASSOC_ENTITY_BACKUPS
  2
*S0
 10
0.0
 20
0.0
 30
0.0
  0
TEXT
  5
64C
  8
VOLL
 10
504.8910964169365911
 20
292.9201598684783789
 30
0.0
 40
1.8
  1

  7
GREEKS
  0
INSERT
  5
C50
  8
ROHR
  2
A$CE3FF9C0D
 10
0.0
 20
-100.0
 30
0.0
  0
INSERT
  5
C7B
  8
ROHR
  2
A$C6D163556
 10
0.0
 20
0.0
 30
0.0
  0
VIEWPORT
  5
425
 67
     1
  8
0
 10
136.7280257879938006
 20
-429.6674681594046774
 30
0.0
 40
4761.5436056899707182
 41
2329.6224086432380318
 68
     1
 69
     1
1001
ACAD
1000
MVIEW
1002
{
1070
    16
1010
0.0
1020
0.0
1030
0.0
1010
0.0
1020
0.0
1030
1.0
1040
0.0
1040
2329.6224086432380318
1040
136.7280257879938006
1040
-429.6674681594046774
1040
50.0
1040
0.0
1040
0.0
1070
     0
1070
  1500
1070
     1
1070
     1
1070
     0
1070
     0
1070
     0
1070
     0
1040
0.0
1040
0.0
1040
0.0
1040
10.0
1040
10.0
1040
10.0
1040
10.0
1070
     0
1002
{
1002
}
1002
}
  0
ENDSEC
  0
EOF
