  0
SECTION
  2
HEADER
  9
$ACADVER
  1
AC1009
  9
$INSBASE
 10
0.0
 20
0.0
 30
0.0
  9
$EXTMIN
 10
262.1509004949392079
 20
-0.00000000000002
 30
1403.260091308849951
  9
$EXTMAX
 10
325.1509646091956256
 20
2000.0
 30
1403.2600913088510879
  9
$LIMMIN
 10
0.0
 20
0.0
  9
$LIMMAX
 10
210.0
 20
297.0
  9
$ORTHOMODE
 70
     0
  9
$REGENMODE
 70
     1
  9
$FILLMODE
 70
     1
  9
$QTEXTMODE
 70
     0
  9
$MIRRTEXT
 70
     1
  9
$DRAGMODE
 70
     2
  9
$LTSCALE
 40
10.0
  9
$OSMODE
 70
  2495
  9
$ATTMODE
 70
     1
  9
$TEXTSIZE
 40
3.5
  9
$TRACEWID
 40
0.5
  9
$TEXTSTYLE
  7
STANDARD
  9
$CLAYER
  8
0
  9
$CELTYPE
  6
BYLAYER
  9
$CECOLOR
 62
   256
  9
$DIMSCALE
 40
1.0
  9
$DIMASZ
 40
3.5
  9
$DIMEXO
 40
1.0
  9
$DIMDLI
 40
7.0
  9
$DIMRND
 40
0.0
  9
$DIMDLE
 40
0.0
  9
$DIMEXE
 40
1.0
  9
$DIMTP
 40
0.0
  9
$DIMTM
 40
0.0
  9
$DIMTXT
 40
3.5
  9
$DIMCEN
 40
1.5
  9
$DIMTSZ
 40
0.0
  9
$DIMTOL
 70
     0
  9
$DIMLIM
 70
     0
  9
$DIMTIH
 70
     0
  9
$DIMTOH
 70
     0
  9
$DIMSE1
 70
     0
  9
$DIMSE2
 70
     0
  9
$DIMTAD
 70
     1
  9
$DIMZIN
 70
     8
  9
$DIMBLK
  1

  9
$DIMASO
 70
     1
  9
$DIMSHO
 70
     0
  9
$DIMPOST
  1

  9
$DIMAPOST
  1

  9
$DIMALT
 70
     0
  9
$DIMALTD
 70
     2
  9
$DIMALTF
 40
25.3999999999999986
  9
$DIMLFAC
 40
1.0
  9
$DIMTOFL
 70
     1
  9
$DIMTVP
 40
0.0
  9
$DIMTIX
 70
     0
  9
$DIMSOXD
 70
     0
  9
$DIMSAH
 70
     0
  9
$DIMBLK1
  1

  9
$DIMBLK2
  1

  9
$DIMSTYLE
  2
STANDARD
  9
$DIMCLRD
 70
     0
  9
$DIMCLRE
 70
     0
  9
$DIMCLRT
 70
     1
  9
$DIMTFAC
 40
0.5142857142857143
  9
$DIMGAP
 40
1.5
  9
$LUNITS
 70
     2
  9
$LUPREC
 70
     2
  9
$SKETCHINC
 40
1.0
  9
$FILLETRAD
 40
0.0
  9
$AUNITS
 70
     0
  9
$AUPREC
 70
     0
  9
$MENU
  1
ACAD
  9
$ELEVATION
 40
0.0
  9
$PELEVATION
 40
0.0
  9
$THICKNESS
 40
0.0
  9
$LIMCHECK
 70
     0
  9
$BLIPMODE
 70
     0
  9
$CHAMFERA
 40
0.0
  9
$CHAMFERB
 40
0.0
  9
$SKPOLY
 70
     0
  9
$TDCREATE
 40
2455397.8646990740671754
  9
$TDUPDATE
 40
2458904.3502662042155862
  9
$TDINDWG
 40
0.4853928935
  9
$TDUSRTIMER
 40
0.4853928935
  9
$USRTIMER
 70
     1
  9
$ANGBASE
 50
0.0
  9
$ANGDIR
 70
     0
  9
$PDMODE
 70
     0
  9
$PDSIZE
 40
0.0
  9
$PLINEWID
 40
0.0
  9
$COORDS
 70
     1
  9
$SPLFRAME
 70
     0
  9
$SPLINETYPE
 70
     6
  9
$SPLINESEGS
 70
     8
  9
$ATTDIA
 70
     1
  9
$ATTREQ
 70
     1
  9
$HANDLING
 70
     1
  9
$HANDSEED
  5
1188
  9
$SURFTAB1
 70
     6
  9
$SURFTAB2
 70
     6
  9
$SURFTYPE
 70
     6
  9
$SURFU
 70
     6
  9
$SURFV
 70
     6
  9
$UCSNAME
  2

  9
$UCSORG
 10
0.0
 20
0.0
 30
0.0
  9
$UCSXDIR
 10
1.0
 20
0.0
 30
0.0
  9
$UCSYDIR
 10
0.0
 20
1.0
 30
0.0
  9
$PUCSNAME
  2

  9
$PUCSORG
 10
0.0
 20
0.0
 30
0.0
  9
$PUCSXDIR
 10
1.0
 20
0.0
 30
0.0
  9
$PUCSYDIR
 10
0.0
 20
1.0
 30
0.0
  9
$USERI1
 70
     0
  9
$USERI2
 70
     0
  9
$USERI3
 70
     0
  9
$USERI4
 70
     0
  9
$USERI5
 70
     0
  9
$USERR1
 40
0.0
  9
$USERR2
 40
0.0
  9
$USERR3
 40
0.0
  9
$USERR4
 40
0.0
  9
$USERR5
 40
0.0
  9
$WORLDVIEW
 70
     1
  9
$SHADEDGE
 70
     3
  9
$SHADEDIF
 70
    70
  9
$TILEMODE
 70
     1
  9
$MAXACTVP
 70
    16
  9
$PLIMCHECK
 70
     0
  9
$PEXTMIN
 10
-57.6434850792676272
 20
-49.1651800587635535
 30
-0.0015258207003583
  9
$PEXTMAX
 10
223.7293041210272975
 20
357.3745290302268245
 30
0.0000000349246037
  9
$PLIMMIN
 10
13.7121467209257997
 20
-13.9079835322425502
  9
$PLIMMAX
 10
223.7121467209258014
 20
283.0920164677575031
  9
$UNITMODE
 70
     0
  9
$VISRETAIN
 70
     0
  9
$PLINEGEN
 70
     0
  9
$PSLTSCALE
 70
     0
  0
ENDSEC
  0
SECTION
  2
TABLES
  0
TABLE
  2
VPORT
 70
     1
  0
VPORT
  2
*ACTIVE
 70
     0
 10
0.0
 20
0.0
 11
1.0
 21
1.0
 12
146.8254662760338931
 22
15.7500000000002292
 13
0.0
 23
0.0
 14
1.0
 24
1.0
 15
10.0
 25
10.0
 16
-0.0000000000015916
 26
0.0
 36
7144.4366508832017644
 17
146.8254662760336942
 27
984.2499999999998863
 37
1000.0
 40
2014.3027413587610681
 41
1.7852028639618129
 42
50.0
 43
0.0
 44
0.0
 50
0.0
 51
0.0
 71
     0
 72
  1500
 73
     1
 74
     0
 75
     0
 76
     0
 77
     0
 78
     0
  0
ENDTAB
  0
TABLE
  2
LTYPE
 70
     4
  0
LTYPE
  2
CONTINUOUS
 70
     0
  3
Solid line
 72
    65
 73
     0
 40
0.0
  0
LTYPE
  2
VERDECKT
 70
     0
  3
Verdeckt __ __ __ __ __ __ __ __ __ __ __ __ __
 72
    65
 73
     2
 40
0.375
 49
0.25
 49
-0.125
  0
ENDTAB
  0
TABLE
  2
LAYER
 70
    12
  0
LAYER
  2
0
 70
     0
 62
     7
  6
CONTINUOUS
  0
LAYER
  2
VOLL
 70
     0
 62
     1
  6
CONTINUOUS
  0
LAYER
  2
DEFPOINTS
 70
     0
 62
     7
  6
CONTINUOUS
  0
LAYER
  2
ADSK_ASSOC_ENTITY_BACKUPS
 70
     1
 62
    -7
  6
CONTINUOUS
  0
ENDTAB
  0
TABLE
  2
STYLE
 70
     4
  0
STYLE
  2
STANDARD
 70
     0
 40
0.0
 41
0.8
 50
0.0
 71
     0
 42
3.5
  3
simplex.shx
  4

  0
STYLE
  2
GREEKS
 70
     0
 40
0.0
 41
0.8
 50
0.0
 71
     0
 42
2.5
  3
SIMPLEX.shx
  4

  0
ENDTAB
  0
TABLE
  2
VIEW
 70
     1
  0
ENDTAB
  0
TABLE
  2
UCS
 70
     0
  0
ENDTAB
  0
TABLE
  2
APPID
 70
    16
  0
APPID
  2
ACAD
 70
     0
  0
APPID
  2
ACAD_NAV_VCDISPLAY
 70
     0
  0
APPID
  2
ACAD_PSEXT
 70
     0
  0
APPID
  2
ACAECLAYERSTANDARD
 70
     0
  0
APPID
  2
ACCMTRANSPARENCY
 70
     0
  0
APPID
  2
ACDBDYNAMICBLOCKGUID
 70
     0
  0
APPID
  2
ACAD_EXEMPT_FROM_CAD_STANDARDS
 70
     0
  0
APPID
  2
ACADANNOPO
 70
     0
  0
APPID
  2
ACAD_STEPID
 70
     0
  0
APPID
  2
ACSYNERGY
 70
     0
  0
APPID
  2
SYNERGY_BODY_TBR_ID
 70
     0
  0
APPID
  2
ACAD_VIEW_EDGE_ID
 70
     0
  0
APPID
  2
ACSYNERGYSKETCH
 70
     0
  0
APPID
  2
ACADANNOMONITORALERTICONDI
 70
     0
  0
APPID
  2
ACAD_MLEADERVER
 70
     0
  0
APPID
  2
AcDbAttr
 70
     0
  0
ENDTAB
  0
TABLE
  2
DIMSTYLE
 70
     2
  0
DIMSTYLE
  2
STANDARD
 70
     0
  3

  4

  5

  6

  7

 40
1.0
 41
0.18
 42
0.0625
 43
0.38
 44
0.18
 45
0.0
 46
0.0
 47
0.0
 48
0.0
140
0.18
141
0.09
142
0.0
143
25.3999999999999986
144
1.0
145
0.0
146
1.0
147
0.09
 71
     0
 72
     0
 73
     1
 74
     1
 75
     0
 76
     0
 77
     0
 78
     0
170
     0
171
     2
172
     0
173
     0
174
     0
175
     0
176
     0
177
     0
178
     0
  0
ENDTAB
  0
ENDSEC
  0
SECTION
  2
BLOCKS
  0
BLOCK
  8
0
  2
$MODEL_SPACE
 70
     0
 10
0.0
 20
0.0
 30
0.0
  3
$MODEL_SPACE
  1

  0
ENDBLK
  5
36
  8
0
  0
BLOCK
 67
     1
  8
0
  2
$PAPER_SPACE
 70
     0
 10
0.0
 20
0.0
 30
0.0
  3
$PAPER_SPACE
  1

  0
ENDBLK
  5
34
 67
     1
  8
0
  0
BLOCK
  8
0
  2
*S2
 70
     1
 10
0.0
 20
0.0
 30
0.0
  3
*S2
  1

  0
ENDBLK
  5
880
  8
0
  0
BLOCK
  8
0
  2
A$C095BCF2E
 70
     0
 10
0.0
 20
0.0
 30
0.0
  3
A$C095BCF2E
  1

  0
LINE
  5
1100
  8
0
  6
CONTINUOUS
 62
     3
 10
26.06255668237009
 20
0.0
 30
0.0
 11
-26.0625566823709995
 21
0.0
 31
0.0
210
0.0
220
1.0
230
-0.0000000000000002
  0
LINE
  5
1101
  8
0
  6
CONTINUOUS
 62
     3
 10
-29.60635314993851
 20
2000.0
 30
-0.0000000000004441
 11
29.60635314993851
 21
2000.0
 31
-0.0000000000004441
210
0.0
220
1.0
230
-0.0000000000000002
  0
ARC
  5
1102
  8
0
  6
CONTINUOUS
 62
     3
 10
-20.0000000000016591
 20
5.2837961289025239
 30
0.0
 40
6.4999999999978888
210
0.0
220
-0.0000000000000002
230
-1.0
 50
179.9999999999990905
 51
184.9999999999988916
  0
ARC
  5
1103
  8
0
  6
CONTINUOUS
 62
     3
 10
19.9999999999988205
 20
5.2837961289026856
 30
0.0
 40
6.5000000000016263
210
0.0
220
-0.0000000000000002
230
-1.0
 50
355.0000000000025011
 51
359.9999999999993747
  0
LINE
  5
1104
  8
0
  6
CONTINUOUS
 62
     3
 10
-26.0625566823712198
 20
-0.00000000000002
 30
0.0
 11
-26.4752655375968189
 21
4.7172838010430462
 31
-0.000000000000001
210
0.0
220
1.0
230
-0.0000000000000002
  0
LINE
  5
1105
  8
0
  6
CONTINUOUS
 62
     3
 10
26.0625566823703103
 20
-0.00000000000002
 30
0.0
 11
26.4752655375959094
 21
4.7172838010430462
 31
-0.000000000000001
210
0.0
220
1.0
230
-0.0000000000000002
  0
LINE
  5
1106
  8
0
  6
CONTINUOUS
 62
     3
 10
-26.5000000000004583
 20
5.2837961289026234
 30
-0.0000000000000012
 11
-26.5000000000004583
 21
1904.8726731603469489
 31
-0.000000000000423
210
0.0
220
1.0
230
-0.0000000000000002
  0
LINE
  5
1107
  8
0
  6
CONTINUOUS
 62
     3
 10
26.4999999999995488
 20
5.2837961289026234
 30
-0.0000000000000012
 11
26.4999999999995488
 21
1904.8726731603469489
 31
-0.000000000000423
210
0.0
220
1.0
230
-0.0000000000000002
  0
ARC
  5
1108
  8
0
  6
CONTINUOUS
 62
     3
 10
11.9999999999996394
 20
1991.6174986573419119
 30
0.0
 40
19.5000000000003588
210
0.0
220
-0.0000000000000002
230
-1.0
 50
0.0
 51
25.4594285688085691
  0
ARC
  5
1109
  8
0
  6
CONTINUOUS
 62
     3
 10
-11.9999999999996394
 20
1991.6174986573419119
 30
0.0
 40
19.5000000000003091
210
0.0
220
-0.0000000000000002
230
-1.0
 50
154.5405714311914096
 51
180.0
  0
LINE
  5
110A
  8
0
  6
CONTINUOUS
 62
     3
 10
31.5
 20
1991.6174986573419119
 30
-0.0000000000004422
 11
31.5
 21
1987.2020357020119263
 31
-0.0000000000004412
210
0.0
220
1.0
230
-0.0000000000000002
  0
LINE
  5
110B
  8
0
  6
CONTINUOUS
 62
     3
 10
-31.5
 20
1991.6174986573419119
 30
-0.0000000000004422
 11
-31.5
 21
1987.2020357020119263
 31
-0.0000000000004412
210
0.0
220
1.0
230
-0.0000000000000002
  0
ARC
  5
110C
  8
0
  6
CONTINUOUS
 62
     3
 10
6.4999999999982272
 20
1987.1620000000038999
 30
0.0
 40
25.0000320571299284
210
0.0
220
-0.0000000000000002
230
-1.0
 50
340.5369005553092734
 51
0.0917549917587631
  0
ARC
  5
110D
  8
0
  6
CONTINUOUS
 62
     3
 10
-6.4999999999984723
 20
1987.1620000000038999
 30
0.0
 40
25.0000320571296903
210
0.0
220
-0.0000000000000002
230
-1.0
 50
179.9082450082412095
 51
199.4630994446908119
  0
ARC
  5
110E
  8
0
  6
CONTINUOUS
 62
     3
 10
39.499999999996021
 20
1975.5000000000040927
 30
0.0
 40
9.9999999999960263
210
0.0
220
-0.0000000000000002
230
-1.0
 50
160.5369005553122861
 51
180.0000000000025011
  0
ARC
  5
110F
  8
0
  6
CONTINUOUS
 62
     3
 10
-39.499999999996021
 20
1975.5000000000040927
 30
0.0
 40
9.9999999999960192
210
0.0
220
-0.0000000000000002
230
-1.0
 50
359.9999999999973852
 51
19.4630994446876109
  0
LINE
  5
1110
  8
0
  6
CONTINUOUS
 62
     3
 10
29.5000000000000107
 20
1975.5000000000029559
 30
-0.0000000000004386
 11
29.5
 21
1915.4083269131999714
 31
-0.0000000000004253
210
0.0
220
1.0
230
-0.0000000000000002
  0
LINE
  5
1111
  8
0
  6
CONTINUOUS
 62
     3
 10
-29.5
 20
1975.5000000000029559
 30
-0.0000000000004386
 11
-29.5000000000000107
 21
1915.4083269131999714
 31
-0.0000000000004253
210
0.0
220
1.0
230
-0.0000000000000002
  0
ARC
  5
1112
  8
0
  6
CONTINUOUS
 62
     3
 10
17.5000000000007105
 20
1915.4083269131990619
 30
0.0
 40
11.9999999999992699
210
0.0
220
-0.0000000000000002
230
-1.0
 50
328.2116693829515839
 51
0.0000000000021755
  0
ARC
  5
1113
  8
0
  6
CONTINUOUS
 62
     3
 10
-17.5000000000007105
 20
1915.4083269131990619
 30
0.0
 40
11.9999999999992806
210
0.0
220
-0.0000000000000002
230
-1.0
 50
179.9999999999978115
 51
211.7883306170483024
  0
ARC
  5
1114
  8
0
  6
CONTINUOUS
 62
     3
 10
34.5000000000010019
 20
1904.8726731603460394
 30
0.0
 40
8.0000000000009894
210
0.0
220
-0.0000000000000002
230
-1.0
 50
148.2116693829460132
 51
179.9999999999984084
  0
ARC
  5
1115
  8
0
  6
CONTINUOUS
 62
     3
 10
-34.5000000000010019
 20
1904.8726731603460394
 30
0.0
 40
8.0000000000009948
210
0.0
220
-0.0000000000000002
230
-1.0
 50
0.0000000000016284
 51
31.7883306170539299
  0
LINE
  5
1116
  8
0
  6
VERDECKT
 62
     1
 10
24.5682646352324809
 20
0.1307336141214535
 30
0.0
 11
-24.5682646352333904
 21
0.1307336141214535
 31
0.0
210
0.0
220
1.0
230
-0.0000000000000002
  0
LINE
  5
1117
  8
0
  6
VERDECKT
 62
     1
 10
-28.2520182922507885
 20
1999.3551922044109688
 30
-0.0000000000004439
 11
28.2520182922507885
 21
1999.3551922044109688
 31
-0.0000000000004439
210
0.0
220
1.0
230
-0.0000000000000002
  0
ARC
  5
1118
  8
0
  6
VERDECKT
 62
     1
 10
-20.0000000000000817
 20
5.2837961289048216
 30
0.0
 40
4.9999999999994671
210
0.0
220
-0.0000000000000002
230
-1.0
 50
179.9999999999994884
 51
184.9999999999980105
  0
ARC
  5
1119
  8
0
  6
VERDECKT
 62
     1
 10
20.0000000000009912
 20
5.2837961289048216
 30
0.0
 40
4.9999999999994671
210
0.0
220
-0.0000000000000002
230
-1.0
 50
355.0000000000018758
 51
0.0000000000005216
  0
LINE
  5
111A
  8
0
  6
VERDECKT
 62
     1
 10
-25.0000000000004583
 20
5.2837961289048678
 30
-0.0000000000000012
 11
-25.0000000000004583
 21
1904.8726731603469489
 31
-0.000000000000423
210
0.0
220
1.0
230
-0.0000000000000002
  0
LINE
  5
111B
  8
0
  6
VERDECKT
 62
     1
 10
24.9999999999995488
 20
5.2837961289048678
 30
-0.0000000000000012
 11
24.9999999999995488
 21
1904.8726731603469489
 31
-0.000000000000423
210
0.0
220
1.0
230
-0.0000000000000002
  0
LINE
  5
111C
  8
0
  6
VERDECKT
 62
     1
 10
-24.5682646352333904
 20
0.1307336141214535
 30
0.0
 11
-24.9809734904591991
 21
4.8480174151667459
 31
-0.0000000000000011
210
0.0
220
1.0
230
-0.0000000000000002
  0
LINE
  5
111D
  8
0
  6
VERDECKT
 62
     1
 10
24.5682646352324809
 20
0.1307336141214535
 30
0.0
 11
24.9809734904582896
 21
4.8480174151667459
 31
-0.0000000000000011
210
0.0
220
1.0
230
-0.0000000000000002
  0
ARC
  5
111E
  8
0
  6
VERDECKT
 62
     1
 10
34.5000000000019398
 20
1904.8726731603460394
 30
0.0
 40
9.5000000000018492
210
0.0
220
-0.0000000000000002
230
-1.0
 50
148.2116693829497081
 51
179.9999999999971863
  0
ARC
  5
111F
  8
0
  6
VERDECKT
 62
     1
 10
-34.50000000000189
 20
1904.8726731603460394
 30
0.0
 40
9.5000000000018971
210
0.0
220
-0.0000000000000002
230
-1.0
 50
0.000000000002748
 51
31.7883306170504802
  0
ARC
  5
1120
  8
0
  6
VERDECKT
 62
     1
 10
17.4999999999999787
 20
1915.4083269131999714
 30
0.0
 40
10.4999999999999591
210
0.0
220
-0.0000000000000002
230
-1.0
 50
328.211669382950106
 51
0.0
  0
ARC
  5
1121
  8
0
  6
VERDECKT
 62
     1
 10
-17.4999999999999787
 20
1915.4083269131999714
 30
0.0
 40
10.5000000000000107
210
0.0
220
-0.0000000000000002
230
-1.0
 50
180.0
 51
211.7883306170500077
  0
LINE
  5
1122
  8
0
  6
VERDECKT
 62
     1
 10
28.0000000000000107
 20
1975.5000000000029559
 30
-0.0000000000004386
 11
28.0
 21
1915.4083269131999714
 31
-0.0000000000004253
210
0.0
220
1.0
230
-0.0000000000000002
  0
LINE
  5
1123
  8
0
  6
VERDECKT
 62
     1
 10
-28.0
 20
1975.5000000000029559
 30
-0.0000000000004386
 11
-28.0000000000000107
 21
1915.4083269131999714
 31
-0.0000000000004253
210
0.0
220
1.0
230
-0.0000000000000002
  0
ARC
  5
1124
  8
0
  6
VERDECKT
 62
     1
 10
39.4999999999980602
 20
1975.5000000000029559
 30
0.0
 40
11.4999999999980709
210
0.0
220
-0.0000000000000002
230
-1.0
 50
160.5369005553150998
 51
180.0000000000011084
  0
ARC
  5
1125
  8
0
  6
VERDECKT
 62
     1
 10
-39.4999999999980673
 20
1975.5000000000029559
 30
0.0
 40
11.4999999999980602
210
0.0
220
-0.0000000000000002
230
-1.0
 50
359.9999999999988063
 51
19.4630994446848895
  0
ARC
  5
1126
  8
0
  6
VERDECKT
 62
     1
 10
6.4999999999999041
 20
1987.1620000000029904
 30
0.0
 40
23.5000320571282586
210
0.0
220
-0.0000000000000002
230
-1.0
 50
340.5369005553080797
 51
0.0946380447223777
  0
ARC
  5
1127
  8
0
  6
VERDECKT
 62
     1
 10
-6.4999999999997859
 20
1987.1620000000029904
 30
0.0
 40
23.5000320571283687
210
0.0
220
-0.0000000000000002
230
-1.0
 50
179.9053619552776127
 51
199.463099444691693
  0
LINE
  5
1128
  8
0
  6
VERDECKT
 62
     1
 10
30.0
 20
1991.6174986573419119
 30
-0.0000000000004422
 11
30.0
 21
1987.2008160540378867
 31
-0.0000000000004412
210
0.0
220
1.0
230
-0.0000000000000002
  0
LINE
  5
1129
  8
0
  6
VERDECKT
 62
     1
 10
-30.0
 20
1991.6174986573419119
 30
-0.0000000000004422
 11
-30.0
 21
1987.2008160540378867
 31
-0.0000000000004412
210
0.0
220
1.0
230
-0.0000000000000002
  0
ARC
  5
112A
  8
0
  6
VERDECKT
 62
     1
 10
11.9999999999992006
 20
1991.6174986573419119
 30
0.0
 40
18.0000000000007887
210
0.0
220
-0.0000000000000002
230
-1.0
 50
0.0
 51
25.4594285688070698
  0
ARC
  5
112B
  8
0
  6
VERDECKT
 62
     1
 10
-11.9999999999991402
 20
1991.6174986573419119
 30
0.0
 40
18.0000000000008384
210
0.0
220
-0.0000000000000002
230
-1.0
 50
154.5405714311930012
 51
180.0
  0
LINE
  5
112C
  8
0
  6
VERDECKT
 62
     1
 10
-28.2520182922508596
 20
1999.3551922044109688
 30
-0.0000000000004439
 11
-29.6063531499384887
 21
2000.0
 31
-0.0000000000004441
210
0.0
220
1.0
230
-0.0000000000000002
  0
LINE
  5
112D
  8
0
  6
VERDECKT
 62
     1
 10
28.2520182922508596
 20
1999.3551922044109688
 30
-0.0000000000004439
 11
29.6063531499384887
 21
2000.0
 31
-0.0000000000004441
210
0.0
220
1.0
230
-0.0000000000000002
  0
LINE
  5
112E
  8
0
  6
VERDECKT
 62
     1
 10
24.5682646352324809
 20
0.1307336141214676
 30
0.0
 11
26.06255668237009
 21
0.0000000000000141
 31
0.0
210
0.0
220
1.0
230
-0.0000000000000002
  0
LINE
  5
112F
  8
0
  6
VERDECKT
 62
     1
 10
-24.5682646352333904
 20
0.1307336141214676
 30
0.0
 11
-26.0625566823709995
 21
0.0000000000000141
 31
0.0
210
0.0
220
1.0
230
-0.0000000000000002
  0
ENDBLK
  5
1131
  8
0
  0
ENDSEC
  0
SECTION
  2
ENTITIES
  0
TEXT
  5
8F
  8
VOLL
 10
78.076754716981128
 20
31.025947764705851
 30
0.0
 40
1.8
  1

  7
GREEKS
  0
INSERT
  5
882
  8
ADSK_ASSOC_ENTITY_BACKUPS
  2
*S2
 10
0.0
 20
0.0
 30
0.0
  0
INSERT
  5
1132
  8
0
  2
A$C095BCF2E
 10
293.6509325520673883
 20
0.0
 30
1403.2600913088510879
  0
VIEWPORT
  5
587
 67
     1
  8
0
 10
-24.5774430609077399
 20
214.429929592619203
 30
0.0
 40
1310.5777382107719404
 41
734.1337865111141809
 68
     1
 69
     1
1001
ACAD
1000
MVIEW
1002
{
1070
    16
1010
0.0
1020
0.0
1030
0.0
1010
0.0
1020
0.0
1030
1.0
1040
0.0
1040
734.1337865111141809
1040
-24.5774430609077399
1040
214.429929592619203
1040
50.0
1040
0.0
1040
0.0
1070
     0
1070
  1500
1070
     1
1070
     1
1070
     0
1070
     0
1070
     0
1070
     0
1040
0.0
1040
0.0
1040
0.0
1040
10.0
1040
10.0
1040
10.0
1040
10.0
1070
     0
1002
{
1002
}
1002
}
  0
ENDSEC
  0
EOF
