  0
SECTION
  2
HEADER
  9
$ACADVER
  1
AC1009
  9
$INSBASE
 10
0.0
 20
0.0
 30
0.0
  9
$EXTMIN
 10
50.6132555908579604
 20
-1550.9975735121508933
 30
-1550.9975735121499838
  9
$EXTMAX
 10
172.8590404414547947
 20
1356.9287923324629901
 30
1269.0024264878500162
  9
$LIMMIN
 10
0.0
 20
0.0
  9
$LIMMAX
 10
210.0
 20
297.0
  9
$ORTHOMODE
 70
     1
  9
$REGENMODE
 70
     1
  9
$FILLMODE
 70
     1
  9
$QTEXTMODE
 70
     0
  9
$MIRRTEXT
 70
     1
  9
$DRAGMODE
 70
     2
  9
$LTSCALE
 40
10.0
  9
$OSMODE
 70
    39
  9
$ATTMODE
 70
     1
  9
$TEXTSIZE
 40
3.5
  9
$TRACEWID
 40
0.5
  9
$TEXTSTYLE
  7
STANDARD
  9
$CLAYER
  8
ROHR
  9
$CELTYPE
  6
BYLAYER
  9
$CECOLOR
 62
   256
  9
$DIMSCALE
 40
1.0
  9
$DIMASZ
 40
3.5
  9
$DIMEXO
 40
1.0
  9
$DIMDLI
 40
7.0
  9
$DIMRND
 40
0.0
  9
$DIMDLE
 40
0.0
  9
$DIMEXE
 40
1.0
  9
$DIMTP
 40
0.0
  9
$DIMTM
 40
0.0
  9
$DIMTXT
 40
3.5
  9
$DIMCEN
 40
1.5
  9
$DIMTSZ
 40
0.0
  9
$DIMTOL
 70
     0
  9
$DIMLIM
 70
     0
  9
$DIMTIH
 70
     0
  9
$DIMTOH
 70
     0
  9
$DIMSE1
 70
     0
  9
$DIMSE2
 70
     0
  9
$DIMTAD
 70
     1
  9
$DIMZIN
 70
     8
  9
$DIMBLK
  1

  9
$DIMASO
 70
     1
  9
$DIMSHO
 70
     0
  9
$DIMPOST
  1

  9
$DIMAPOST
  1

  9
$DIMALT
 70
     0
  9
$DIMALTD
 70
     2
  9
$DIMALTF
 40
25.3999999999999986
  9
$DIMLFAC
 40
2.0
  9
$DIMTOFL
 70
     1
  9
$DIMTVP
 40
0.0
  9
$DIMTIX
 70
     0
  9
$DIMSOXD
 70
     0
  9
$DIMSAH
 70
     0
  9
$DIMBLK1
  1

  9
$DIMBLK2
  1

  9
$DIMSTYLE
  2
STANDARD
  9
$DIMCLRD
 70
     0
  9
$DIMCLRE
 70
     0
  9
$DIMCLRT
 70
     1
  9
$DIMTFAC
 40
0.5
  9
$DIMGAP
 40
1.5
  9
$LUNITS
 70
     2
  9
$LUPREC
 70
     2
  9
$SKETCHINC
 40
1.0
  9
$FILLETRAD
 40
15.0
  9
$AUNITS
 70
     0
  9
$AUPREC
 70
     0
  9
$MENU
  1
ACAD
  9
$ELEVATION
 40
0.0
  9
$PELEVATION
 40
0.0
  9
$THICKNESS
 40
0.0
  9
$LIMCHECK
 70
     0
  9
$BLIPMODE
 70
     0
  9
$CHAMFERA
 40
2.0
  9
$CHAMFERB
 40
2.0
  9
$SKPOLY
 70
     0
  9
$TDCREATE
 40
2455397.8646990740671754
  9
$TDUPDATE
 40
2460026.4718981487676501
  9
$TDINDWG
 40
0.2713813889
  9
$TDUSRTIMER
 40
0.2713813889
  9
$USRTIMER
 70
     1
  9
$ANGBASE
 50
0.0
  9
$ANGDIR
 70
     0
  9
$PDMODE
 70
     0
  9
$PDSIZE
 40
0.0
  9
$PLINEWID
 40
0.0
  9
$COORDS
 70
     1
  9
$SPLFRAME
 70
     0
  9
$SPLINETYPE
 70
     6
  9
$SPLINESEGS
 70
     8
  9
$ATTDIA
 70
     1
  9
$ATTREQ
 70
     1
  9
$HANDLING
 70
     1
  9
$HANDSEED
  5
4702
  9
$SURFTAB1
 70
     6
  9
$SURFTAB2
 70
     6
  9
$SURFTYPE
 70
     6
  9
$SURFU
 70
     6
  9
$SURFV
 70
     6
  9
$UCSNAME
  2

  9
$UCSORG
 10
0.0
 20
0.0
 30
0.0
  9
$UCSXDIR
 10
1.0
 20
0.0
 30
0.0
  9
$UCSYDIR
 10
0.0
 20
1.0
 30
0.0
  9
$PUCSNAME
  2

  9
$PUCSORG
 10
0.0
 20
0.0
 30
0.0
  9
$PUCSXDIR
 10
1.0
 20
0.0
 30
0.0
  9
$PUCSYDIR
 10
0.0
 20
1.0
 30
0.0
  9
$USERI1
 70
     0
  9
$USERI2
 70
     0
  9
$USERI3
 70
     0
  9
$USERI4
 70
     0
  9
$USERI5
 70
     0
  9
$USERR1
 40
0.0
  9
$USERR2
 40
0.0
  9
$USERR3
 40
0.0
  9
$USERR4
 40
0.0
  9
$USERR5
 40
0.0
  9
$WORLDVIEW
 70
     1
  9
$SHADEDGE
 70
     3
  9
$SHADEDIF
 70
    70
  9
$TILEMODE
 70
     1
  9
$MAXACTVP
 70
    16
  9
$PLIMCHECK
 70
     0
  9
$PEXTMIN
 10
1.877923864476315
 20
-631.4640017244236105
 30
-0.0000000349181948
  9
$PEXTMAX
 10
332.1051783375668833
 20
808.6304433830704284
 30
0.0000000814935746
  9
$PLIMMIN
 10
1.887995218998582
 20
2.049085610220942
  9
$PLIMMAX
 10
211.8879952189986113
 20
299.0490856102209136
  9
$UNITMODE
 70
     0
  9
$VISRETAIN
 70
     0
  9
$PLINEGEN
 70
     0
  9
$PSLTSCALE
 70
     0
  0
ENDSEC
  0
SECTION
  2
TABLES
  0
TABLE
  2
VPORT
 70
     1
  0
VPORT
  2
*ACTIVE
 70
     0
 10
0.0
 20
0.0
 11
1.0
 21
1.0
 12
0.0
 22
0.0
 13
0.0
 23
0.0
 14
1.0
 24
1.0
 15
10.0
 25
10.0
 16
-0.0000000000020464
 26
0.0
 36
8856.6500097852385807
 17
1457.0914031224479004
 27
92.9867502942011015
 37
-140.9975660529497929
 40
3917.9486804559110169
 41
1.6141935483870959
 42
50.0
 43
0.0
 44
0.0
 50
0.0
 51
0.0
 71
     0
 72
  1500
 73
     1
 74
     0
 75
     0
 76
     0
 77
     0
 78
     0
  0
ENDTAB
  0
TABLE
  2
LTYPE
 70
     6
  0
LTYPE
  2
CONTINUOUS
 70
     0
  3
Solid line
 72
    65
 73
     0
 40
0.0
  0
LTYPE
  2
PHANTOM2
 70
     0
  3
Phantom (.5x) ___ _ _ ___ _ _ ___ _ _ ___ _ _
 72
    65
 73
     6
 40
1.25
 49
0.625
 49
-0.125
 49
0.125
 49
-0.125
 49
0.125
 49
-0.125
  0
LTYPE
  2
VERDECKT
 70
     0
  3
Verdeckt __ __ __ __ __ __ __ __ __ __ __ __ __
 72
    65
 73
     2
 40
0.375
 49
0.25
 49
-0.125
  0
ENDTAB
  0
TABLE
  2
LAYER
 70
    13
  0
LAYER
  2
0
 70
     0
 62
     7
  6
CONTINUOUS
  0
LAYER
  2
VOLL
 70
     0
 62
     1
  6
CONTINUOUS
  0
LAYER
  2
DEFPOINTS
 70
     0
 62
     7
  6
CONTINUOUS
  0
LAYER
  2
ADSK_ASSOC_ENTITY_BACKUPS
 70
     1
 62
    -7
  6
CONTINUOUS
  0
LAYER
  2
ROHR
 70
     0
 62
     9
  6
CONTINUOUS
  0
ENDTAB
  0
TABLE
  2
STYLE
 70
     5
  0
STYLE
  2
STANDARD
 70
     0
 40
0.0
 41
0.8
 50
0.0
 71
     0
 42
3.5
  3
simplex.shx
  4

  0
STYLE
  2
GREEKS
 70
     0
 40
0.0
 41
0.8
 50
0.0
 71
     0
 42
2.5
  3
SIMPLEX.shx
  4

  0
ENDTAB
  0
TABLE
  2
VIEW
 70
     1
  0
ENDTAB
  0
TABLE
  2
UCS
 70
     0
  0
ENDTAB
  0
TABLE
  2
APPID
 70
    26
  0
APPID
  2
ACAD
 70
     0
  0
APPID
  2
ACAD_NAV_VCDISPLAY
 70
     0
  0
APPID
  2
ACAD_MLEADERVER
 70
     0
  0
APPID
  2
ACAD_EXEMPT_FROM_CAD_STANDARDS
 70
     0
  0
APPID
  2
ACAD_PSEXT
 70
     0
  0
APPID
  2
ACAECLAYERSTANDARD
 70
     0
  0
APPID
  2
ACAUTHENVIRON
 70
     0
  0
APPID
  2
ACCMTRANSPARENCY
 70
     0
  0
APPID
  2
ACAD_STEPID
 70
     0
  0
APPID
  2
ACSYNERGY
 70
     0
  0
APPID
  2
SYNERGY_BODY_TBR_ID
 70
     0
  0
APPID
  2
ACAD_VIEW_EDGE_ID
 70
     0
  0
APPID
  2
ACSYNERGYSKETCH
 70
     0
  0
APPID
  2
ACAD_MODELDOC_XFORM
 70
     0
  0
APPID
  2
ACAD_DSTYLE_DIMJAG
 70
     0
  0
APPID
  2
ACAD_DSTYLE_DIMTALN
 70
     0
  0
APPID
  2
ACADANNOMONITORALERTICONDI
 70
     0
  0
APPID
  2
ACAD_DIMASSOC_CALC_DIMLFAC
 70
     0
  0
APPID
  2
ACAD_DIMASSOC_DIMLFAC
 70
     0
  0
APPID
  2
ACAD_DIMASSOC_OVERRIDDEN_D
 70
     0
  0
APPID
  2
ACAD_DSTYLE_DIMRADIAL_EXTENSION
 70
     0
  0
APPID
  2
ACADANNOAV
 70
     0
  0
APPID
  2
ACDBDYNAMICBLOCKTRUENAME
 70
     0
  0
APPID
  2
ACDBDYNAMICBLOCKGUID
 70
     0
  0
APPID
  2
ACAD_TC
 70
     0
  0
APPID
  2
AcDbAttr
 70
     0
  0
ENDTAB
  0
TABLE
  2
DIMSTYLE
 70
     2
  0
DIMSTYLE
  2
STANDARD
 70
     0
  3

  4

  5

  6

  7

 40
1.0
 41
0.18
 42
0.0625
 43
0.38
 44
0.18
 45
0.0
 46
0.0
 47
0.0
 48
0.0
140
0.18
141
0.09
142
0.0
143
25.3999999999999986
144
1.0
145
0.0
146
1.0
147
0.09
 71
     0
 72
     0
 73
     1
 74
     1
 75
     0
 76
     0
 77
     0
 78
     0
170
     0
171
     2
172
     0
173
     0
174
     0
175
     0
176
     0
177
     0
178
     0
  0
ENDTAB
  0
ENDSEC
  0
SECTION
  2
BLOCKS
  0
BLOCK
  8
0
  2
$MODEL_SPACE
 70
     0
 10
0.0
 20
0.0
 30
0.0
  3
$MODEL_SPACE
  1

  0
ENDBLK
  5
36
  8
0
  0
BLOCK
 67
     1
  8
0
  2
$PAPER_SPACE
 70
     0
 10
0.0
 20
0.0
 30
0.0
  3
$PAPER_SPACE
  1

  0
ENDBLK
  5
34
 67
     1
  8
0
  0
BLOCK
  8
0
  2
*S0
 70
     1
 10
0.0
 20
0.0
 30
0.0
  3
*S0
  1

  0
ENDBLK
  5
B3A
  8
0
  0
BLOCK
  8
0
  2
A$C63168FD4
 70
     0
 10
0.0
 20
0.0
 30
0.0
  3
A$C63168FD4
  1

  0
LINE
  5
467D
  8
0
  6
CONTINUOUS
 62
     3
 10
61.4284176492764473
 20
-1550.9975735121499838
 30
0.0000000000003307
 11
162.0438783830350928
 21
-1550.9975735121499838
 31
0.0000000000003083
210
0.0000000000000002
220
1.0
230
-0.0000000000000002
  0
LINE
  5
467E
  8
0
  6
CONTINUOUS
 62
     3
 10
56.0293921782314186
 20
1269.0024264878500162
 30
-0.0000000000002942
 11
167.4429038540814076
 21
1269.0024264878500162
 31
-0.000000000000319
210
0.0000000000000002
220
1.0
230
-0.0000000000000002
  0
ARC
  5
467F
  8
0
  6
CONTINUOUS
 62
     3
 10
-72.7361480161614509
 20
-1542.5609640830650733
 30
0.0000000000000162
 40
12.0000000000056506
210
0.0
220
-0.0000000000000002
230
-1.0
 50
355.0000000000003979
 51
359.9999999999977831
  0
ARC
  5
4680
  8
0
  6
CONTINUOUS
 62
     3
 10
-150.736148016161394
 20
-1542.5609640830650733
 30
0.0000000000000335
 40
11.9999999999944293
210
0.0
220
-0.0000000000000002
230
-1.0
 50
179.9999999999988916
 51
185.0000000000009095
  0
LINE
  5
4681
  8
0
  6
CONTINUOUS
 62
     3
 10
61.4284176492765113
 20
-1550.9975735121499838
 30
0.0000000000003307
 11
60.7818116390548724
 21
-1543.6068329960369283
 31
0.0000000000003291
210
0.0000000000000002
220
1.0
230
-0.0000000000000002
  0
LINE
  5
4682
  8
0
  6
CONTINUOUS
 62
     3
 10
162.0438783830350928
 20
-1550.9975735121499838
 30
0.0000000000003083
 11
162.6904843932568099
 21
-1543.6068329960369283
 31
0.0000000000003067
210
0.0000000000000002
220
1.0
230
-0.0000000000000002
  0
LINE
  5
4683
  8
0
  6
CONTINUOUS
 62
     3
 10
167.4429038540814929
 20
1269.0024264878500162
 30
-0.000000000000319
 11
168.3938426920726954
 21
1266.9631315687970528
 31
-0.0000000000003186
210
0.0000000000000002
220
1.0
230
-0.0000000000000002
  0
LINE
  5
4684
  8
0
  6
CONTINUOUS
 62
     3
 10
56.0293921782313973
 20
1269.0024264878500162
 30
-0.0000000000002942
 11
55.0784533402401308
 21
1266.9631315687970528
 31
-0.0000000000002938
210
0.0000000000000002
220
1.0
230
-0.0000000000000002
  0
ARC
  5
4685
  8
0
  6
CONTINUOUS
 62
     3
 10
-77.7355849474034812
 20
1256.3977998546160961
 30
0.0000000000000173
 40
24.999436931558801
210
0.0
220
-0.0000000000000002
230
-1.0
 50
359.9997139057896902
 51
25.0002860942114893
  0
ARC
  5
4686
  8
0
  6
CONTINUOUS
 62
     3
 10
-145.7367110849091034
 20
1256.3977998546160961
 30
0.0000000000000324
 40
24.9994369315590212
210
0.0
220
-0.0000000000000002
230
-1.0
 50
154.9997139057888091
 51
180.0002860942103098
  0
LINE
  5
4687
  8
0
  6
CONTINUOUS
 62
     3
 10
52.7362387054567279
 20
1238.2354264878511003
 30
-0.0000000000002867
 11
52.7361480161562568
 21
1256.3976750252791135
 31
-0.0000000000002907
210
0.0000000000000002
220
1.0
230
-0.0000000000000002
  0
LINE
  5
4688
  8
0
  6
CONTINUOUS
 62
     3
 10
170.7360573268560984
 20
1238.2354264878511003
 30
-0.0000000000003129
 11
170.7361480161565908
 21
1256.3976750252791135
 31
-0.000000000000317
210
0.0000000000000002
220
1.0
230
-0.0000000000000002
  0
ARC
  5
4689
  8
0
  6
CONTINUOUS
 62
     3
 10
-77.7361480161571166
 20
1238.2354264878511003
 30
0.0000000000000173
 40
24.9999093107003709
210
0.0
220
-0.0000000000000002
230
-1.0
 50
333.1122293409803206
 51
359.9999999999994884
  0
ARC
  5
468A
  8
0
  6
CONTINUOUS
 62
     3
 10
-145.7361480161559939
 20
1238.2354264878511003
 30
0.0000000000000324
 40
24.9999093107001293
210
0.0
220
-0.0000000000000002
230
-1.0
 50
180.0000000000005116
 51
206.8877706590199068
  0
ARC
  5
468B
  8
0
  6
CONTINUOUS
 62
     3
 10
-44.736148016158559
 20
1221.5024264878509257
 30
0.00000000000001
 40
11.9999999999979199
210
0.0
220
-0.0000000000000002
230
-1.0
 50
153.112229340976512
 51
180.0000000000021032
  0
ARC
  5
468C
  8
0
  6
CONTINUOUS
 62
     3
 10
-178.7361480161538907
 20
1221.5024264878509257
 30
0.0000000000000398
 40
11.9999999999974705
210
0.0
220
-0.0000000000000002
230
-1.0
 50
359.9999999999968168
 51
26.8877706590233991
  0
ARC
  5
468D
  8
0
  6
CONTINUOUS
 62
     3
 10
-52.7361480161569318
 20
1112.9684339679820368
 30
0.0000000000000117
 40
7.999999999999428
210
0.0
220
-0.0000000000000002
230
-1.0
 50
145.6988472432097979
 51
180.0000000000015916
  0
ARC
  5
468E
  8
0
  6
CONTINUOUS
 62
     3
 10
-170.736148016155596
 20
1112.9684339679820368
 30
0.000000000000038
 40
7.9999999999991749
210
0.0
220
-0.0000000000000002
230
-1.0
 50
359.9999999999984084
 51
34.3011527567913674
  0
ARC
  5
468F
  8
0
  6
CONTINUOUS
 62
     3
 10
-71.7361480161571592
 20
1125.9299153647989442
 30
0.000000000000016
 40
15.0000000000006697
210
0.0
220
-0.0000000000000002
230
-1.0
 50
325.6988472432076946
 51
359.9999999999973852
  0
ARC
  5
4690
  8
0
  6
CONTINUOUS
 62
     3
 10
-151.7361480161559086
 20
1125.9299153647989442
 30
0.0000000000000338
 40
15.0000000000005098
210
0.0
220
-0.0000000000000002
230
-1.0
 50
180.0000000000025011
 51
214.3011527567927885
  0
LINE
  5
4691
  8
0
  6
CONTINUOUS
 62
     3
 10
166.7361480161563918
 20
1221.5024264878509257
 30
-0.0000000000003083
 11
166.7361480161563918
 21
1125.9299153647980347
 31
-0.0000000000002871
210
0.0000000000000002
220
1.0
230
-0.0000000000000002
  0
LINE
  5
4692
  8
0
  6
CONTINUOUS
 62
     3
 10
56.7361480161564202
 20
1221.5024264878509257
 30
-0.0000000000002839
 11
56.7361480161564131
 21
1125.9299153647980347
 31
-0.0000000000002626
210
0.0000000000000002
220
1.0
230
-0.0000000000000002
  0
LINE
  5
4693
  8
0
  6
CONTINUOUS
 62
     3
 10
162.7361480161563918
 20
1112.9684339679820368
 30
-0.0000000000002833
 11
162.7361480161557949
 21
-1542.5609640830650733
 31
0.0000000000003063
210
0.0000000000000002
220
1.0
230
-0.0000000000000002
  0
LINE
  5
4694
  8
0
  6
CONTINUOUS
 62
     3
 10
60.7361480161563989
 20
1112.9684339679820368
 30
-0.0000000000002606
 11
60.7361480161558092
 21
-1542.5609640830650733
 31
0.000000000000329
210
0.0000000000000002
220
1.0
230
-0.0000000000000002
  0
ARC
  5
4695
  8
0
  6
VERDECKT
 62
     1
 10
-72.7361480161544449
 20
-1542.5609640830659828
 30
0.0000000000000162
 40
9.9999999999986287
210
0.0
220
-0.0000000000000002
230
-1.0
 50
354.9999999999994884
 51
0.0000000000000128
  0
ARC
  5
4696
  8
0
  6
VERDECKT
 62
     1
 10
-150.736148016172109
 20
-1542.5609640830668923
 30
0.0000000000000335
 40
9.9999999999837144
210
0.0
220
-0.0000000000000002
230
-1.0
 50
179.9999999999961062
 51
185.0000000000040075
  0
LINE
  5
4697
  8
0
  6
VERDECKT
 62
     1
 10
63.4360573243630768
 20
-1550.9975735121499838
 30
0.0000000000003303
 11
62.7742010352383488
 21
-1543.4325215105429834
 31
0.0000000000003286
210
0.0000000000000002
220
1.0
230
-0.0000000000000002
  0
LINE
  5
4698
  8
0
  6
VERDECKT
 62
     1
 10
160.0362387079485131
 20
-1550.9975735121508933
 30
0.0000000000003088
 11
160.6980949970732979
 21
-1543.4325215105429834
 31
0.0000000000003071
210
0.0000000000000002
220
1.0
230
-0.0000000000000002
  0
ARC
  5
4699
  8
0
  6
VERDECKT
 62
     1
 10
-44.7358555691274304
 20
1221.5023565803869587
 30
0.00000000000001
 40
14.0002924472035595
210
0.0
220
-0.0000000000000002
230
-1.0
 50
153.1125154351906872
 51
179.9997139057875017
  0
ARC
  5
469A
  8
0
  6
VERDECKT
 62
     1
 10
-178.7364404631854029
 20
1221.5023565803869587
 30
0.0000000000000398
 40
14.0002924472035399
210
0.0
220
-0.0000000000000002
230
-1.0
 50
0.0002860942124683
 51
26.8874845648092808
  0
ARC
  5
469B
  8
0
  6
VERDECKT
 62
     1
 10
-77.7366284629526803
 20
1238.2355413353739095
 30
0.0000000000000173
 40
23.0003897577826208
210
0.0
220
-0.0000000000000002
230
-1.0
 50
333.1125154351929041
 51
359.9997139057874165
  0
ARC
  5
469C
  8
0
  6
VERDECKT
 62
     1
 10
-145.7356675693602028
 20
1238.2355413353739095
 30
0.0000000000000324
 40
23.0003897577826315
210
0.0
220
-0.0000000000000002
230
-1.0
 50
180.0002860942124983
 51
206.8874845648070959
  0
LINE
  5
469D
  8
0
  6
VERDECKT
 62
     1
 10
165.2361480161565908
 20
1269.0024264878500162
 30
-0.0000000000003185
 11
165.9086875670786014
 21
1267.5601607665819301
 31
-0.0000000000003182
210
0.0000000000000002
220
1.0
230
-0.0000000000000002
  0
LINE
  5
469E
  8
0
  6
VERDECKT
 62
     1
 10
58.2361480161562213
 20
1269.0024264878500162
 30
-0.0000000000002947
 11
57.5636084652342532
 21
1267.5601607665819301
 31
-0.0000000000002944
210
0.0000000000000002
220
1.0
230
-0.0000000000000002
  0
LINE
  5
469F
  8
0
  6
VERDECKT
 62
     1
 10
164.7361480161563918
 20
1221.5024264878509257
 30
-0.0000000000003079
 11
164.7361480161563918
 21
1125.9299153647980347
 31
-0.0000000000002867
210
0.0000000000000002
220
1.0
230
-0.0000000000000002
  0
LINE
  5
46A0
  8
0
  6
VERDECKT
 62
     1
 10
58.7361480161564273
 20
1221.5024264878509257
 30
-0.0000000000002843
 11
58.7361480161564131
 21
1125.9299153647980347
 31
-0.0000000000002631
210
0.0000000000000002
220
1.0
230
-0.0000000000000002
  0
ARC
  5
46A1
  8
0
  6
VERDECKT
 62
     1
 10
-71.736148016156406
 20
1125.9299153647980347
 30
0.000000000000016
 40
12.9999999999999893
210
0.0
220
-0.0000000000000002
230
-1.0
 50
325.6988472432087747
 51
0.0000000000000128
  0
ARC
  5
46A2
  8
0
  6
VERDECKT
 62
     1
 10
-151.7361480161561929
 20
1125.9299153647980347
 30
0.0000000000000338
 40
13.0000000000002292
210
0.0
220
-0.0000000000000002
230
-1.0
 50
180.0
 51
214.3011527567906001
  0
ARC
  5
46A3
  8
0
  6
VERDECKT
 62
     1
 10
-52.7361480161565765
 20
1112.9684339679820368
 30
0.0000000000000117
 40
9.9999999999997993
210
0.0
220
-0.0000000000000002
230
-1.0
 50
145.6988472432099115
 51
180.0000000000013074
  0
ARC
  5
46A4
  8
0
  6
VERDECKT
 62
     1
 10
-170.7361480161557949
 20
1112.9684339679820368
 30
0.000000000000038
 40
9.9999999999993747
210
0.0
220
-0.0000000000000002
230
-1.0
 50
359.9999999999988063
 51
34.3011527567915735
  0
LINE
  5
46A5
  8
0
  6
VERDECKT
 62
     1
 10
54.7362387054567208
 20
1238.2354264878511003
 30
-0.0000000000002871
 11
54.7361480311121582
 21
1256.3946798239639975
 31
-0.0000000000002912
210
0.0000000000000002
220
1.0
230
-0.0000000000000002
  0
LINE
  5
46A6
  8
0
  6
VERDECKT
 62
     1
 10
168.7360573268560984
 20
1238.2354264878511003
 30
-0.0000000000003125
 11
168.7361480012006894
 21
1256.3946798239639975
 31
-0.0000000000003165
210
0.0000000000000002
220
1.0
230
-0.0000000000000002
  0
ARC
  5
46A7
  8
0
  6
VERDECKT
 62
     1
 10
-85.4468694014631751
 20
1254.5579826576840787
 30
0.000000000000019
 40
30.7657744257044889
210
0.0
220
-0.0000000000000002
230
-1.0
 50
3.4337317896948312
 51
25.0000000000003801
  0
ARC
  5
46A8
  8
0
  6
VERDECKT
 62
     1
 10
-138.0254266308496085
 20
1254.5579826576840787
 30
0.0000000000000307
 40
30.7657744257046701
210
0.0
220
-0.0000000000000002
230
-1.0
 50
154.9999999999994031
 51
176.5662682103047132
  0
ARC
  5
46A9
  8
0
  6
VERDECKT
 62
     1
 10
-54.8361480311120104
 20
1256.3946803232929597
 30
0.0000000000000122
 40
0.1000000000010917
210
0.0
220
-0.0000000000000002
230
-1.0
 50
359.9997139058393145
 51
3.4337317897045381
  0
ARC
  5
46AA
  8
0
  6
VERDECKT
 62
     1
 10
-168.6361480012087952
 20
1256.3946803232929597
 30
0.0000000000000375
 40
0.0999999999931796
210
0.0
220
-0.0000000000000002
230
-1.0
 50
176.5662682101539076
 51
180.0002860942909138
  0
LINE
  5
46AB
  8
0
  6
VERDECKT
 62
     1
 10
160.7361480161563918
 20
1112.9684339679820368
 30
-0.0000000000002829
 11
160.7361480161557949
 21
-1542.5609640830659828
 31
0.0000000000003067
210
0.0000000000000002
220
1.0
230
-0.0000000000000002
  0
LINE
  5
46AC
  8
0
  6
VERDECKT
 62
     1
 10
62.7361480161563989
 20
1112.9684339679820368
 30
-0.0000000000002611
 11
62.7361480161558234
 21
-1542.5609640830659828
 31
0.0000000000003286
210
0.0000000000000002
220
1.0
230
-0.0000000000000002
  0
ENDBLK
  5
46AE
  8
0
  0
ENDSEC
  0
SECTION
  2
ENTITIES
  0
TEXT
  5
2998
  8
VOLL
 10
78.076754716981128
 20
31.025947764705851
 30
0.0
 40
1.8
  1

  7
GREEKS
  0
INSERT
  5
2999
  8
ADSK_ASSOC_ENTITY_BACKUPS
  2
*S0
 10
0.0
 20
0.0
 30
0.0
  0
INSERT
  5
46AF
  8
ROHR
  2
A$C63168FD4
 10
0.0
 20
0.0
 30
0.0
  0
VIEWPORT
  5
928
 67
     1
  8
0
 10
612.3577185344420286
 20
635.4099630648267976
 30
0.0
 40
7496.3766761553533797
 41
4644.0383085694620604
 68
     1
 69
     1
1001
ACAD
1000
MVIEW
1002
{
1070
    16
1010
0.0
1020
0.0
1030
0.0
1010
0.0
1020
0.0
1030
1.0
1040
0.0
1040
4644.0383085694620604
1040
612.3577185344420286
1040
635.4099630648267976
1040
50.0
1040
0.0
1040
0.0
1070
     0
1070
  1500
1070
     1
1070
     1
1070
     0
1070
     0
1070
     0
1070
     0
1040
0.0
1040
0.0
1040
0.0
1040
10.0
1040
10.0
1040
10.0
1040
10.0
1070
     0
1002
{
1002
}
1002
}
  0
ENDSEC
  0
EOF
