  0
SECTION
  2
HEADER
  9
$ACADVER
  1
AC1009
  9
$INSBASE
 10
0.0
 20
0.0
 30
0.0
  9
$EXTMIN
 10
-76.0
 20
-0.0000000000009095
 30
-3075.0
  9
$EXTMAX
 10
76.0
 20
0.0000000000000046
 30
195.9139251708984091
  9
$LIMMIN
 10
0.0
 20
0.0
  9
$LIMMAX
 10
210.0
 20
297.0
  9
$ORTHOMODE
 70
     1
  9
$REGENMODE
 70
     1
  9
$FILLMODE
 70
     1
  9
$QTEXTMODE
 70
     0
  9
$MIRRTEXT
 70
     1
  9
$DRAGMODE
 70
     2
  9
$LTSCALE
 40
10.0
  9
$OSMODE
 70
  3583
  9
$ATTMODE
 70
     1
  9
$TEXTSIZE
 40
3.5
  9
$TRACEWID
 40
0.5
  9
$TEXTSTYLE
  7
STANDARD
  9
$CLAYER
  8
STEMPEL
  9
$CELTYPE
  6
BYLAYER
  9
$CECOLOR
 62
   256
  9
$DIMSCALE
 40
1.0
  9
$DIMASZ
 40
3.5
  9
$DIMEXO
 40
1.0
  9
$DIMDLI
 40
0.38
  9
$DIMRND
 40
0.0
  9
$DIMDLE
 40
0.0
  9
$DIMEXE
 40
1.0
  9
$DIMTP
 40
0.0
  9
$DIMTM
 40
0.000000001
  9
$DIMTXT
 40
3.5
  9
$DIMCEN
 40
0.09
  9
$DIMTSZ
 40
0.0
  9
$DIMTOL
 70
     0
  9
$DIMLIM
 70
     0
  9
$DIMTIH
 70
     0
  9
$DIMTOH
 70
     0
  9
$DIMSE1
 70
     0
  9
$DIMSE2
 70
     0
  9
$DIMTAD
 70
     1
  9
$DIMZIN
 70
     8
  9
$DIMBLK
  1

  9
$DIMASO
 70
     1
  9
$DIMSHO
 70
     0
  9
$DIMPOST
  1

  9
$DIMAPOST
  1

  9
$DIMALT
 70
     0
  9
$DIMALTD
 70
     2
  9
$DIMALTF
 40
25.3999999999999986
  9
$DIMLFAC
 40
2.0
  9
$DIMTOFL
 70
     1
  9
$DIMTVP
 40
0.0
  9
$DIMTIX
 70
     0
  9
$DIMSOXD
 70
     0
  9
$DIMSAH
 70
     0
  9
$DIMBLK1
  1

  9
$DIMBLK2
  1

  9
$DIMSTYLE
  2
LORO
  9
$DIMCLRD
 70
     0
  9
$DIMCLRE
 70
     0
  9
$DIMCLRT
 70
     1
  9
$DIMTFAC
 40
0.5
  9
$DIMGAP
 40
1.5
  9
$LUNITS
 70
     2
  9
$LUPREC
 70
     2
  9
$SKETCHINC
 40
1.0
  9
$FILLETRAD
 40
8.0
  9
$AUNITS
 70
     0
  9
$AUPREC
 70
     0
  9
$MENU
  1
ACAD
  9
$ELEVATION
 40
0.0
  9
$PELEVATION
 40
0.0
  9
$THICKNESS
 40
0.0
  9
$LIMCHECK
 70
     0
  9
$BLIPMODE
 70
     0
  9
$CHAMFERA
 40
0.0
  9
$CHAMFERB
 40
0.0
  9
$SKPOLY
 70
     0
  9
$TDCREATE
 40
2455397.8646990740671754
  9
$TDUPDATE
 40
2460747.4307638891041279
  9
$TDINDWG
 40
0.2146905556
  9
$TDUSRTIMER
 40
0.2146905556
  9
$USRTIMER
 70
     1
  9
$ANGBASE
 50
0.0
  9
$ANGDIR
 70
     0
  9
$PDMODE
 70
     0
  9
$PDSIZE
 40
0.0
  9
$PLINEWID
 40
0.0
  9
$COORDS
 70
     1
  9
$SPLFRAME
 70
     0
  9
$SPLINETYPE
 70
     6
  9
$SPLINESEGS
 70
     8
  9
$ATTDIA
 70
     1
  9
$ATTREQ
 70
     1
  9
$HANDLING
 70
     1
  9
$HANDSEED
  5
2C9F
  9
$SURFTAB1
 70
     6
  9
$SURFTAB2
 70
     6
  9
$SURFTYPE
 70
     6
  9
$SURFU
 70
     6
  9
$SURFV
 70
     6
  9
$UCSNAME
  2

  9
$UCSORG
 10
0.0
 20
0.0
 30
0.0
  9
$UCSXDIR
 10
1.0
 20
0.0
 30
0.0
  9
$UCSYDIR
 10
0.0
 20
1.0
 30
0.0
  9
$PUCSNAME
  2

  9
$PUCSORG
 10
0.0
 20
0.0
 30
0.0
  9
$PUCSXDIR
 10
1.0
 20
0.0
 30
0.0
  9
$PUCSYDIR
 10
0.0
 20
1.0
 30
0.0
  9
$USERI1
 70
     0
  9
$USERI2
 70
     0
  9
$USERI3
 70
     0
  9
$USERI4
 70
     0
  9
$USERI5
 70
     0
  9
$USERR1
 40
0.0
  9
$USERR2
 40
0.0
  9
$USERR3
 40
0.0
  9
$USERR4
 40
0.0
  9
$USERR5
 40
0.0
  9
$WORLDVIEW
 70
     1
  9
$SHADEDGE
 70
     3
  9
$SHADEDIF
 70
    70
  9
$TILEMODE
 70
     1
  9
$MAXACTVP
 70
    16
  9
$PLIMCHECK
 70
     0
  9
$PEXTMIN
 10
1.0000000000000000E+20
 20
1.0000000000000000E+20
 30
1.0000000000000000E+20
  9
$PEXTMAX
 10
-1.0000000000000000E+20
 20
-1.0000000000000000E+20
 30
-1.0000000000000000E+20
  9
$PLIMMIN
 10
-6.5507563588300846
 20
-5.0340269820445647
  9
$PLIMMAX
 10
203.4492436411698861
 20
291.9659730179553776
  9
$UNITMODE
 70
     0
  9
$VISRETAIN
 70
     0
  9
$PLINEGEN
 70
     0
  9
$PSLTSCALE
 70
     0
  0
ENDSEC
  0
SECTION
  2
TABLES
  0
TABLE
  2
VPORT
 70
     1
  0
VPORT
  2
*ACTIVE
 70
     0
 10
0.0
 20
0.0
 11
1.0
 21
1.0
 12
200.2270903594775859
 22
-1140.8090575170340344
 13
0.0
 23
0.0
 14
1.0
 24
1.0
 15
10.0
 25
10.0
 16
0.0
 26
-2710.4174960178202127
 36
0.0
 17
-200.2270903594775859
 27
1312.6822509765620453
 37
-298.7339798975165195
 40
3287.8909870662491812
 41
1.9004329004328999
 42
50.0
 43
0.0
 44
0.0
 50
0.0
 51
0.0
 71
     0
 72
  1500
 73
     1
 74
     0
 75
     0
 76
     0
 77
     0
 78
     0
  0
ENDTAB
  0
TABLE
  2
LTYPE
 70
     3
  0
LTYPE
  2
CONTINUOUS
 70
     0
  3
Solid line
 72
    65
 73
     0
 40
0.0
  0
LTYPE
  2
AUSGEZOGEN
 70
     0
  3
Ausgezogene Linie
 72
    65
 73
     0
 40
0.0
  0
LTYPE
  2
VERDECKT
 70
     0
  3
Verdeckt __ __ __ __ __ __ __ __ __ __ __ __ __
 72
    65
 73
     2
 40
0.375
 49
0.25
 49
-0.125
  0
ENDTAB
  0
TABLE
  2
LAYER
 70
     8
  0
LAYER
  2
0
 70
     0
 62
     7
  6
CONTINUOUS
  0
LAYER
  2
VOLL
 70
     0
 62
     1
  6
CONTINUOUS
  0
LAYER
  2
BEM
 70
     0
 62
     7
  6
CONTINUOUS
  0
LAYER
  2
STEMPEL
 70
     0
 62
     3
  6
CONTINUOUS
  0
LAYER
  2
TEXT
 70
     0
 62
     7
  6
CONTINUOUS
  0
LAYER
  2
DEFPOINTS
 70
     0
 62
     7
  6
AUSGEZOGEN
  0
LAYER
  2
ADSK_ASSOC_ENTITY_BACKUPS
 70
     1
 62
    -7
  6
CONTINUOUS
  0
LAYER
  2
ROHR
 70
     0
 62
   254
  6
CONTINUOUS
  0
ENDTAB
  0
TABLE
  2
STYLE
 70
     3
  0
STYLE
  2
STANDARD
 70
     0
 40
0.0
 41
0.8
 50
0.0
 71
     0
 42
3.5
  3
simplex.shx
  4

  0
STYLE
  2
GREEKS
 70
     0
 40
0.0
 41
0.8
 50
0.0
 71
     0
 42
2.5
  3
SIMPLEX.shx
  4

  0
STYLE
  2

 70
     1
 40
0.0
 41
1.0
 50
0.0
 71
     0
 42
2.5
  3
ltypeshp.shx
  4

  0
ENDTAB
  0
TABLE
  2
VIEW
 70
     0
  0
ENDTAB
  0
TABLE
  2
UCS
 70
     0
  0
ENDTAB
  0
TABLE
  2
APPID
 70
    26
  0
APPID
  2
ACAD
 70
     0
  0
APPID
  2
ACAD_NAV_VCDISPLAY
 70
     0
  0
APPID
  2
ACAECLAYERSTANDARD
 70
     0
  0
APPID
  2
ACCMTRANSPARENCY
 70
     0
  0
APPID
  2
ACAD_PSEXT
 70
     0
  0
APPID
  2
ACAD_MLEADERVER
 70
     0
  0
APPID
  2
ACAD_OBJECT_CHANGE_GUID
 70
     0
  0
APPID
  2
ACAD_EXEMPT_FROM_CAD_STANDARDS
 70
     0
  0
APPID
  2
ACADANNOMONITORALERTICONDI
 70
     0
  0
APPID
  2
ACAD_DSTYLE_DIMJAG
 70
     0
  0
APPID
  2
ACAD_DSTYLE_DIMTALN
 70
     0
  0
APPID
  2
GRADIENTCOLOR1ACI
 70
     0
  0
APPID
  2
GRADIENTCOLOR2ACI
 70
     0
  0
APPID
  2
ACAD_DSTYLE_DIMRADIAL_EXTENSION
 70
     0
  0
APPID
  2
ACDBDYNAMICBLOCKGUID
 70
     0
  0
APPID
  2
ACAD_STEPID
 70
     0
  0
APPID
  2
ACAD_DSTYLE_DIMBREAK
 70
     0
  0
APPID
  2
ACSYNERGY
 70
     0
  0
APPID
  2
SYNERGY_BODY_TBR_ID
 70
     0
  0
APPID
  2
ACAD_VIEW_EDGE_ID
 70
     0
  0
APPID
  2
ACADANNOPO
 70
     0
  0
APPID
  2
ACAD_DIMASSOC_CALC_DIMLFAC
 70
     0
  0
APPID
  2
ACAD_DIMASSOC_DIMLFAC
 70
     0
  0
APPID
  2
ACAD_DIMASSOC_OVERRIDDEN_D
 70
     0
  0
APPID
  2
ACADANNOTATIVE
 70
     0
  0
APPID
  2
ACSYNERGYSKETCH
 70
     0
  0
ENDTAB
  0
TABLE
  2
DIMSTYLE
 70
     2
  0
DIMSTYLE
  2
LORO
 70
     0
  3

  4

  5

  6

  7

 40
1.0
 41
3.5
 42
1.0
 43
0.38
 44
1.0
 45
0.0
 46
0.0
 47
0.0
 48
0.000000001
140
3.5
141
0.09
142
0.0
143
25.3999999999999986
144
2.0
145
0.0
146
0.5
147
1.5
 71
     0
 72
     0
 73
     0
 74
     0
 75
     0
 76
     0
 77
     1
 78
     8
170
     0
171
     2
172
     1
173
     0
174
     0
175
     0
176
     0
177
     0
178
     1
  0
DIMSTYLE
  2
STANDARD
 70
     0
  3

  4

  5

  6

  7

 40
1.0
 41
0.18
 42
0.0625
 43
0.38
 44
0.18
 45
0.0
 46
0.0
 47
0.0
 48
0.0
140
0.18
141
0.09
142
0.0
143
25.3999999999999986
144
1.0
145
0.0
146
1.0
147
0.09
 71
     0
 72
     0
 73
     1
 74
     1
 75
     0
 76
     0
 77
     0
 78
     0
170
     0
171
     2
172
     0
173
     0
174
     0
175
     0
176
     0
177
     0
178
     0
  0
ENDTAB
  0
ENDSEC
  0
SECTION
  2
BLOCKS
  0
BLOCK
  8
0
  2
$MODEL_SPACE
 70
     0
 10
0.0
 20
0.0
 30
0.0
  3
$MODEL_SPACE
  1

  0
ENDBLK
  5
36
  8
0
  0
BLOCK
 67
     1
  8
0
  2
$PAPER_SPACE
 70
     0
 10
0.0
 20
0.0
 30
0.0
  3
$PAPER_SPACE
  1

  0
ENDBLK
  5
34
 67
     1
  8
0
  0
BLOCK
  8
0
  2
*S0
 70
     1
 10
0.0
 20
0.0
 30
0.0
  3
*S0
  1

  0
ENDBLK
  5
16F1
  8
0
  0
BLOCK
  8
0
  2
A$CFF26384E
 70
     0
 10
0.0
 20
0.0
 30
0.0
  3
A$CFF26384E
  1

  0
LINE
  5
2C0D
  8
0
  6
CONTINUOUS
 62
     3
 10
65.7999999999999545
 20
0.0000000000000081
 30
0.0
 11
-65.7999999999999545
 21
-0.0000000000000081
 31
0.0
210
0.0
220
1.0
230
-0.0000000000000002
  0
LINE
  5
2C0E
  8
0
  6
CONTINUOUS
 62
     3
 10
-72.7584447974063551
 20
3075.0000000000009095
 30
-0.0000000000006828
 11
72.7584447974063551
 21
3075.0000000000009095
 31
-0.0000000000006828
210
0.0
220
1.0
230
-0.0000000000000002
  0
LINE
  5
2C0F
  8
0
  6
CONTINUOUS
 62
     3
 10
-65.7999999999999972
 20
-0.0000000000000036
 30
0.0
 11
-66.4328715963947332
 21
9.041022805638935
 31
-0.000000000000002
210
0.0
220
1.0
230
-0.0000000000000002
  0
LINE
  5
2C10
  8
0
  6
CONTINUOUS
 62
     3
 10
65.7999999999999972
 20
-0.0000000000000009
 30
0.0
 11
66.4328715963947332
 21
9.0410228056389332
 31
-0.000000000000002
210
0.0
220
1.0
230
-0.0000000000000002
  0
ARC
  5
2C11
  8
0
  6
CONTINUOUS
 62
     3
 10
39.000000000006203
 20
10.9613238173863703
 30
0.0
 40
27.4999999999938005
210
0.0
220
-0.0000000000000002
230
-1.0
 50
355.9958270592900931
 51
0.0000000000003181
  0
ARC
  5
2C12
  8
0
  6
CONTINUOUS
 62
     3
 10
-39.000000000006203
 20
10.9613238173863792
 30
0.0
 40
27.4999999999938005
210
0.0
220
-0.0000000000000002
230
-1.0
 50
179.9999999999996874
 51
184.0041729407099069
  0
LINE
  5
2C13
  8
0
  6
CONTINUOUS
 62
     3
 10
-66.5
 20
10.9613238173865302
 30
-0.0000000000000024
 11
-66.5
 21
2992.5000000000009095
 31
-0.0000000000006645
210
0.0
220
1.0
230
-0.0000000000000002
  0
LINE
  5
2C14
  8
0
  6
CONTINUOUS
 62
     3
 10
66.5
 20
10.9613238173865302
 30
-0.0000000000000024
 11
66.5
 21
2992.5000000000009095
 31
-0.0000000000006645
210
0.0
220
1.0
230
-0.0000000000000002
  0
ARC
  5
2C15
  8
0
  6
CONTINUOUS
 62
     3
 10
-69.0031299996447274
 20
3042.3517506686189336
 30
0.0
 40
6.9968700003553277
210
0.0
220
-0.0000000000000002
230
-1.0
 50
180.0000000000148077
 51
180.4974796801257924
  0
ARC
  5
2C16
  8
0
  6
CONTINUOUS
 62
     3
 10
69.0031299996447274
 20
3042.3517506686189336
 30
0.0
 40
6.9968700003553286
210
0.0
220
-0.0000000000000002
230
-1.0
 50
359.5025203198741792
 51
359.999999999985107
  0
LINE
  5
2C17
  8
0
  6
CONTINUOUS
 62
     3
 10
76.0
 20
3061.3976225555361452
 30
-0.0000000000006798
 11
76.0
 21
3042.3517506686171146
 31
-0.0000000000006755
210
0.0
220
1.0
230
-0.0000000000000002
  0
LINE
  5
2C18
  8
0
  6
CONTINUOUS
 62
     3
 10
-76.0
 20
3061.3976225555370547
 30
-0.0000000000006798
 11
-76.0
 21
3042.3517506686171146
 31
-0.0000000000006755
210
0.0
220
1.0
230
-0.0000000000000002
  0
ARC
  5
2C19
  8
0
  6
CONTINUOUS
 62
     3
 10
45.9999999999962625
 20
3061.3976225555361452
 30
0.0
 40
30.0000000000036913
210
0.0
220
-0.0000000000000002
230
-1.0
 50
0.0000000000008778
 51
24.9999999999979607
  0
ARC
  5
2C1A
  8
0
  6
CONTINUOUS
 62
     3
 10
-45.999999999995687
 20
3061.397622555534781
 30
0.0
 40
30.0000000000043094
210
0.0
220
-0.0000000000000002
230
-1.0
 50
155.0000000000017053
 51
179.9999999999982947
  0
ARC
  5
2C1B
  8
0
  6
CONTINUOUS
 62
     3
 10
45.9999999999879634
 20
3042.2910000000038053
 30
0.0
 40
29.9997362597041715
210
0.0
220
-0.0000000000000002
230
-1.0
 50
334.992841663447507
 51
359.9999999999948272
  0
ARC
  5
2C1C
  8
0
  6
CONTINUOUS
 62
     3
 10
-45.9999999999885176
 20
3042.2910000000038053
 30
0.0
 40
29.9997362597035817
210
0.0
220
-0.0000000000000002
230
-1.0
 50
180.0000000000050875
 51
205.0071583365530046
  0
ARC
  5
2C1D
  8
0
  6
CONTINUOUS
 62
     3
 10
89.5000000000024158
 20
3022.0
 30
0.0
 40
18.000000000002359
210
0.0
220
-0.0000000000000002
230
-1.0
 50
154.9928416634575967
 51
179.9999999999986073
  0
ARC
  5
2C1E
  8
0
  6
CONTINUOUS
 62
     3
 10
-89.5000000000024158
 20
3022.0
 30
0.0
 40
18.0000000000024016
210
0.0
220
-0.0000000000000002
230
-1.0
 50
0.0000000000014503
 51
25.0071583365424495
  0
LINE
  5
2C1F
  8
0
  6
CONTINUOUS
 62
     3
 10
71.5
 20
3022.0000000000009095
 30
-0.000000000000671
 11
71.5
 21
3008.4687194226721658
 31
-0.000000000000668
210
0.0
220
1.0
230
-0.0000000000000002
  0
LINE
  5
2C20
  8
0
  6
CONTINUOUS
 62
     3
 10
-71.5
 20
3022.0000000000009095
 30
-0.000000000000671
 11
-71.5
 21
3008.4687194226721658
 31
-0.000000000000668
210
0.0
220
1.0
230
-0.0000000000000002
  0
ARC
  5
2C21
  8
0
  6
CONTINUOUS
 62
     3
 10
53.5000000000011511
 20
3008.4687194226708016
 30
0.0
 40
17.9999999999988205
210
0.0
220
-0.0000000000000002
230
-1.0
 50
325.2280559680497731
 51
0.0000000000000064
  0
ARC
  5
2C22
  8
0
  6
CONTINUOUS
 62
     3
 10
-53.5000000000016129
 20
3008.4687194226708016
 30
0.0
 40
17.9999999999983906
210
0.0
220
-0.0000000000000002
230
-1.0
 50
179.9999999999986073
 51
214.7719440319509943
  0
ARC
  5
2C23
  8
0
  6
CONTINUOUS
 62
     3
 10
76.5000000000003126
 20
2992.5
 30
0.0
 40
10.0000000000001705
210
0.0
220
-0.0000000000000002
230
-1.0
 50
145.2280559680505974
 51
179.9999999999974136
  0
ARC
  5
2C24
  8
0
  6
CONTINUOUS
 62
     3
 10
-76.5000000000003126
 20
2992.5
 30
0.0
 40
10.0000000000000497
210
0.0
220
-0.0000000000000002
230
-1.0
 50
0.0000000000026081
 51
34.7719440319493671
  0
LINE
  5
2C25
  8
0
  6
CONTINUOUS
 62
     3
 10
72.7584447974065824
 20
3075.0000000000009095
 30
-0.0000000000006828
 11
73.189233611099624
 21
3074.0761704077581271
 31
-0.0000000000006826
210
0.0
220
1.0
230
-0.0000000000000002
  0
LINE
  5
2C26
  8
0
  6
CONTINUOUS
 62
     3
 10
-72.7584447974065824
 20
3075.0000000000009095
 30
-0.0000000000006828
 11
-73.189233611099624
 21
3074.0761704077581271
 31
-0.0000000000006826
210
0.0
220
1.0
230
-0.0000000000000002
  0
LINE
  5
2C27
  8
0
  6
VERDECKT
 62
     1
 10
-63.2938824847984591
 20
-0.0000000000000071
 30
0.0
 11
-63.9389741785406613
 21
9.2155956248886852
 31
-0.000000000000002
210
0.0
220
1.0
230
-0.0000000000000002
  0
LINE
  5
2C28
  8
0
  6
VERDECKT
 62
     1
 10
63.2938824847984591
 20
-0.0000000000000009
 30
0.0
 11
63.9389741785406613
 21
9.2155956248886941
 31
-0.000000000000002
210
0.0
220
1.0
230
-0.0000000000000002
  0
ARC
  5
2C29
  8
0
  6
VERDECKT
 62
     1
 10
38.9999999999968878
 20
10.9613238173866403
 30
0.0
 40
25.0000000000031086
210
0.0
220
-0.0000000000000002
230
-1.0
 50
355.9958270592907752
 51
359.9999999999997158
  0
ARC
  5
2C2A
  8
0
  6
VERDECKT
 62
     1
 10
-38.9999999999969376
 20
10.9613238173866403
 30
0.0
 40
25.0000000000030589
210
0.0
220
-0.0000000000000002
230
-1.0
 50
180.000000000000199
 51
184.0041729407089974
  0
LINE
  5
2C2B
  8
0
  6
VERDECKT
 62
     1
 10
-64.0
 20
10.9613238173865302
 30
-0.0000000000000024
 11
-64.0
 21
2992.5000000000009095
 31
-0.0000000000006645
210
0.0
220
1.0
230
-0.0000000000000002
  0
LINE
  5
2C2C
  8
0
  6
VERDECKT
 62
     1
 10
64.0
 20
10.9613238173865302
 30
-0.0000000000000024
 11
64.0
 21
2992.5000000000009095
 31
-0.0000000000006645
210
0.0
220
1.0
230
-0.0000000000000002
  0
ARC
  5
2C2D
  8
0
  6
VERDECKT
 62
     1
 10
-78.9246498530955733
 20
3071.6933241755341442
 30
0.0
 40
6.9968700000012722
210
0.0
220
-0.0000000000000002
230
-1.0
 50
342.6352769435753203
 51
28.2027833930381213
  0
ARC
  5
2C2E
  8
0
  6
VERDECKT
 62
     1
 10
-78.924649853095417
 20
3071.6933241755350537
 30
-0.0000000000006821
 40
6.9968700000011088
 50
342.6352769435710002
 51
28.2027833930346503
  0
ARC
  5
2C2F
  8
0
  6
VERDECKT
 62
     1
 10
76.5000000000032685
 20
2992.5
 30
0.0
 40
12.5000000000027907
210
0.0
220
-0.0000000000000002
230
-1.0
 50
145.228055968058186
 51
179.9999999999978968
  0
ARC
  5
2C30
  8
0
  6
VERDECKT
 62
     1
 10
-76.5000000000032543
 20
2992.5
 30
0.0
 40
12.5000000000030305
210
0.0
220
-0.0000000000000002
230
-1.0
 50
0.0000000000020864
 51
34.7719440319418496
  0
ARC
  5
2C31
  8
0
  6
VERDECKT
 62
     1
 10
53.4999999999994316
 20
3008.4687194226721658
 30
0.0
 40
15.5000000000005596
210
0.0
220
-0.0000000000000002
230
-1.0
 50
325.2280559680526721
 51
0.0
  0
ARC
  5
2C32
  8
0
  6
VERDECKT
 62
     1
 10
-53.4999999999994316
 20
3008.4687194226721658
 30
0.0
 40
15.5000000000005507
210
0.0
220
-0.0000000000000002
230
-1.0
 50
180.0
 51
214.7719440319472142
  0
LINE
  5
2C33
  8
0
  6
VERDECKT
 62
     1
 10
69.0
 20
3022.0000000000009095
 30
-0.000000000000671
 11
69.0
 21
3008.4687194226721658
 31
-0.000000000000668
210
0.0
220
1.0
230
-0.0000000000000002
  0
LINE
  5
2C34
  8
0
  6
VERDECKT
 62
     1
 10
-69.0
 20
3022.0000000000009095
 30
-0.000000000000671
 11
-69.0
 21
3008.4687194226721658
 31
-0.000000000000668
210
0.0
220
1.0
230
-0.0000000000000002
  0
ARC
  5
2C35
  8
0
  6
VERDECKT
 62
     1
 10
89.5000000000176783
 20
3021.9999999999968168
 30
0.0
 40
20.5000000000177387
210
0.0
220
-0.0000000000000002
230
-1.0
 50
154.9928416634498092
 51
179.9999999999884892
  0
ARC
  5
2C36
  8
0
  6
VERDECKT
 62
     1
 10
-89.500000000014893
 20
3021.999999999998181
 30
0.0
 40
20.5000000000148894
210
0.0
220
-0.0000000000000002
230
-1.0
 50
0.0000000000089056
 51
25.0071583365525392
  0
ARC
  5
2C37
  8
0
  6
VERDECKT
 62
     1
 10
45.999999999993733
 20
3042.2910000000019863
 30
0.0
 40
27.499736259698409
210
0.0
220
-0.0000000000000002
230
-1.0
 50
334.9928416634563746
 51
359.9999999999972147
  0
ARC
  5
2C38
  8
0
  6
VERDECKT
 62
     1
 10
-45.9999999999947491
 20
3042.2910000000019863
 30
0.0
 40
27.4997362596973396
210
0.0
220
-0.0000000000000002
230
-1.0
 50
180.0000000000017906
 51
205.0071583365426022
  0
LINE
  5
2C39
  8
0
  6
VERDECKT
 62
     1
 10
-73.4997362596919857
 20
3042.2910000000001673
 30
-0.0000000000006755
 11
-73.4999999999998863
 21
3061.3976225555370547
 31
-0.0000000000006798
210
0.0
220
1.0
230
-0.0000000000000002
  0
LINE
  5
2C3A
  8
0
  6
VERDECKT
 62
     1
 10
73.4997362596919857
 20
3042.2910000000001673
 30
-0.0000000000006755
 11
73.4999999999998863
 21
3061.3976225555361452
 31
-0.0000000000006798
210
0.0
220
1.0
230
-0.0000000000000002
  0
ARC
  5
2C3B
  8
0
  6
VERDECKT
 62
     1
 10
45.9999999999924682
 20
3061.397622555534781
 30
0.0
 40
27.5000000000075318
210
0.0
220
-0.0000000000000002
230
-1.0
 50
0.0
 51
17.3647230564221715
  0
ARC
  5
2C3C
  8
0
  6
VERDECKT
 62
     1
 10
-45.9999999999946425
 20
3061.397622555534781
 30
0.0
 40
27.5000000000054499
210
0.0
220
-0.0000000000000002
230
-1.0
 50
162.6352769435725918
 51
179.999999999997101
  0
ENDBLK
  5
2C3E
  8
0
  0
BLOCK
  8
0
  2
A$CB5EA16E6
 70
     0
 10
0.0
 20
0.0
 30
0.0
  3
A$CB5EA16E6
  1

  0
CIRCLE
  5
2C42
  8
0
  6
CONTINUOUS
 62
     3
 10
0.0
 20
0.000000000000004
 30
0.0
 40
63.293882484798452
  0
CIRCLE
  5
2C43
  8
0
  6
CONTINUOUS
 62
     3
 10
0.0000000000006705
 20
0.0000000000015627
 30
0.0
 40
64.0000000000002274
  0
CIRCLE
  5
2C44
  8
0
  6
CONTINUOUS
 62
     3
 10
0.0000000000006859
 20
0.0000000000015753
 30
0.0
 40
76.0
  0
CIRCLE
  5
2C45
  8
0
  6
CONTINUOUS
 62
     3
 10
0.000000000000689
 20
0.0000000000015778
 30
0.0
 40
72.7584447974063551
  0
CIRCLE
  5
2C46
  8
0
  6
CONTINUOUS
 62
     3
 10
0.0000000000006771
 20
0.0000000000015681
 30
0.0
 40
69.0
  0
CIRCLE
  5
2C47
  8
0
  6
CONTINUOUS
 62
     3
 10
0.0000000000007451
 20
0.0000000000015064
 30
0.0
 40
71.9277798530942505
  0
CIRCLE
  5
2C48
  8
0
  6
VERDECKT
 62
     1
 10
0.0
 20
0.000000000000004
 30
0.0
 40
65.7999999999999972
  0
CIRCLE
  5
2C49
  8
0
  6
VERDECKT
 62
     1
 10
0.0000000000006705
 20
0.0000000000015627
 30
0.0
 40
66.5000000000002274
  0
CIRCLE
  5
2C4A
  8
0
  6
VERDECKT
 62
     1
 10
0.0000000000006771
 20
0.0000000000015681
 30
0.0
 40
71.5
  0
CIRCLE
  5
2C4B
  8
0
  6
VERDECKT
 62
     1
 10
0.0000000000006859
 20
0.0000000000015753
 30
0.0
 40
73.5
  0
ENDBLK
  5
2C4D
  8
0
  0
ENDSEC
  0
SECTION
  2
ENTITIES
  0
TEXT
  5
8F
  8
VOLL
 10
78.076754716981128
 20
31.025947764705851
 30
0.0
 40
1.8
  1

  7
GREEKS
  0
TEXT
  5
651
  8
VOLL
 10
591.7182672356415196
 20
33.5632643046214199
 30
0.0
 40
1.8
  1

  7
GREEKS
  0
TEXT
  5
652
  8
TEXT
 10
923.5505354392344088
 20
39.1214998378469616
 30
0.0
 40
2.5
  1
  
  7
GREEKS
 72
     1
 11
925.8124402011393386
 21
39.1214998378469616
 31
0.0
  0
TEXT
  5
653
  8
BEM
 10
1167.6702527517159069
 20
174.6803818682492135
 30
0.0
 40
2.5
  1
 
 72
     4
 11
1168.8012051326691108
 21
174.6803818682492135
 31
0.0
  0
TEXT
  5
654
  8
BEM
 10
746.8578693924373511
 20
53.8966751942979627
 30
0.0
 40
2.5
  1

  7
GREEKS
  0
TEXT
  5
655
  8
VOLL
 10
732.7916763727158695
 20
33.7134145372628495
 30
0.0
 40
1.8
  1

  7
GREEKS
  0
TEXT
  5
656
  8
BEM
 10
767.2797412120005447
 20
38.4391388604834603
 30
0.0
 40
2.5
  1

 41
0.8
  7
GREEKS
  0
TEXT
  5
657
  8
BEM
 10
767.2797412120005447
 20
33.7453703064312904
 30
0.0
 40
2.5
  1

 41
0.8
  7
GREEKS
  0
TEXT
  5
658
  8
BEM
 10
767.2797412120005447
 20
28.5075264877678087
 30
0.0
 40
2.5
  1

 41
0.8
  7
GREEKS
  0
TEXT
  5
659
  8
BEM
 10
767.2067967346260957
 20
24.0023375376701686
 30
0.0
 40
1.8
  1

 41
0.8
  7
GREEKS
  0
TEXT
  5
65A
  8
BEM
 10
754.5232258550148572
 20
49.5939266338954567
 30
0.0
 40
2.0
  1

 41
0.8
  7
GREEKS
 72
     1
 11
754.5232258550148572
 21
49.5939266338954567
 31
0.0
  0
TEXT
  5
65B
  8
TEXT
 10
1064.6239445763089861
 20
39.2716500704883984
 30
0.0
 40
2.5
  1
  
  7
GREEKS
 72
     1
 11
1066.8858493382140296
 21
39.2716500704883984
 31
0.0
  0
TEXT
  5
65C
  8
BEM
 10
1308.743661888790939
 20
174.8305321008905935
 30
0.0
 40
2.5
  1
 
 72
     4
 11
1309.8746142697430059
 21
174.8305321008905935
 31
0.0
  0
TEXT
  5
D28
  8
VOLL
 10
318.0630172788846721
 20
214.5485924295865061
 30
0.0
 40
1.8
  1

  7
GREEKS
  0
INSERT
  5
16F3
  8
ADSK_ASSOC_ENTITY_BACKUPS
  2
*S0
 10
0.0
 20
0.0
 30
0.0
  0
INSERT
  5
2C3F
  8
STEMPEL
  2
A$CFF26384E
 10
0.0
 20
-3075.0000000000009095
 30
0.0000000000007212
210
0.0
220
-1.0
230
0.0000000000000001
  0
INSERT
  5
2C4E
  8
STEMPEL
  2
A$CB5EA16E6
 10
-0.0000000000006821
 20
119.9999999999983942
 30
0.0000000000000073
210
0.0
220
-1.0
230
0.0000000000000001
  0
VIEWPORT
  5
C2B
 67
     1
  8
0
 10
98.4492436411699146
 20
143.465973017955406
 30
0.0
 40
567.3581314878892954
 41
298.5415224913494967
 68
     1
 69
     1
1001
ACAD
1000
MVIEW
1002
{
1070
    16
1010
0.0
1020
0.0
1030
0.0
1010
0.0
1020
0.0
1030
1.0
1040
0.0
1040
298.5415224913494967
1040
98.4492436411699146
1040
143.465973017955406
1040
50.0
1040
0.0
1040
0.0
1070
     0
1070
  1500
1070
     1
1070
     1
1070
     0
1070
     0
1070
     0
1070
     0
1040
0.0
1040
0.0
1040
0.0
1040
10.0
1040
10.0
1040
10.0
1040
10.0
1070
     0
1002
{
1002
}
1002
}
  0
ENDSEC
  0
EOF
