  0
SECTION
  2
HEADER
  9
$ACADVER
  1
AC1009
  9
$INSBASE
 10
0.0
 20
0.0
 30
0.0
  9
$EXTMIN
 10
-42.0999984741210866
 20
-0.0000000000009095
 30
-3055.166748046875
  9
$EXTMAX
 10
42.1000938415527273
 20
-0.0000000000000401
 30
112.0524063110350994
  9
$LIMMIN
 10
0.0
 20
0.0
  9
$LIMMAX
 10
210.0
 20
297.0
  9
$ORTHOMODE
 70
     1
  9
$REGENMODE
 70
     1
  9
$FILLMODE
 70
     1
  9
$QTEXTMODE
 70
     0
  9
$MIRRTEXT
 70
     1
  9
$DRAGMODE
 70
     2
  9
$LTSCALE
 40
10.0
  9
$OSMODE
 70
  3583
  9
$ATTMODE
 70
     1
  9
$TEXTSIZE
 40
3.5
  9
$TRACEWID
 40
0.5
  9
$TEXTSTYLE
  7
STANDARD
  9
$CLAYER
  8
STEMPEL
  9
$CELTYPE
  6
BYLAYER
  9
$CECOLOR
 62
   256
  9
$DIMSCALE
 40
1.0
  9
$DIMASZ
 40
3.5
  9
$DIMEXO
 40
1.0
  9
$DIMDLI
 40
0.38
  9
$DIMRND
 40
0.0
  9
$DIMDLE
 40
0.0
  9
$DIMEXE
 40
1.0
  9
$DIMTP
 40
0.0
  9
$DIMTM
 40
0.000000001
  9
$DIMTXT
 40
3.5
  9
$DIMCEN
 40
0.09
  9
$DIMTSZ
 40
0.0
  9
$DIMTOL
 70
     0
  9
$DIMLIM
 70
     0
  9
$DIMTIH
 70
     0
  9
$DIMTOH
 70
     0
  9
$DIMSE1
 70
     0
  9
$DIMSE2
 70
     0
  9
$DIMTAD
 70
     1
  9
$DIMZIN
 70
     8
  9
$DIMBLK
  1

  9
$DIMASO
 70
     1
  9
$DIMSHO
 70
     0
  9
$DIMPOST
  1

  9
$DIMAPOST
  1

  9
$DIMALT
 70
     0
  9
$DIMALTD
 70
     2
  9
$DIMALTF
 40
25.3999999999999986
  9
$DIMLFAC
 40
2.0
  9
$DIMTOFL
 70
     1
  9
$DIMTVP
 40
0.0
  9
$DIMTIX
 70
     0
  9
$DIMSOXD
 70
     0
  9
$DIMSAH
 70
     0
  9
$DIMBLK1
  1

  9
$DIMBLK2
  1

  9
$DIMSTYLE
  2
LORO
  9
$DIMCLRD
 70
     0
  9
$DIMCLRE
 70
     0
  9
$DIMCLRT
 70
     1
  9
$DIMTFAC
 40
0.5
  9
$DIMGAP
 40
1.5
  9
$LUNITS
 70
     2
  9
$LUPREC
 70
     2
  9
$SKETCHINC
 40
1.0
  9
$FILLETRAD
 40
8.0
  9
$AUNITS
 70
     0
  9
$AUPREC
 70
     0
  9
$MENU
  1
ACAD
  9
$ELEVATION
 40
0.0
  9
$PELEVATION
 40
0.0
  9
$THICKNESS
 40
0.0
  9
$LIMCHECK
 70
     0
  9
$BLIPMODE
 70
     0
  9
$CHAMFERA
 40
0.0
  9
$CHAMFERB
 40
0.0
  9
$SKPOLY
 70
     0
  9
$TDCREATE
 40
2455397.8646990740671754
  9
$TDUPDATE
 40
2460747.4275810187682509
  9
$TDINDWG
 40
0.1852576852
  9
$TDUSRTIMER
 40
0.1852576852
  9
$USRTIMER
 70
     1
  9
$ANGBASE
 50
0.0
  9
$ANGDIR
 70
     0
  9
$PDMODE
 70
     0
  9
$PDSIZE
 40
0.0
  9
$PLINEWID
 40
0.0
  9
$COORDS
 70
     1
  9
$SPLFRAME
 70
     0
  9
$SPLINETYPE
 70
     6
  9
$SPLINESEGS
 70
     8
  9
$ATTDIA
 70
     1
  9
$ATTREQ
 70
     1
  9
$HANDLING
 70
     1
  9
$HANDSEED
  5
294A
  9
$SURFTAB1
 70
     6
  9
$SURFTAB2
 70
     6
  9
$SURFTYPE
 70
     6
  9
$SURFU
 70
     6
  9
$SURFV
 70
     6
  9
$UCSNAME
  2

  9
$UCSORG
 10
0.0
 20
0.0
 30
0.0
  9
$UCSXDIR
 10
1.0
 20
0.0
 30
0.0
  9
$UCSYDIR
 10
0.0
 20
1.0
 30
0.0
  9
$PUCSNAME
  2

  9
$PUCSORG
 10
0.0
 20
0.0
 30
0.0
  9
$PUCSXDIR
 10
1.0
 20
0.0
 30
0.0
  9
$PUCSYDIR
 10
0.0
 20
1.0
 30
0.0
  9
$USERI1
 70
     0
  9
$USERI2
 70
     0
  9
$USERI3
 70
     0
  9
$USERI4
 70
     0
  9
$USERI5
 70
     0
  9
$USERR1
 40
0.0
  9
$USERR2
 40
0.0
  9
$USERR3
 40
0.0
  9
$USERR4
 40
0.0
  9
$USERR5
 40
0.0
  9
$WORLDVIEW
 70
     1
  9
$SHADEDGE
 70
     3
  9
$SHADEDIF
 70
    70
  9
$TILEMODE
 70
     1
  9
$MAXACTVP
 70
    16
  9
$PLIMCHECK
 70
     0
  9
$PEXTMIN
 10
1.0000000000000000E+20
 20
1.0000000000000000E+20
 30
1.0000000000000000E+20
  9
$PEXTMAX
 10
-1.0000000000000000E+20
 20
-1.0000000000000000E+20
 30
-1.0000000000000000E+20
  9
$PLIMMIN
 10
-6.5507563588300846
 20
-5.0340269820445647
  9
$PLIMMAX
 10
203.4492436411698861
 20
291.9659730179553776
  9
$UNITMODE
 70
     0
  9
$VISRETAIN
 70
     0
  9
$PLINEGEN
 70
     0
  9
$PSLTSCALE
 70
     0
  0
ENDSEC
  0
SECTION
  2
TABLES
  0
TABLE
  2
VPORT
 70
     1
  0
VPORT
  2
*ACTIVE
 70
     0
 10
0.0
 20
0.0
 11
1.0
 21
1.0
 12
224.7951444692575933
 22
-1139.3829395273519367
 13
0.0
 23
0.0
 14
1.0
 24
1.0
 15
10.0
 25
10.0
 16
0.0
 26
-2712.0325794803388817
 36
0.0
 17
-224.7950967855416877
 27
56.71183395385696
 37
-332.1742313405679852
 40
3183.6580081002521183
 41
1.9004329004328999
 42
50.0
 43
0.0
 44
0.0
 50
0.0
 51
0.0
 71
     0
 72
  1500
 73
     1
 74
     0
 75
     0
 76
     0
 77
     0
 78
     0
  0
ENDTAB
  0
TABLE
  2
LTYPE
 70
     3
  0
LTYPE
  2
CONTINUOUS
 70
     0
  3
Solid line
 72
    65
 73
     0
 40
0.0
  0
LTYPE
  2
AUSGEZOGEN
 70
     0
  3
Ausgezogene Linie
 72
    65
 73
     0
 40
0.0
  0
LTYPE
  2
VERDECKT
 70
     0
  3
Verdeckt __ __ __ __ __ __ __ __ __ __ __ __ __
 72
    65
 73
     2
 40
0.375
 49
0.25
 49
-0.125
  0
ENDTAB
  0
TABLE
  2
LAYER
 70
     8
  0
LAYER
  2
0
 70
     0
 62
     7
  6
CONTINUOUS
  0
LAYER
  2
VOLL
 70
     0
 62
     1
  6
CONTINUOUS
  0
LAYER
  2
BEM
 70
     0
 62
     7
  6
CONTINUOUS
  0
LAYER
  2
STEMPEL
 70
     0
 62
     3
  6
CONTINUOUS
  0
LAYER
  2
TEXT
 70
     0
 62
     7
  6
CONTINUOUS
  0
LAYER
  2
DEFPOINTS
 70
     0
 62
     7
  6
AUSGEZOGEN
  0
LAYER
  2
ADSK_ASSOC_ENTITY_BACKUPS
 70
     1
 62
    -7
  6
CONTINUOUS
  0
LAYER
  2
ROHR
 70
     0
 62
   254
  6
CONTINUOUS
  0
ENDTAB
  0
TABLE
  2
STYLE
 70
     3
  0
STYLE
  2
STANDARD
 70
     0
 40
0.0
 41
0.8
 50
0.0
 71
     0
 42
3.5
  3
simplex.shx
  4

  0
STYLE
  2
GREEKS
 70
     0
 40
0.0
 41
0.8
 50
0.0
 71
     0
 42
2.5
  3
SIMPLEX.shx
  4

  0
STYLE
  2

 70
     1
 40
0.0
 41
1.0
 50
0.0
 71
     0
 42
2.5
  3
ltypeshp.shx
  4

  0
ENDTAB
  0
TABLE
  2
VIEW
 70
     0
  0
ENDTAB
  0
TABLE
  2
UCS
 70
     0
  0
ENDTAB
  0
TABLE
  2
APPID
 70
    26
  0
APPID
  2
ACAD
 70
     0
  0
APPID
  2
ACAD_NAV_VCDISPLAY
 70
     0
  0
APPID
  2
ACAECLAYERSTANDARD
 70
     0
  0
APPID
  2
ACCMTRANSPARENCY
 70
     0
  0
APPID
  2
ACAD_PSEXT
 70
     0
  0
APPID
  2
ACAD_MLEADERVER
 70
     0
  0
APPID
  2
ACAD_OBJECT_CHANGE_GUID
 70
     0
  0
APPID
  2
ACAD_EXEMPT_FROM_CAD_STANDARDS
 70
     0
  0
APPID
  2
ACADANNOMONITORALERTICONDI
 70
     0
  0
APPID
  2
ACAD_DSTYLE_DIMJAG
 70
     0
  0
APPID
  2
ACAD_DSTYLE_DIMTALN
 70
     0
  0
APPID
  2
GRADIENTCOLOR1ACI
 70
     0
  0
APPID
  2
GRADIENTCOLOR2ACI
 70
     0
  0
APPID
  2
ACAD_DSTYLE_DIMRADIAL_EXTENSION
 70
     0
  0
APPID
  2
ACDBDYNAMICBLOCKGUID
 70
     0
  0
APPID
  2
ACAD_STEPID
 70
     0
  0
APPID
  2
ACAD_DSTYLE_DIMBREAK
 70
     0
  0
APPID
  2
ACSYNERGY
 70
     0
  0
APPID
  2
SYNERGY_BODY_TBR_ID
 70
     0
  0
APPID
  2
ACAD_VIEW_EDGE_ID
 70
     0
  0
APPID
  2
ACADANNOPO
 70
     0
  0
APPID
  2
ACAD_DIMASSOC_CALC_DIMLFAC
 70
     0
  0
APPID
  2
ACAD_DIMASSOC_DIMLFAC
 70
     0
  0
APPID
  2
ACAD_DIMASSOC_OVERRIDDEN_D
 70
     0
  0
APPID
  2
ACADANNOTATIVE
 70
     0
  0
APPID
  2
ACSYNERGYSKETCH
 70
     0
  0
ENDTAB
  0
TABLE
  2
DIMSTYLE
 70
     2
  0
DIMSTYLE
  2
LORO
 70
     0
  3

  4

  5

  6

  7

 40
1.0
 41
3.5
 42
1.0
 43
0.38
 44
1.0
 45
0.0
 46
0.0
 47
0.0
 48
0.000000001
140
3.5
141
0.09
142
0.0
143
25.3999999999999986
144
2.0
145
0.0
146
0.5
147
1.5
 71
     0
 72
     0
 73
     0
 74
     0
 75
     0
 76
     0
 77
     1
 78
     8
170
     0
171
     2
172
     1
173
     0
174
     0
175
     0
176
     0
177
     0
178
     1
  0
DIMSTYLE
  2
STANDARD
 70
     0
  3

  4

  5

  6

  7

 40
1.0
 41
0.18
 42
0.0625
 43
0.38
 44
0.18
 45
0.0
 46
0.0
 47
0.0
 48
0.0
140
0.18
141
0.09
142
0.0
143
25.3999999999999986
144
1.0
145
0.0
146
1.0
147
0.09
 71
     0
 72
     0
 73
     1
 74
     1
 75
     0
 76
     0
 77
     0
 78
     0
170
     0
171
     2
172
     0
173
     0
174
     0
175
     0
176
     0
177
     0
178
     0
  0
ENDTAB
  0
ENDSEC
  0
SECTION
  2
BLOCKS
  0
BLOCK
  8
0
  2
$MODEL_SPACE
 70
     0
 10
0.0
 20
0.0
 30
0.0
  3
$MODEL_SPACE
  1

  0
ENDBLK
  5
36
  8
0
  0
BLOCK
 67
     1
  8
0
  2
$PAPER_SPACE
 70
     0
 10
0.0
 20
0.0
 30
0.0
  3
$PAPER_SPACE
  1

  0
ENDBLK
  5
34
 67
     1
  8
0
  0
BLOCK
  8
0
  2
*S0
 70
     1
 10
0.0
 20
0.0
 30
0.0
  3
*S0
  1

  0
ENDBLK
  5
16F1
  8
0
  0
BLOCK
  8
0
  2
A$CE5D5D37F
 70
     0
 10
0.0
 20
0.0
 30
0.0
  3
A$CE5D5D37F
  1

  0
LINE
  5
28B8
  8
0
  6
CONTINUOUS
 62
     3
 10
35.5000000000000071
 20
-0.0000000000001963
 30
0.0
 11
-35.4999999999999787
 21
0.0000000000001963
 31
0.0
210
0.0
220
1.0
230
-0.0000000000000002
  0
LINE
  5
28B9
  8
0
  6
CONTINUOUS
 62
     3
 10
-39.7653932581592215
 20
3055.1666866161021971
 30
-0.0000000000006784
 11
39.7654013983938199
 21
3055.1666866161008329
 31
-0.0000000000006784
210
0.0
220
1.0
230
-0.0000000000000002
  0
ARC
  5
28BA
  8
0
  6
CONTINUOUS
 62
     3
 10
9.0000000000010161
 20
9.7120880782107761
 30
0.0
 40
27.499999999998991
210
0.0
220
-0.0000000000000002
230
-1.0
 50
352.8749836510978071
 51
0.0000000000001781
  0
ARC
  5
28BB
  8
0
  6
CONTINUOUS
 62
     3
 10
-8.9999999999996625
 20
9.7120880782109023
 30
0.0
 40
27.5000000000003411
210
0.0
220
-0.0000000000000002
230
-1.0
 50
180.0000000000009095
 51
187.1250163489027045
  0
LINE
  5
28BC
  8
0
  6
CONTINUOUS
 62
     3
 10
-35.4999999999998295
 20
0.0000000000000258
 30
0.0
 11
-36.2876416096257728
 21
6.301132877007487
 31
-0.0000000000000014
210
0.0
220
1.0
230
-0.0000000000000002
  0
LINE
  5
28BD
  8
0
  6
CONTINUOUS
 62
     3
 10
35.5000000000001066
 20
0.0000000000004676
 30
0.0
 11
36.2876416096259504
 21
6.3011328770071566
 31
-0.0000000000000014
210
0.0
220
1.0
230
-0.0000000000000002
  0
LINE
  5
28BE
  8
0
  6
CONTINUOUS
 62
     3
 10
-36.4999999999999929
 20
9.7120880782108685
 30
-0.0000000000000022
 11
-36.499999999999261
 21
2991.6149149518491868
 31
-0.0000000000006643
210
0.0
220
1.0
230
-0.0000000000000002
  0
LINE
  5
28BF
  8
0
  6
CONTINUOUS
 62
     3
 10
36.5000000000000213
 20
9.7120880782104049
 30
-0.0000000000000022
 11
36.500000000000739
 21
2991.6149149518491868
 31
-0.0000000000006643
210
0.0
220
1.0
230
-0.0000000000000002
  0
LINE
  5
28C0
  8
0
  6
CONTINUOUS
 62
     3
 10
36.5000040701168231
 20
2994.8600869515348677
 30
-0.000000000000665
 11
36.5000040701168018
 21
2991.614914951846913
 31
-0.0000000000006643
210
0.0
220
1.0
230
-0.0000000000000002
  0
LINE
  5
28C1
  8
0
  6
CONTINUOUS
 62
     3
 10
-36.4999959298830419
 20
2994.8600869515357772
 30
-0.000000000000665
 11
-36.4999959298830632
 21
2991.614914951846913
 31
-0.0000000000006643
210
0.0
220
1.0
230
-0.0000000000000002
  0
ARC
  5
28C2
  8
0
  6
CONTINUOUS
 62
     3
 10
17.0999959298865996
 20
3044.6177642089860456
 30
0.0
 40
24.9999999999961808
210
0.0
220
-0.0000000000000002
230
-1.0
 50
359.99999999999892
 51
24.9581963123109816
  0
ARC
  5
28C3
  8
0
  6
CONTINUOUS
 62
     3
 10
-17.1000040701203204
 20
3044.6177642089860456
 30
0.0
 40
24.9999999999967386
210
0.0
220
-0.0000000000000002
230
-1.0
 50
155.0418036876920098
 51
180.0000000000019895
  0
LINE
  5
28C4
  8
0
  6
CONTINUOUS
 62
     3
 10
42.1000040701172509
 20
3044.6177642089860456
 30
-0.000000000000676
 11
42.1000040701172011
 21
3035.6049666642938973
 31
-0.000000000000674
210
0.0
220
1.0
230
-0.0000000000000002
  0
LINE
  5
28C5
  8
0
  6
CONTINUOUS
 62
     3
 10
-42.0999959298827378
 20
3044.6177642089860456
 30
-0.000000000000676
 11
-42.0999959298828017
 21
3035.6049666642948068
 31
-0.000000000000674
210
0.0
220
1.0
230
-0.0000000000000002
  0
ARC
  5
28C6
  8
0
  6
CONTINUOUS
 62
     3
 10
17.0999959299056492
 20
3035.5366866160998143
 30
0.0
 40
25.0000932431028602
210
0.0
220
-0.0000000000000002
230
-1.0
 50
338.8168456069582248
 51
0.1564859543624383
  0
ARC
  5
28C7
  8
0
  6
CONTINUOUS
 62
     3
 10
-17.1000040701402902
 20
3035.5366866160998143
 30
0.0
 40
25.0000932431026293
210
0.0
220
-0.0000000000000002
230
-1.0
 50
179.8435140456396084
 51
201.183154393044191
  0
ARC
  5
28C8
  8
0
  6
CONTINUOUS
 62
     3
 10
51.5999959298770818
 20
3022.1666866161058351
 30
0.0
 40
11.9999999999943299
210
0.0
220
-0.0000000000000002
230
-1.0
 50
158.8168456069529952
 51
180.0000000000042064
  0
ARC
  5
28C9
  8
0
  6
CONTINUOUS
 62
     3
 10
-51.6000040701146929
 20
3022.1666866161040161
 30
0.0
 40
11.9999999999976801
210
0.0
220
-0.0000000000000002
230
-1.0
 50
0.0000000000021755
 51
21.1831543930451396
  0
LINE
  5
28CA
  8
0
  6
CONTINUOUS
 62
     3
 10
39.6000040701169382
 20
3022.1666866161040161
 30
-0.0000000000006711
 11
39.6000040701168317
 21
3005.5554130335208356
 31
-0.0000000000006674
210
0.0
220
1.0
230
-0.0000000000000002
  0
LINE
  5
28CB
  8
0
  6
CONTINUOUS
 62
     3
 10
-39.5999959298828017
 20
3022.1666866161049256
 30
-0.0000000000006711
 11
-39.5999959298829225
 21
3005.5554130335221998
 31
-0.0000000000006674
210
0.0
220
1.0
230
-0.0000000000000002
  0
ARC
  5
28CC
  8
0
  6
CONTINUOUS
 62
     3
 10
27.5999959298840309
 20
3005.5554130335208356
 30
0.0
 40
11.9999999999987992
210
0.0
220
-0.0000000000000002
230
-1.0
 50
327.6719358778361766
 51
0.000000000004351
  0
ARC
  5
28CD
  8
0
  6
CONTINUOUS
 62
     3
 10
-27.6000040701169809
 20
3005.5554130335208356
 30
0.0
 40
11.9999999999999307
210
0.0
220
-0.0000000000000002
230
-1.0
 50
180.0000000000019895
 51
212.3280641221653866
  0
ARC
  5
28CE
  8
0
  6
CONTINUOUS
 62
     3
 10
44.4999959298822887
 20
2994.8600869515371414
 30
0.0
 40
7.9999999999993596
210
0.0
220
-0.0000000000000002
230
-1.0
 50
147.6719358778395019
 51
180.0000000000032117
  0
ARC
  5
28CF
  8
0
  6
CONTINUOUS
 62
     3
 10
-44.5000040701148691
 20
2994.8600869515357772
 30
0.0
 40
7.9999999999980673
210
0.0
220
-0.0000000000000002
230
-1.0
 50
359.9999999999968168
 51
32.3280641221661682
  0
ARC
  5
28D0
  8
0
  6
VERDECKT
 62
     1
 10
7.4000000000030139
 20
9.8117004754883901
 30
0.0
 40
27.4999999999969802
210
0.0
220
-0.0000000000000002
230
-1.0
 50
352.8749836510987734
 51
0.0000000000003931
  0
ARC
  5
28D1
  8
0
  6
VERDECKT
 62
     1
 10
-7.4000000000021942
 20
9.8117004754884345
 30
0.0
 40
27.4999999999978115
210
0.0
220
-0.0000000000000002
230
-1.0
 50
179.9999999999996874
 51
187.1250163489029035
  0
LINE
  5
28D2
  8
0
  6
VERDECKT
 62
     1
 10
-33.8875484503398923
 20
0.0000000000000542
 30
0.0
 11
-34.6876416096256079
 21
6.4007452742858186
 31
-0.0000000000000014
210
0.0
220
1.0
230
-0.0000000000000002
  0
LINE
  5
28D3
  8
0
  6
VERDECKT
 62
     1
 10
33.8875484503404891
 20
0.0000000000004459
 30
0.0
 11
34.6876416096260272
 21
6.4007452742848834
 31
-0.0000000000000014
210
0.0
220
1.0
230
-0.0000000000000002
  0
LINE
  5
28D4
  8
0
  6
VERDECKT
 62
     1
 10
-34.8999999999999773
 20
9.8117004754885926
 30
-0.0000000000000022
 11
-34.8999999999992596
 21
2991.6149149518491868
 31
-0.0000000000006643
210
0.0
220
1.0
230
-0.0000000000000002
  0
LINE
  5
28D5
  8
0
  6
VERDECKT
 62
     1
 10
34.9000000000000128
 20
9.8117004754885837
 30
-0.0000000000000022
 11
34.9000000000007375
 21
2991.6149149518491868
 31
-0.0000000000006643
210
0.0
220
1.0
230
-0.0000000000000002
  0
ARC
  5
28D6
  8
0
  6
VERDECKT
 62
     1
 10
17.0999959298850399
 20
3044.6177642089860456
 30
0.0
 40
23.3999999999976787
210
0.0
220
-0.0000000000000002
230
-1.0
 50
0.0
 51
26.7955779312357016
  0
ARC
  5
28D7
  8
0
  6
VERDECKT
 62
     1
 10
-17.1000040701202387
 20
3044.6177642089860456
 30
0.0
 40
23.3999999999970392
210
0.0
220
-0.0000000000000002
230
-1.0
 50
153.2044220687758127
 51
180.0000000000032117
  0
LINE
  5
28D8
  8
0
  6
VERDECKT
 62
     1
 10
40.5000040701172779
 20
3044.6177642089851361
 30
-0.000000000000676
 11
40.5000040701172068
 21
3035.6049666642948068
 31
-0.000000000000674
210
0.0
220
1.0
230
-0.0000000000000002
  0
LINE
  5
28D9
  8
0
  6
VERDECKT
 62
     1
 10
-40.4999959298827008
 20
3044.6177642089860456
 30
-0.000000000000676
 11
-40.4999959298827577
 21
3035.6049666642948068
 31
-0.000000000000674
210
0.0
220
1.0
230
-0.0000000000000002
  0
ARC
  5
28DA
  8
0
  6
VERDECKT
 62
     1
 10
17.0999093067537586
 20
3035.536720185708873
 30
0.0
 40
23.40018614352838
210
0.0
220
-0.0000000000000002
230
-1.0
 50
338.8168456069601007
 51
0.1671029755503993
  0
ARC
  5
28DB
  8
0
  6
VERDECKT
 62
     1
 10
-17.0999174469841613
 20
3035.536720185708873
 30
0.0
 40
23.4001861435325011
210
0.0
220
-0.0000000000000002
230
-1.0
 50
179.8328970244529899
 51
201.1831543930408088
  0
ARC
  5
28DC
  8
0
  6
VERDECKT
 62
     1
 10
51.5999959298813025
 20
3022.1666866161049256
 30
0.0
 40
13.5999999999984595
210
0.0
220
-0.0000000000000002
230
-1.0
 50
158.8168456069601859
 51
180.0000000000036948
  0
ARC
  5
28DD
  8
0
  6
VERDECKT
 62
     1
 10
-51.600004070119212
 20
3022.1666866161031066
 30
0.0
 40
13.6000000000020993
210
0.0
220
-0.0000000000000002
230
-1.0
 50
0.0000000000019211
 51
21.1831543930379098
  0
LINE
  5
28DE
  8
0
  6
VERDECKT
 62
     1
 10
38.0000040701170221
 20
3022.1666866161040161
 30
-0.0000000000006711
 11
38.0000040701169084
 21
3005.5554130335199261
 31
-0.0000000000006674
210
0.0
220
1.0
230
-0.0000000000000002
  0
LINE
  5
28DF
  8
0
  6
VERDECKT
 62
     1
 10
-37.9999959298827434
 20
3022.1666866161040161
 30
-0.0000000000006711
 11
-37.99999592988285
 21
3005.5554130335208356
 31
-0.0000000000006674
210
0.0
220
1.0
230
-0.0000000000000002
  0
ARC
  5
28E0
  8
0
  6
VERDECKT
 62
     1
 10
27.5999959298811888
 20
3005.5554130335208356
 30
0.0
 40
10.4000000000016097
210
0.0
220
-0.0000000000000002
230
-1.0
 50
327.671935877843282
 51
0.0000000000000127
  0
ARC
  5
28E1
  8
0
  6
VERDECKT
 62
     1
 10
-27.6000040701147391
 20
3005.5554130335208356
 30
0.0
 40
10.4000000000021799
210
0.0
220
-0.0000000000000002
230
-1.0
 50
180.0000000000048885
 51
212.328064122160896
  0
ARC
  5
28E2
  8
0
  6
VERDECKT
 62
     1
 10
44.4999959298860688
 20
2994.8600869515348677
 30
0.0
 40
9.6000000000030941
210
0.0
220
-0.0000000000000002
230
-1.0
 50
147.6719358778462947
 51
179.9999999999971863
  0
ARC
  5
28E3
  8
0
  6
VERDECKT
 62
     1
 10
-44.5000040701177113
 20
2994.8600869515348677
 30
0.0
 40
9.6000000000008399
210
0.0
220
-0.0000000000000002
230
-1.0
 50
0.0000000000027226
 51
32.3280641221586791
  0
LINE
  5
28E4
  8
0
  6
VERDECKT
 62
     1
 10
34.9000040701168714
 20
2994.8600869515357772
 30
-0.000000000000665
 11
34.9000040701168501
 21
2991.614914951846913
 31
-0.0000000000006643
210
0.0
220
1.0
230
-0.0000000000000002
  0
LINE
  5
28E5
  8
0
  6
VERDECKT
 62
     1
 10
-34.8999959298829694
 20
2994.8600869515357772
 30
-0.000000000000665
 11
-34.8999959298829907
 21
2991.614914951846913
 31
-0.0000000000006643
210
0.0
220
1.0
230
-0.0000000000000002
  0
ENDBLK
  5
28E7
  8
0
  0
BLOCK
  8
0
  2
A$CC8006EF4
 70
     0
 10
0.0
 20
0.0
 30
0.0
  3
A$CC8006EF4
  1

  0
CIRCLE
  5
28EB
  8
0
  6
CONTINUOUS
 62
     3
 10
0.0000000000000142
 20
0.0000000000000133
 30
0.0
 40
33.8875484503402973
  0
CIRCLE
  5
28EC
  8
0
  6
CONTINUOUS
 62
     3
 10
0.0000040701180344
 20
0.0000000000024103
 30
0.0
 40
37.9873223762320222
  0
CIRCLE
  5
28ED
  8
0
  6
CONTINUOUS
 62
     3
 10
0.0000040701176089
 20
0.0000000000024143
 30
0.0
 40
34.8999999999999133
  0
CIRCLE
  5
28EE
  8
0
  6
CONTINUOUS
 62
     3
 10
0.0000040701179776
 20
0.0000000000024103
 30
0.0
 40
39.7653973282765278
  0
CIRCLE
  5
28EF
  8
0
  6
CONTINUOUS
 62
     3
 10
0.00000407011789
 20
0.000000000002411
 30
0.0
 40
42.1000000000000085
  0
CIRCLE
  5
28F0
  8
0
  6
CONTINUOUS
 62
     3
 10
0.0000040701178737
 20
0.0000000000024116
 30
0.0
 40
42.1000932431257127
  0
CIRCLE
  5
28F1
  8
0
  6
VERDECKT
 62
     1
 10
0.0000000000000142
 20
0.0000000000000133
 30
0.0
 40
35.5000000000000071
  0
CIRCLE
  5
28F2
  8
0
  6
VERDECKT
 62
     1
 10
0.0000040701175663
 20
0.0000000000024143
 30
0.0
 40
36.4999999999999076
  0
CIRCLE
  5
28F3
  8
0
  6
VERDECKT
 62
     1
 10
0.0000040701179468
 20
0.000000000002411
 30
0.0
 40
40.5000000000000284
  0
CIRCLE
  5
28F4
  8
0
  6
VERDECKT
 62
     1
 10
0.0000040701178281
 20
0.0000000000024125
 30
0.0
 40
37.9999999999999432
  0
CIRCLE
  5
28F5
  8
0
  6
VERDECKT
 62
     1
 10
0.0000040701177713
 20
0.0000000000024125
 30
0.0
 40
39.5999999999999019
  0
CIRCLE
  5
28F6
  8
0
  6
VERDECKT
 62
     1
 10
0.0000040701179164
 20
0.0000000000024116
 30
0.0
 40
40.5000995203994165
  0
ENDBLK
  5
28F8
  8
0
  0
ENDSEC
  0
SECTION
  2
ENTITIES
  0
TEXT
  5
8F
  8
VOLL
 10
78.076754716981128
 20
31.025947764705851
 30
0.0
 40
1.8
  1

  7
GREEKS
  0
TEXT
  5
651
  8
VOLL
 10
591.7182672356415196
 20
33.5632643046214199
 30
0.0
 40
1.8
  1

  7
GREEKS
  0
TEXT
  5
652
  8
TEXT
 10
923.5505354392344088
 20
39.1214998378469616
 30
0.0
 40
2.5
  1
  
  7
GREEKS
 72
     1
 11
925.8124402011393386
 21
39.1214998378469616
 31
0.0
  0
TEXT
  5
653
  8
BEM
 10
1167.6702527517159069
 20
174.6803818682492135
 30
0.0
 40
2.5
  1
 
 72
     4
 11
1168.8012051326691108
 21
174.6803818682492135
 31
0.0
  0
TEXT
  5
654
  8
BEM
 10
746.8578693924373511
 20
53.8966751942979627
 30
0.0
 40
2.5
  1

  7
GREEKS
  0
TEXT
  5
655
  8
VOLL
 10
732.7916763727158695
 20
33.7134145372628495
 30
0.0
 40
1.8
  1

  7
GREEKS
  0
TEXT
  5
656
  8
BEM
 10
767.2797412120005447
 20
38.4391388604834603
 30
0.0
 40
2.5
  1

 41
0.8
  7
GREEKS
  0
TEXT
  5
657
  8
BEM
 10
767.2797412120005447
 20
33.7453703064312904
 30
0.0
 40
2.5
  1

 41
0.8
  7
GREEKS
  0
TEXT
  5
658
  8
BEM
 10
767.2797412120005447
 20
28.5075264877678087
 30
0.0
 40
2.5
  1

 41
0.8
  7
GREEKS
  0
TEXT
  5
659
  8
BEM
 10
767.2067967346260957
 20
24.0023375376701686
 30
0.0
 40
1.8
  1

 41
0.8
  7
GREEKS
  0
TEXT
  5
65A
  8
BEM
 10
754.5232258550148572
 20
49.5939266338954567
 30
0.0
 40
2.0
  1

 41
0.8
  7
GREEKS
 72
     1
 11
754.5232258550148572
 21
49.5939266338954567
 31
0.0
  0
TEXT
  5
65B
  8
TEXT
 10
1064.6239445763089861
 20
39.2716500704883984
 30
0.0
 40
2.5
  1
  
  7
GREEKS
 72
     1
 11
1066.8858493382140296
 21
39.2716500704883984
 31
0.0
  0
TEXT
  5
65C
  8
BEM
 10
1308.743661888790939
 20
174.8305321008905935
 30
0.0
 40
2.5
  1
 
 72
     4
 11
1309.8746142697430059
 21
174.8305321008905935
 31
0.0
  0
TEXT
  5
D28
  8
VOLL
 10
318.0630172788846721
 20
214.5485924295865061
 30
0.0
 40
1.8
  1

  7
GREEKS
  0
INSERT
  5
16F3
  8
ADSK_ASSOC_ENTITY_BACKUPS
  2
*S0
 10
0.0
 20
0.0
 30
0.0
  0
INSERT
  5
28E8
  8
STEMPEL
  2
A$CE5D5D37F
 10
-0.0000040701347643
 20
-3055.1666866161008329
 30
0.0000000000007224
210
0.0
220
-1.0
230
0.0000000000000001
  0
INSERT
  5
28F9
  8
STEMPEL
  2
A$CC8006EF4
 10
-0.0000040701353896
 20
69.9999999999980389
 30
0.0000000000000469
210
0.0
220
-1.0
230
0.0000000000000001
  0
VIEWPORT
  5
C2B
 67
     1
  8
0
 10
98.4492436411699146
 20
143.465973017955406
 30
0.0
 40
567.3581314878892954
 41
298.5415224913494967
 68
     1
 69
     1
1001
ACAD
1000
MVIEW
1002
{
1070
    16
1010
0.0
1020
0.0
1030
0.0
1010
0.0
1020
0.0
1030
1.0
1040
0.0
1040
298.5415224913494967
1040
98.4492436411699146
1040
143.465973017955406
1040
50.0
1040
0.0
1040
0.0
1070
     0
1070
  1500
1070
     1
1070
     1
1070
     0
1070
     0
1070
     0
1070
     0
1040
0.0
1040
0.0
1040
0.0
1040
10.0
1040
10.0
1040
10.0
1040
10.0
1070
     0
1002
{
1002
}
1002
}
  0
ENDSEC
  0
EOF
