  0
SECTION
  2
HEADER
  9
$ACADVER
  1
AC1009
  9
$INSBASE
 10
0.0
 20
0.0
 30
0.0
  9
$EXTMIN
 10
-31.5000324249267614
 20
-0.0000000000009095
 30
-3038.0
  9
$EXTMAX
 10
31.5000324249267614
 20
0.0000000000000019
 30
101.5000305175780966
  9
$LIMMIN
 10
0.0
 20
0.0
  9
$LIMMAX
 10
210.0
 20
297.0
  9
$ORTHOMODE
 70
     1
  9
$REGENMODE
 70
     1
  9
$FILLMODE
 70
     1
  9
$QTEXTMODE
 70
     0
  9
$MIRRTEXT
 70
     1
  9
$DRAGMODE
 70
     2
  9
$LTSCALE
 40
10.0
  9
$OSMODE
 70
  3583
  9
$ATTMODE
 70
     1
  9
$TEXTSIZE
 40
3.5
  9
$TRACEWID
 40
0.5
  9
$TEXTSTYLE
  7
STANDARD
  9
$CLAYER
  8
STEMPEL
  9
$CELTYPE
  6
BYLAYER
  9
$CECOLOR
 62
   256
  9
$DIMSCALE
 40
1.0
  9
$DIMASZ
 40
3.5
  9
$DIMEXO
 40
1.0
  9
$DIMDLI
 40
0.38
  9
$DIMRND
 40
0.0
  9
$DIMDLE
 40
0.0
  9
$DIMEXE
 40
1.0
  9
$DIMTP
 40
0.0
  9
$DIMTM
 40
0.000000001
  9
$DIMTXT
 40
3.5
  9
$DIMCEN
 40
0.09
  9
$DIMTSZ
 40
0.0
  9
$DIMTOL
 70
     0
  9
$DIMLIM
 70
     0
  9
$DIMTIH
 70
     0
  9
$DIMTOH
 70
     0
  9
$DIMSE1
 70
     0
  9
$DIMSE2
 70
     0
  9
$DIMTAD
 70
     1
  9
$DIMZIN
 70
     8
  9
$DIMBLK
  1

  9
$DIMASO
 70
     1
  9
$DIMSHO
 70
     0
  9
$DIMPOST
  1

  9
$DIMAPOST
  1

  9
$DIMALT
 70
     0
  9
$DIMALTD
 70
     2
  9
$DIMALTF
 40
25.3999999999999986
  9
$DIMLFAC
 40
2.0
  9
$DIMTOFL
 70
     1
  9
$DIMTVP
 40
0.0
  9
$DIMTIX
 70
     0
  9
$DIMSOXD
 70
     0
  9
$DIMSAH
 70
     0
  9
$DIMBLK1
  1

  9
$DIMBLK2
  1

  9
$DIMSTYLE
  2
LORO
  9
$DIMCLRD
 70
     0
  9
$DIMCLRE
 70
     0
  9
$DIMCLRT
 70
     1
  9
$DIMTFAC
 40
0.5
  9
$DIMGAP
 40
1.5
  9
$LUNITS
 70
     2
  9
$LUPREC
 70
     2
  9
$SKETCHINC
 40
1.0
  9
$FILLETRAD
 40
8.0
  9
$AUNITS
 70
     0
  9
$AUPREC
 70
     0
  9
$MENU
  1
ACAD
  9
$ELEVATION
 40
0.0
  9
$PELEVATION
 40
0.0
  9
$THICKNESS
 40
0.0
  9
$LIMCHECK
 70
     0
  9
$BLIPMODE
 70
     0
  9
$CHAMFERA
 40
0.0
  9
$CHAMFERB
 40
0.0
  9
$SKPOLY
 70
     0
  9
$TDCREATE
 40
2455397.8646990740671754
  9
$TDUPDATE
 40
2460747.4246875001117587
  9
$TDINDWG
 40
0.1798525926
  9
$TDUSRTIMER
 40
0.1798525926
  9
$USRTIMER
 70
     1
  9
$ANGBASE
 50
0.0
  9
$ANGDIR
 70
     0
  9
$PDMODE
 70
     0
  9
$PDSIZE
 40
0.0
  9
$PLINEWID
 40
0.0
  9
$COORDS
 70
     1
  9
$SPLFRAME
 70
     0
  9
$SPLINETYPE
 70
     6
  9
$SPLINESEGS
 70
     8
  9
$ATTDIA
 70
     1
  9
$ATTREQ
 70
     1
  9
$HANDLING
 70
     1
  9
$HANDSEED
  5
2739
  9
$SURFTAB1
 70
     6
  9
$SURFTAB2
 70
     6
  9
$SURFTYPE
 70
     6
  9
$SURFU
 70
     6
  9
$SURFV
 70
     6
  9
$UCSNAME
  2

  9
$UCSORG
 10
0.0
 20
0.0
 30
0.0
  9
$UCSXDIR
 10
1.0
 20
0.0
 30
0.0
  9
$UCSYDIR
 10
0.0
 20
1.0
 30
0.0
  9
$PUCSNAME
  2

  9
$PUCSORG
 10
0.0
 20
0.0
 30
0.0
  9
$PUCSXDIR
 10
1.0
 20
0.0
 30
0.0
  9
$PUCSYDIR
 10
0.0
 20
1.0
 30
0.0
  9
$USERI1
 70
     0
  9
$USERI2
 70
     0
  9
$USERI3
 70
     0
  9
$USERI4
 70
     0
  9
$USERI5
 70
     0
  9
$USERR1
 40
0.0
  9
$USERR2
 40
0.0
  9
$USERR3
 40
0.0
  9
$USERR4
 40
0.0
  9
$USERR5
 40
0.0
  9
$WORLDVIEW
 70
     1
  9
$SHADEDGE
 70
     3
  9
$SHADEDIF
 70
    70
  9
$TILEMODE
 70
     1
  9
$MAXACTVP
 70
    16
  9
$PLIMCHECK
 70
     0
  9
$PEXTMIN
 10
1.0000000000000000E+20
 20
1.0000000000000000E+20
 30
1.0000000000000000E+20
  9
$PEXTMAX
 10
-1.0000000000000000E+20
 20
-1.0000000000000000E+20
 30
-1.0000000000000000E+20
  9
$PLIMMIN
 10
-6.5507563588300846
 20
-5.0340269820445647
  9
$PLIMMAX
 10
203.4492436411698861
 20
291.9659730179553776
  9
$UNITMODE
 70
     0
  9
$VISRETAIN
 70
     0
  9
$PLINEGEN
 70
     0
  9
$PSLTSCALE
 70
     0
  0
ENDSEC
  0
SECTION
  2
TABLES
  0
TABLE
  2
VPORT
 70
     1
  0
VPORT
  2
*ACTIVE
 70
     0
 10
0.0
 20
0.0
 11
1.0
 21
1.0
 12
-80.1893006218679147
 22
-1267.7328808987811044
 13
0.0
 23
0.0
 14
1.0
 24
1.0
 15
10.0
 25
10.0
 16
0.0
 26
-1812.9302584319509606
 36
0.0
 17
80.1893006218676589
 27
1560.2173461914060226
 37
-200.5171038424296057
 40
3155.7950133749359338
 41
1.9004329004328999
 42
50.0
 43
0.0
 44
0.0
 50
0.0
 51
0.0
 71
     0
 72
  1500
 73
     1
 74
     0
 75
     0
 76
     0
 77
     0
 78
     0
  0
ENDTAB
  0
TABLE
  2
LTYPE
 70
     3
  0
LTYPE
  2
CONTINUOUS
 70
     0
  3
Solid line
 72
    65
 73
     0
 40
0.0
  0
LTYPE
  2
AUSGEZOGEN
 70
     0
  3
Ausgezogene Linie
 72
    65
 73
     0
 40
0.0
  0
LTYPE
  2
VERDECKT
 70
     0
  3
Verdeckt __ __ __ __ __ __ __ __ __ __ __ __ __
 72
    65
 73
     2
 40
0.375
 49
0.25
 49
-0.125
  0
ENDTAB
  0
TABLE
  2
LAYER
 70
     8
  0
LAYER
  2
0
 70
     0
 62
     7
  6
CONTINUOUS
  0
LAYER
  2
VOLL
 70
     0
 62
     1
  6
CONTINUOUS
  0
LAYER
  2
BEM
 70
     0
 62
     7
  6
CONTINUOUS
  0
LAYER
  2
STEMPEL
 70
     0
 62
     3
  6
CONTINUOUS
  0
LAYER
  2
TEXT
 70
     0
 62
     7
  6
CONTINUOUS
  0
LAYER
  2
DEFPOINTS
 70
     0
 62
     7
  6
AUSGEZOGEN
  0
LAYER
  2
ADSK_ASSOC_ENTITY_BACKUPS
 70
     1
 62
    -7
  6
CONTINUOUS
  0
LAYER
  2
ROHR
 70
     0
 62
   254
  6
CONTINUOUS
  0
ENDTAB
  0
TABLE
  2
STYLE
 70
     3
  0
STYLE
  2
STANDARD
 70
     0
 40
0.0
 41
0.8
 50
0.0
 71
     0
 42
3.5
  3
simplex.shx
  4

  0
STYLE
  2
GREEKS
 70
     0
 40
0.0
 41
0.8
 50
0.0
 71
     0
 42
2.5
  3
SIMPLEX.shx
  4

  0
STYLE
  2

 70
     1
 40
0.0
 41
1.0
 50
0.0
 71
     0
 42
2.5
  3
ltypeshp.shx
  4

  0
ENDTAB
  0
TABLE
  2
VIEW
 70
     0
  0
ENDTAB
  0
TABLE
  2
UCS
 70
     0
  0
ENDTAB
  0
TABLE
  2
APPID
 70
    26
  0
APPID
  2
ACAD
 70
     0
  0
APPID
  2
ACAD_NAV_VCDISPLAY
 70
     0
  0
APPID
  2
ACAECLAYERSTANDARD
 70
     0
  0
APPID
  2
ACCMTRANSPARENCY
 70
     0
  0
APPID
  2
ACAD_PSEXT
 70
     0
  0
APPID
  2
ACAD_MLEADERVER
 70
     0
  0
APPID
  2
ACAD_OBJECT_CHANGE_GUID
 70
     0
  0
APPID
  2
ACAD_EXEMPT_FROM_CAD_STANDARDS
 70
     0
  0
APPID
  2
ACADANNOMONITORALERTICONDI
 70
     0
  0
APPID
  2
ACAD_DSTYLE_DIMJAG
 70
     0
  0
APPID
  2
ACAD_DSTYLE_DIMTALN
 70
     0
  0
APPID
  2
GRADIENTCOLOR1ACI
 70
     0
  0
APPID
  2
GRADIENTCOLOR2ACI
 70
     0
  0
APPID
  2
ACAD_DSTYLE_DIMRADIAL_EXTENSION
 70
     0
  0
APPID
  2
ACDBDYNAMICBLOCKGUID
 70
     0
  0
APPID
  2
ACAD_STEPID
 70
     0
  0
APPID
  2
ACAD_DSTYLE_DIMBREAK
 70
     0
  0
APPID
  2
ACSYNERGY
 70
     0
  0
APPID
  2
SYNERGY_BODY_TBR_ID
 70
     0
  0
APPID
  2
ACAD_VIEW_EDGE_ID
 70
     0
  0
APPID
  2
ACADANNOPO
 70
     0
  0
APPID
  2
ACAD_DIMASSOC_CALC_DIMLFAC
 70
     0
  0
APPID
  2
ACAD_DIMASSOC_DIMLFAC
 70
     0
  0
APPID
  2
ACAD_DIMASSOC_OVERRIDDEN_D
 70
     0
  0
APPID
  2
ACADANNOTATIVE
 70
     0
  0
APPID
  2
ACSYNERGYSKETCH
 70
     0
  0
ENDTAB
  0
TABLE
  2
DIMSTYLE
 70
     2
  0
DIMSTYLE
  2
LORO
 70
     0
  3

  4

  5

  6

  7

 40
1.0
 41
3.5
 42
1.0
 43
0.38
 44
1.0
 45
0.0
 46
0.0
 47
0.0
 48
0.000000001
140
3.5
141
0.09
142
0.0
143
25.3999999999999986
144
2.0
145
0.0
146
0.5
147
1.5
 71
     0
 72
     0
 73
     0
 74
     0
 75
     0
 76
     0
 77
     1
 78
     8
170
     0
171
     2
172
     1
173
     0
174
     0
175
     0
176
     0
177
     0
178
     1
  0
DIMSTYLE
  2
STANDARD
 70
     0
  3

  4

  5

  6

  7

 40
1.0
 41
0.18
 42
0.0625
 43
0.38
 44
0.18
 45
0.0
 46
0.0
 47
0.0
 48
0.0
140
0.18
141
0.09
142
0.0
143
25.3999999999999986
144
1.0
145
0.0
146
1.0
147
0.09
 71
     0
 72
     0
 73
     1
 74
     1
 75
     0
 76
     0
 77
     0
 78
     0
170
     0
171
     2
172
     0
173
     0
174
     0
175
     0
176
     0
177
     0
178
     0
  0
ENDTAB
  0
ENDSEC
  0
SECTION
  2
BLOCKS
  0
BLOCK
  8
0
  2
$MODEL_SPACE
 70
     0
 10
0.0
 20
0.0
 30
0.0
  3
$MODEL_SPACE
  1

  0
ENDBLK
  5
36
  8
0
  0
BLOCK
 67
     1
  8
0
  2
$PAPER_SPACE
 70
     0
 10
0.0
 20
0.0
 30
0.0
  3
$PAPER_SPACE
  1

  0
ENDBLK
  5
34
 67
     1
  8
0
  0
BLOCK
  8
0
  2
*S0
 70
     1
 10
0.0
 20
0.0
 30
0.0
  3
*S0
  1

  0
ENDBLK
  5
16F1
  8
0
  0
BLOCK
  8
0
  2
A$CBCEDBEA3
 70
     0
 10
0.0
 20
0.0
 30
0.0
  3
A$CBCEDBEA3
  1

  0
LINE
  5
26AB
  8
0
  6
CONTINUOUS
 62
     3
 10
-29.6063531499369184
 20
3038.0
 30
-0.0000000000006746
 11
29.606353149936929
 21
3038.0
 31
-0.0000000000006746
210
0.0
220
1.0
230
-0.0000000000000002
  0
LINE
  5
26AC
  8
0
  6
CONTINUOUS
 62
     3
 10
25.5000000000000107
 20
0.0
 30
0.0
 11
-25.5
 21
0.0
 31
0.0
210
0.0
220
1.0
230
-0.0000000000000002
  0
ARC
  5
26AD
  8
0
  6
CONTINUOUS
 62
     3
 10
11.99999999998081
 20
3029.6174986573360002
 30
0.0
 40
19.5000000000190887
210
0.0
220
-0.0000000000000002
230
-1.0
 50
359.9999999999973284
 51
25.4594285688045083
  0
ARC
  5
26AE
  8
0
  6
CONTINUOUS
 62
     3
 10
-11.9999999999796092
 20
3029.6174986573350907
 30
0.0
 40
19.5000000000203606
210
0.0
220
-0.0000000000000002
230
-1.0
 50
154.5405714311943086
 51
180.0000000000013074
  0
LINE
  5
26AF
  8
0
  6
CONTINUOUS
 62
     3
 10
31.4999999999997691
 20
3029.6174986573350907
 30
-0.0000000000006727
 11
31.4999999999997691
 21
3028.2020357021019663
 31
-0.0000000000006724
210
0.0
220
1.0
230
-0.0000000000000002
  0
LINE
  5
26B0
  8
0
  6
CONTINUOUS
 62
     3
 10
-31.4999999999997691
 20
3029.6174986573350907
 30
-0.0000000000006727
 11
-31.4999999999997691
 21
3028.2020357021010568
 31
-0.0000000000006724
210
0.0
220
1.0
230
-0.0000000000000002
  0
ARC
  5
26B1
  8
0
  6
CONTINUOUS
 62
     3
 10
6.49999999999861
 20
3028.1619999999998072
 30
0.0
 40
25.0000320571293386
210
0.0
220
-0.0000000000000002
230
-1.0
 50
340.5369005553121724
 51
0.0917549919713641
  0
ARC
  5
26B2
  8
0
  6
CONTINUOUS
 62
     3
 10
-6.4999999999984857
 20
3028.1619999999998072
 30
0.0
 40
25.0000320571295092
210
0.0
220
-0.0000000000000002
230
-1.0
 50
179.9082450080285867
 51
199.4630994446877139
  0
ARC
  5
26B3
  8
0
  6
CONTINUOUS
 62
     3
 10
39.5000000000017124
 20
3016.4999999999990905
 30
0.0
 40
10.0000000000018705
210
0.0
220
-0.0000000000000002
230
-1.0
 50
160.5369005553104103
 51
179.9999999999974136
  0
ARC
  5
26B4
  8
0
  6
CONTINUOUS
 62
     3
 10
-39.5000000000017195
 20
3016.4999999999990905
 30
0.0
 40
10.0000000000017994
210
0.0
220
-0.0000000000000002
230
-1.0
 50
0.0000000000026081
 51
19.4630994446896004
  0
LINE
  5
26B5
  8
0
  6
CONTINUOUS
 62
     3
 10
29.5
 20
3016.5
 30
-0.0000000000006698
 11
29.5000000000000107
 21
3005.408326913196106
 31
-0.0000000000006673
210
0.0
220
1.0
230
-0.0000000000000002
  0
LINE
  5
26B6
  8
0
  6
CONTINUOUS
 62
     3
 10
-29.4999999999998899
 20
3016.5
 30
-0.0000000000006698
 11
-29.4999999999998792
 21
3005.408326913196106
 31
-0.0000000000006673
210
0.0
220
1.0
230
-0.0000000000000002
  0
ARC
  5
26B7
  8
0
  6
CONTINUOUS
 62
     3
 10
17.500000000001581
 20
3005.4083269131951965
 30
0.0
 40
11.9999999999982201
210
0.0
220
-0.0000000000000002
230
-1.0
 50
328.2116693829460132
 51
0.0000000000021628
  0
ARC
  5
26B8
  8
0
  6
CONTINUOUS
 62
     3
 10
-17.5000000000017302
 20
3005.4083269131951965
 30
0.0
 40
11.9999999999982503
210
0.0
220
-0.0000000000000002
230
-1.0
 50
179.9999999999978115
 51
211.7883306170541005
  0
ARC
  5
26B9
  8
0
  6
CONTINUOUS
 62
     3
 10
34.4999999999992113
 20
2994.8726731603428561
 30
0.0
 40
7.9999999999992841
210
0.0
220
-0.0000000000000002
230
-1.0
 50
148.211669382948088
 51
180.0000000000032117
  0
ARC
  5
26BA
  8
0
  6
CONTINUOUS
 62
     3
 10
-34.4999999999986571
 20
2994.8726731603428561
 30
0.0
 40
7.9999999999986207
210
0.0
220
-0.0000000000000002
230
-1.0
 50
359.9999999999935199
 51
31.7883306170543989
  0
ARC
  5
26BB
  8
0
  6
CONTINUOUS
 62
     3
 10
1.0000000000001981
 20
9.7120880782101278
 30
0.0
 40
27.5000000000001883
210
0.0
220
-0.0000000000000002
230
-1.0
 50
180.0
 51
187.125016348901795
  0
ARC
  5
26BC
  8
0
  6
CONTINUOUS
 62
     3
 10
-0.9999999999992824
 20
9.7120880782100354
 30
0.0
 40
27.4999999999992788
210
0.0
220
-0.0000000000000002
230
-1.0
 50
352.874983651098205
 51
0.0000000000001145
  0
LINE
  5
26BD
  8
0
  6
CONTINUOUS
 62
     3
 10
-25.5
 20
-0.0000000000000009
 30
0.0
 11
-26.2876416096258616
 21
6.3011328770068546
 31
-0.0000000000000014
210
0.0
220
1.0
230
-0.0000000000000002
  0
LINE
  5
26BE
  8
0
  6
CONTINUOUS
 62
     3
 10
25.5
 20
-0.0000000000000009
 30
0.0
 11
26.2876416096258616
 21
6.3011328770068573
 31
-0.0000000000000014
210
0.0
220
1.0
230
-0.0000000000000002
  0
LINE
  5
26BF
  8
0
  6
CONTINUOUS
 62
     3
 10
-26.5
 20
9.7120880782100887
 30
-0.0000000000000022
 11
-26.5
 21
2994.8726731603428561
 31
-0.000000000000665
210
0.0
220
1.0
230
-0.0000000000000002
  0
LINE
  5
26C0
  8
0
  6
CONTINUOUS
 62
     3
 10
26.5
 20
9.7120880782100887
 30
-0.0000000000000022
 11
26.5
 21
2994.8726731603419466
 31
-0.000000000000665
210
0.0
220
1.0
230
-0.0000000000000002
  0
ARC
  5
26C1
  8
0
  6
VERDECKT
 62
     1
 10
34.5000000000014779
 20
2994.8726731603419466
 30
0.0
 40
9.5000000000015561
210
0.0
220
-0.0000000000000002
230
-1.0
 50
148.2116693829485996
 51
180.0
  0
ARC
  5
26C2
  8
0
  6
VERDECKT
 62
     1
 10
-34.5000000000016271
 20
2994.8726731603419466
 30
0.0
 40
9.5000000000015863
210
0.0
220
-0.0000000000000002
230
-1.0
 50
0.0
 51
31.7883306170512689
  0
ARC
  5
26C3
  8
0
  6
VERDECKT
 62
     1
 10
17.5000000000014211
 20
3005.4083269131951965
 30
0.0
 40
10.4999999999985008
210
0.0
220
-0.0000000000000002
230
-1.0
 50
328.2116693829480027
 51
0.0000000000024808
  0
ARC
  5
26C4
  8
0
  6
VERDECKT
 62
     1
 10
-17.5000000000015206
 20
3005.4083269131951965
 30
0.0
 40
10.4999999999984492
210
0.0
220
-0.0000000000000002
230
-1.0
 50
179.9999999999974989
 51
211.7883306170519973
  0
LINE
  5
26C5
  8
0
  6
VERDECKT
 62
     1
 10
28.0
 20
3016.5
 30
-0.0000000000006698
 11
28.0000000000000107
 21
3005.408326913196106
 31
-0.0000000000006673
210
0.0
220
1.0
230
-0.0000000000000002
  0
LINE
  5
26C6
  8
0
  6
VERDECKT
 62
     1
 10
-27.9999999999998899
 20
3016.5
 30
-0.0000000000006698
 11
-27.9999999999998792
 21
3005.408326913196106
 31
-0.0000000000006673
210
0.0
220
1.0
230
-0.0000000000000002
  0
ARC
  5
26C7
  8
0
  6
VERDECKT
 62
     1
 10
39.5000000000003624
 20
3016.5
 30
0.0
 40
11.5000000000003606
210
0.0
220
-0.0000000000000002
230
-1.0
 50
160.5369005553131103
 51
180.0000000000021885
  0
ARC
  5
26C8
  8
0
  6
VERDECKT
 62
     1
 10
-39.5000000000002416
 20
3016.5
 30
0.0
 40
11.5000000000003197
210
0.0
220
-0.0000000000000002
230
-1.0
 50
359.9999999999977263
 51
19.4630994446870709
  0
ARC
  5
26C9
  8
0
  6
VERDECKT
 62
     1
 10
6.499999999886394
 20
3028.1620000000198161
 30
0.0
 40
23.500032057241679
210
0.0
220
-0.0000000000000002
230
-1.0
 50
340.5369005553582156
 51
0.094638044761295
  0
ARC
  5
26CA
  8
0
  6
VERDECKT
 62
     1
 10
-6.4999999998866294
 20
3028.1620000000198161
 30
0.0
 40
23.5000320572413415
210
0.0
220
-0.0000000000000002
230
-1.0
 50
179.9053619552387033
 51
199.4630994446418981
  0
LINE
  5
26CB
  8
0
  6
VERDECKT
 62
     1
 10
29.9999999999997691
 20
3029.6174986573391834
 30
-0.0000000000006727
 11
29.9999999999997691
 21
3028.2008160540699464
 31
-0.0000000000006724
210
0.0
220
1.0
230
-0.0000000000000002
  0
LINE
  5
26CC
  8
0
  6
VERDECKT
 62
     1
 10
-29.9999999999997691
 20
3029.6174986573391834
 30
-0.0000000000006727
 11
-29.9999999999997691
 21
3028.2008160540699464
 31
-0.0000000000006724
210
0.0
220
1.0
230
-0.0000000000000002
  0
ARC
  5
26CD
  8
0
  6
VERDECKT
 62
     1
 10
11.9999999999990496
 20
3029.6174986573391834
 30
0.0
 40
18.000000000000739
210
0.0
220
-0.0000000000000002
230
-1.0
 50
0.0000000000014503
 51
27.7551793916167391
  0
ARC
  5
26CE
  8
0
  6
VERDECKT
 62
     1
 10
-11.9999999999990496
 20
3029.6174986573391834
 30
0.0
 40
18.0000000000007887
210
0.0
220
-0.0000000000000002
230
-1.0
 50
152.2448206083832076
 51
179.9999999999984936
  0
ARC
  5
26CF
  8
0
  6
VERDECKT
 62
     1
 10
0.9999999999998117
 20
9.7120880782100993
 30
0.0
 40
25.9999999999998117
210
0.0
220
-0.0000000000000002
230
-1.0
 50
180.0
 51
187.125016348901795
  0
ARC
  5
26D0
  8
0
  6
VERDECKT
 62
     1
 10
-1.0000000000007241
 20
9.7120880782101207
 30
0.0
 40
26.0000000000007212
210
0.0
220
-0.0000000000000002
230
-1.0
 50
352.8749836510983187
 51
359.9999999999998863
  0
LINE
  5
26D1
  8
0
  6
VERDECKT
 62
     1
 10
-23.9883266721940203
 20
-0.0000000000000009
 30
0.0
 11
-24.7992247945553608
 21
6.487184978890669
 31
-0.0000000000000014
210
0.0
220
1.0
230
-0.0000000000000002
  0
LINE
  5
26D2
  8
0
  6
VERDECKT
 62
     1
 10
23.9883266721940203
 20
-0.0000000000000009
 30
0.0
 11
24.7992247945553608
 21
6.487184978890669
 31
-0.0000000000000014
210
0.0
220
1.0
230
-0.0000000000000002
  0
LINE
  5
26D3
  8
0
  6
VERDECKT
 62
     1
 10
-25.0
 20
9.7120880782100887
 30
-0.0000000000000022
 11
-25.0
 21
2994.8726731603419466
 31
-0.000000000000665
210
0.0
220
1.0
230
-0.0000000000000002
  0
LINE
  5
26D4
  8
0
  6
VERDECKT
 62
     1
 10
25.0
 20
9.7120880782100887
 30
-0.0000000000000022
 11
25.0
 21
2994.8726731603419466
 31
-0.000000000000665
210
0.0
220
1.0
230
-0.0000000000000002
  0
ENDBLK
  5
26D6
  8
0
  0
BLOCK
  8
0
  2
A$CD01C27D1
 70
     0
 10
0.0
 20
0.0
 30
0.0
  3
A$CD01C27D1
  1

  0
CIRCLE
  5
26DA
  8
0
  6
CONTINUOUS
 62
     3
 10
0.0000000000006632
 20
0.00000000000073
 30
0.0
 40
25.0
  0
CIRCLE
  5
26DB
  8
0
  6
CONTINUOUS
 62
     3
 10
0.0000000000006742
 20
0.0000000000008155
 30
0.0
 40
27.9290197827825288
  0
CIRCLE
  5
26DC
  8
0
  6
CONTINUOUS
 62
     3
 10
0.0000000000006742
 20
0.0000000000008155
 30
0.0
 40
29.606353149936929
  0
CIRCLE
  5
26DD
  8
0
  6
CONTINUOUS
 62
     3
 10
0.0000000000006724
 20
0.0000000000008149
 30
0.0
 40
31.4999999999999005
  0
CIRCLE
  5
26DE
  8
0
  6
CONTINUOUS
 62
     3
 10
-0.0000000000000015
 20
-0.0000000000000036
 30
0.0
 40
23.9883266721940203
  0
CIRCLE
  5
26DF
  8
0
  6
CONTINUOUS
 62
     3
 10
0.0000000000006721
 20
0.0000000000008149
 30
0.0
 40
31.5000320571279993
  0
CIRCLE
  5
26E0
  8
0
  6
VERDECKT
 62
     1
 10
0.0000000000006695
 20
0.0000000000008141
 30
0.0
 40
27.9999999999999183
  0
CIRCLE
  5
26E1
  8
0
  6
VERDECKT
 62
     1
 10
0.0000000000006724
 20
0.0000000000008149
 30
0.0
 40
29.9999999999997904
  0
CIRCLE
  5
26E2
  8
0
  6
VERDECKT
 62
     1
 10
0.0000000000006695
 20
0.0000000000008141
 30
0.0
 40
29.4999999999999183
  0
CIRCLE
  5
26E3
  8
0
  6
VERDECKT
 62
     1
 10
0.0000000000006632
 20
0.00000000000073
 30
0.0
 40
26.5
  0
CIRCLE
  5
26E4
  8
0
  6
VERDECKT
 62
     1
 10
-0.0000000000000015
 20
-0.0000000000000036
 30
0.0
 40
25.5
  0
CIRCLE
  5
26E5
  8
0
  6
VERDECKT
 62
     1
 10
0.0000000000006721
 20
0.0000000000008149
 30
0.0
 40
30.0000320571279708
  0
ENDBLK
  5
26E7
  8
0
  0
ENDSEC
  0
SECTION
  2
ENTITIES
  0
TEXT
  5
8F
  8
VOLL
 10
78.076754716981128
 20
31.025947764705851
 30
0.0
 40
1.8
  1

  7
GREEKS
  0
TEXT
  5
651
  8
VOLL
 10
591.7182672356415196
 20
33.5632643046214199
 30
0.0
 40
1.8
  1

  7
GREEKS
  0
TEXT
  5
652
  8
TEXT
 10
923.5505354392344088
 20
39.1214998378469616
 30
0.0
 40
2.5
  1
  
  7
GREEKS
 72
     1
 11
925.8124402011393386
 21
39.1214998378469616
 31
0.0
  0
TEXT
  5
653
  8
BEM
 10
1167.6702527517159069
 20
174.6803818682492135
 30
0.0
 40
2.5
  1
 
 72
     4
 11
1168.8012051326691108
 21
174.6803818682492135
 31
0.0
  0
TEXT
  5
654
  8
BEM
 10
746.8578693924373511
 20
53.8966751942979627
 30
0.0
 40
2.5
  1

  7
GREEKS
  0
TEXT
  5
655
  8
VOLL
 10
732.7916763727158695
 20
33.7134145372628495
 30
0.0
 40
1.8
  1

  7
GREEKS
  0
TEXT
  5
656
  8
BEM
 10
767.2797412120005447
 20
38.4391388604834603
 30
0.0
 40
2.5
  1

 41
0.8
  7
GREEKS
  0
TEXT
  5
657
  8
BEM
 10
767.2797412120005447
 20
33.7453703064312904
 30
0.0
 40
2.5
  1

 41
0.8
  7
GREEKS
  0
TEXT
  5
658
  8
BEM
 10
767.2797412120005447
 20
28.5075264877678087
 30
0.0
 40
2.5
  1

 41
0.8
  7
GREEKS
  0
TEXT
  5
659
  8
BEM
 10
767.2067967346260957
 20
24.0023375376701686
 30
0.0
 40
1.8
  1

 41
0.8
  7
GREEKS
  0
TEXT
  5
65A
  8
BEM
 10
754.5232258550148572
 20
49.5939266338954567
 30
0.0
 40
2.0
  1

 41
0.8
  7
GREEKS
 72
     1
 11
754.5232258550148572
 21
49.5939266338954567
 31
0.0
  0
TEXT
  5
65B
  8
TEXT
 10
1064.6239445763089861
 20
39.2716500704883984
 30
0.0
 40
2.5
  1
  
  7
GREEKS
 72
     1
 11
1066.8858493382140296
 21
39.2716500704883984
 31
0.0
  0
TEXT
  5
65C
  8
BEM
 10
1308.743661888790939
 20
174.8305321008905935
 30
0.0
 40
2.5
  1
 
 72
     4
 11
1309.8746142697430059
 21
174.8305321008905935
 31
0.0
  0
TEXT
  5
D28
  8
VOLL
 10
318.0630172788846721
 20
214.5485924295865061
 30
0.0
 40
1.8
  1

  7
GREEKS
  0
INSERT
  5
16F3
  8
ADSK_ASSOC_ENTITY_BACKUPS
  2
*S0
 10
0.0
 20
0.0
 30
0.0
  0
INSERT
  5
26D7
  8
STEMPEL
  2
A$CBCEDBEA3
 10
0.0
 20
-3038.0
 30
0.0000000000007235
210
0.0
220
-1.0
230
0.0000000000000001
  0
INSERT
  5
26E8
  8
STEMPEL
  2
A$CD01C27D1
 10
-0.0000000000006821
 20
69.9999999999992752
 30
0.0000000000000043
210
0.0
220
-1.0
230
0.0000000000000001
  0
VIEWPORT
  5
C2B
 67
     1
  8
0
 10
98.4492436411699146
 20
143.465973017955406
 30
0.0
 40
567.3581314878892954
 41
298.5415224913494967
 68
     1
 69
     1
1001
ACAD
1000
MVIEW
1002
{
1070
    16
1010
0.0
1020
0.0
1030
0.0
1010
0.0
1020
0.0
1030
1.0
1040
0.0
1040
298.5415224913494967
1040
98.4492436411699146
1040
143.465973017955406
1040
50.0
1040
0.0
1040
0.0
1070
     0
1070
  1500
1070
     1
1070
     1
1070
     0
1070
     0
1070
     0
1070
     0
1040
0.0
1040
0.0
1040
0.0
1040
10.0
1040
10.0
1040
10.0
1040
10.0
1070
     0
1002
{
1002
}
1002
}
  0
ENDSEC
  0
EOF
